  0
SECTION
  2
HEADER
  9
$ACADVER
  1
AC1032
  9
$ACADMAINTVER
 90
      250
  9
$DWGCODEPAGE
  3
ANSI_932
  9
$LASTSAVEDBY
  1
dsp199
  9
$REQUIREDVERSIONS
160
                 0
  9
$INSBASE
 10
0.0
 20
0.0
 30
0.0
  9
$EXTMIN
 10
2047.596350537882
 20
2077.322581923066
 30
0.0
  9
$EXTMAX
 10
2725.923205359508
 20
2290.743594610305
 30
0.0
  9
$LIMMIN
 10
0.0
 20
0.0
  9
$LIMMAX
 10
420.0
 20
297.0
  9
$ORTHOMODE
 70
     0
  9
$REGENMODE
 70
     1
  9
$FILLMODE
 70
     1
  9
$QTEXTMODE
 70
     0
  9
$MIRRTEXT
 70
     0
  9
$LTSCALE
 40
1.0
  9
$ATTMODE
 70
     1
  9
$TEXTSIZE
 40
2.5
  9
$TRACEWID
 40
1.0
  9
$TEXTSTYLE
  7
Standard
  9
$CLAYER
  8
0
  9
$CELTYPE
  6
ByLayer
  9
$CECOLOR
 62
   256
  9
$CELTSCALE
 40
1.0
  9
$DISPSILH
 70
     0
  9
$DIMSCALE
 40
1.0
  9
$DIMASZ
 40
2.5
  9
$DIMEXO
 40
0.625
  9
$DIMDLI
 40
3.75
  9
$DIMRND
 40
0.0
  9
$DIMDLE
 40
0.0
  9
$DIMEXE
 40
1.25
  9
$DIMTP
 40
0.0
  9
$DIMTM
 40
0.0
  9
$DIMTXT
 40
2.5
  9
$DIMCEN
 40
2.5
  9
$DIMTSZ
 40
0.0
  9
$DIMTOL
 70
     0
  9
$DIMLIM
 70
     0
  9
$DIMTIH
 70
     0
  9
$DIMTOH
 70
     0
  9
$DIMSE1
 70
     0
  9
$DIMSE2
 70
     0
  9
$DIMTAD
 70
     1
  9
$DIMZIN
 70
     8
  9
$DIMBLK
  1

  9
$DIMASO
 70
     1
  9
$DIMSHO
 70
     1
  9
$DIMPOST
  1

  9
$DIMAPOST
  1

  9
$DIMALT
 70
     0
  9
$DIMALTD
 70
     3
  9
$DIMALTF
 40
0.03937007874016
  9
$DIMLFAC
 40
1.0
  9
$DIMTOFL
 70
     1
  9
$DIMTVP
 40
0.0
  9
$DIMTIX
 70
     0
  9
$DIMSOXD
 70
     0
  9
$DIMSAH
 70
     0
  9
$DIMBLK1
  1

  9
$DIMBLK2
  1

  9
$DIMSTYLE
  2
ISO-25
  9
$DIMCLRD
 70
     0
  9
$DIMCLRE
 70
     0
  9
$DIMCLRT
 70
     0
  9
$DIMTFAC
 40
1.0
  9
$DIMGAP
 40
0.625
  9
$DIMJUST
 70
     0
  9
$DIMSD1
 70
     0
  9
$DIMSD2
 70
     0
  9
$DIMTOLJ
 70
     0
  9
$DIMTZIN
 70
     8
  9
$DIMALTZ
 70
     0
  9
$DIMALTTZ
 70
     0
  9
$DIMUPT
 70
     0
  9
$DIMDEC
 70
     2
  9
$DIMTDEC
 70
     2
  9
$DIMALTU
 70
     2
  9
$DIMALTTD
 70
     3
  9
$DIMTXSTY
  7
Standard
  9
$DIMAUNIT
 70
     0
  9
$DIMADEC
 70
     0
  9
$DIMALTRND
 40
0.0
  9
$DIMAZIN
 70
     0
  9
$DIMDSEP
 70
    44
  9
$DIMATFIT
 70
     3
  9
$DIMFRAC
 70
     0
  9
$DIMLDRBLK
  1

  9
$DIMLUNIT
 70
     2
  9
$DIMLWD
 70
    -2
  9
$DIMLWE
 70
    -2
  9
$DIMTMOVE
 70
     0
  9
$DIMFXL
 40
1.0
  9
$DIMFXLON
 70
     0
  9
$DIMJOGANG
 40
0.7853981633974483
  9
$DIMTFILL
 70
     0
  9
$DIMTFILLCLR
 70
     0
  9
$DIMARCSYM
 70
     0
  9
$DIMLTYPE
  6

  9
$DIMLTEX1
  6

  9
$DIMLTEX2
  6

  9
$DIMTXTDIRECTION
 70
     0
  9
$LUNITS
 70
     2
  9
$LUPREC
 70
     4
  9
$SKETCHINC
 40
1.0
  9
$FILLETRAD
 40
0.0
  9
$AUNITS
 70
     0
  9
$AUPREC
 70
     0
  9
$MENU
  1
.
  9
$ELEVATION
 40
0.0
  9
$PELEVATION
 40
0.0
  9
$THICKNESS
 40
0.0
  9
$LIMCHECK
 70
     0
  9
$CHAMFERA
 40
0.0
  9
$CHAMFERB
 40
0.0
  9
$CHAMFERC
 40
0.0
  9
$CHAMFERD
 40
0.0
  9
$SKPOLY
 70
     0
  9
$TDCREATE
 40
2460385.618263889
  9
$TDUCREATE
 40
2460385.243263889
  9
$TDUPDATE
 40
2460385.622743056
  9
$TDUUPDATE
 40
2460385.247743056
  9
$TDINDWG
 40
0.0044791667
  9
$TDUSRTIMER
 40
0.0044791667
  9
$USRTIMER
 70
     1
  9
$ANGBASE
 50
0.0
  9
$ANGDIR
 70
     0
  9
$PDMODE
 70
     0
  9
$PDSIZE
 40
0.0
  9
$PLINEWID
 40
0.0
  9
$SPLFRAME
 70
     0
  9
$SPLINETYPE
 70
     6
  9
$SPLINESEGS
 70
     8
  9
$HANDSEED
  5
6B8
  9
$SURFTAB1
 70
     6
  9
$SURFTAB2
 70
     6
  9
$SURFTYPE
 70
     6
  9
$SURFU
 70
     6
  9
$SURFV
 70
     6
  9
$UCSBASE
  2

  9
$UCSNAME
  2

  9
$UCSORG
 10
0.0
 20
0.0
 30
0.0
  9
$UCSXDIR
 10
1.0
 20
0.0
 30
0.0
  9
$UCSYDIR
 10
0.0
 20
1.0
 30
0.0
  9
$UCSORTHOREF
  2

  9
$UCSORTHOVIEW
 70
     0
  9
$UCSORGTOP
 10
0.0
 20
0.0
 30
0.0
  9
$UCSORGBOTTOM
 10
0.0
 20
0.0
 30
0.0
  9
$UCSORGLEFT
 10
0.0
 20
0.0
 30
0.0
  9
$UCSORGRIGHT
 10
0.0
 20
0.0
 30
0.0
  9
$UCSORGFRONT
 10
0.0
 20
0.0
 30
0.0
  9
$UCSORGBACK
 10
0.0
 20
0.0
 30
0.0
  9
$PUCSBASE
  2

  9
$PUCSNAME
  2

  9
$PUCSORG
 10
0.0
 20
0.0
 30
0.0
  9
$PUCSXDIR
 10
1.0
 20
0.0
 30
0.0
  9
$PUCSYDIR
 10
0.0
 20
1.0
 30
0.0
  9
$PUCSORTHOREF
  2

  9
$PUCSORTHOVIEW
 70
     0
  9
$PUCSORGTOP
 10
0.0
 20
0.0
 30
0.0
  9
$PUCSORGBOTTOM
 10
0.0
 20
0.0
 30
0.0
  9
$PUCSORGLEFT
 10
0.0
 20
0.0
 30
0.0
  9
$PUCSORGRIGHT
 10
0.0
 20
0.0
 30
0.0
  9
$PUCSORGFRONT
 10
0.0
 20
0.0
 30
0.0
  9
$PUCSORGBACK
 10
0.0
 20
0.0
 30
0.0
  9
$USERI1
 70
     0
  9
$USERI2
 70
     0
  9
$USERI3
 70
     0
  9
$USERI4
 70
     0
  9
$USERI5
 70
     0
  9
$USERR1
 40
0.0
  9
$USERR2
 40
0.0
  9
$USERR3
 40
0.0
  9
$USERR4
 40
0.0
  9
$USERR5
 40
0.0
  9
$WORLDVIEW
 70
     1
  9
$SHADEDGE
 70
     3
  9
$SHADEDIF
 70
    70
  9
$TILEMODE
 70
     1
  9
$MAXACTVP
 70
    64
  9
$PINSBASE
 10
0.0
 20
0.0
 30
0.0
  9
$PLIMCHECK
 70
     0
  9
$PEXTMIN
 10
0.0
 20
0.0
 30
0.0
  9
$PEXTMAX
 10
0.0
 20
0.0
 30
0.0
  9
$PLIMMIN
 10
0.0
 20
0.0
  9
$PLIMMAX
 10
12.0
 20
9.0
  9
$UNITMODE
 70
     0
  9
$VISRETAIN
 70
     1
  9
$PLINEGEN
 70
     0
  9
$PSLTSCALE
 70
     1
  9
$TREEDEPTH
 70
  3020
  9
$CMLSTYLE
  2
Standard
  9
$CMLJUST
 70
     0
  9
$CMLSCALE
 40
20.0
  9
$PROXYGRAPHICS
 70
     1
  9
$MEASUREMENT
 70
     1
  9
$CELWEIGHT
370
    -1
  9
$ENDCAPS
280
     0
  9
$JOINSTYLE
280
     0
  9
$LWDISPLAY
290
     0
  9
$INSUNITS
 70
     4
  9
$HYPERLINKBASE
  1

  9
$STYLESHEET
  1

  9
$XEDIT
290
     1
  9
$CEPSNTYPE
380
     0
  9
$PSTYLEMODE
290
     1
  9
$FINGERPRINTGUID
  2
{52DEA77A-2208-1947-AA78-F32FF3417972}
  9
$VERSIONGUID
  2
{337313AD-5406-2547-9AE8-DC09472CF95D}
  9
$EXTNAMES
290
     1
  9
$PSVPSCALE
 40
0.0
  9
$OLESTARTUP
290
     0
  9
$SORTENTS
280
   127
  9
$INDEXCTL
280
     0
  9
$HIDETEXT
280
     1
  9
$XCLIPFRAME
280
     2
  9
$HALOGAP
280
     0
  9
$OBSCOLOR
 70
   257
  9
$OBSLTYPE
280
     0
  9
$INTERSECTIONDISPLAY
280
     0
  9
$INTERSECTIONCOLOR
 70
   257
  9
$DIMASSOC
280
     2
  9
$PROJECTNAME
  1

  9
$CAMERADISPLAY
290
     0
  9
$LENSLENGTH
 40
50.0
  9
$CAMERAHEIGHT
 40
0.0
  9
$STEPSPERSEC
 40
2.0
  9
$STEPSIZE
 40
6.0
  9
$3DDWFPREC
 40
2.0
  9
$PSOLWIDTH
 40
5.0
  9
$PSOLHEIGHT
 40
80.0
  9
$LOFTANG1
 40
1.570796326794896
  9
$LOFTANG2
 40
1.570796326794896
  9
$LOFTMAG1
 40
0.0
  9
$LOFTMAG2
 40
0.0
  9
$LOFTPARAM
 70
     7
  9
$LOFTNORMALS
280
     1
  9
$LATITUDE
 40
37.795
  9
$LONGITUDE
 40
-122.394
  9
$NORTHDIRECTION
 40
0.0
  9
$TIMEZONE
 70
 -8000
  9
$LIGHTGLYPHDISPLAY
280
     1
  9
$TILEMODELIGHTSYNCH
280
     1
  9
$CMATERIAL
347
EC
  9
$SOLIDHIST
280
     0
  9
$SHOWHIST
280
     1
  9
$DWFFRAME
280
     2
  9
$DGNFRAME
280
     0
  9
$REALWORLDSCALE
290
     1
  9
$INTERFERECOLOR
 62
     1
  9
$INTERFEREOBJVS
345
F9
  9
$INTERFEREVPVS
346
F6
  9
$CSHADOW
280
     0
  9
$SHADOWPLANELOCATION
 40
0.0
  0
ENDSEC
  0
SECTION
  2
CLASSES
  0
CLASS
  1
ACDBDICTIONARYWDFLT
  2
AcDbDictionaryWithDefault
  3
ObjectDBX Classes
 90
        0
 91
        1
280
     0
281
     0
  0
CLASS
  1
DICTIONARYVAR
  2
AcDbDictionaryVar
  3
ObjectDBX Classes
 90
        0
 91
       12
280
     0
281
     0
  0
CLASS
  1
TABLESTYLE
  2
AcDbTableStyle
  3
ObjectDBX Classes
 90
     4095
 91
        1
280
     0
281
     0
  0
CLASS
  1
MATERIAL
  2
AcDbMaterial
  3
ObjectDBX Classes
 90
     1153
 91
        3
280
     0
281
     0
  0
CLASS
  1
VISUALSTYLE
  2
AcDbVisualStyle
  3
ObjectDBX Classes
 90
     4095
 91
       24
280
     0
281
     0
  0
CLASS
  1
SCALE
  2
AcDbScale
  3
ObjectDBX Classes
 90
     1153
 91
       17
280
     0
281
     0
  0
CLASS
  1
MLEADERSTYLE
  2
AcDbMLeaderStyle
  3
ACDB_MLEADERSTYLE_CLASS
 90
     4095
 91
        2
280
     0
281
     0
  0
CLASS
  1
CELLSTYLEMAP
  2
AcDbCellStyleMap
  3
ObjectDBX Classes
 90
     1152
 91
        1
280
     0
281
     0
  0
CLASS
  1
EXACXREFPANELOBJECT
  2
ExAcXREFPanelObject
  3
EXAC_ESW
 90
     1025
 91
        0
280
     0
281
     0
  0
CLASS
  1
NPOCOLLECTION
  2
AcDbImpNonPersistentObjectsCollection
  3
ObjectDBX Classes
 90
     1153
 91
        0
280
     0
281
     0
  0
CLASS
  1
LAYER_INDEX
  2
AcDbLayerIndex
  3
ObjectDBX Classes
 90
        0
 91
        0
280
     0
281
     0
  0
CLASS
  1
SPATIAL_INDEX
  2
AcDbSpatialIndex
  3
ObjectDBX Classes
 90
        0
 91
        0
280
     0
281
     0
  0
CLASS
  1
IDBUFFER
  2
AcDbIdBuffer
  3
ObjectDBX Classes
 90
        0
 91
        0
280
     0
281
     0
  0
CLASS
  1
ACDBSECTIONVIEWSTYLE
  2
AcDbSectionViewStyle
  3
ObjectDBX Classes
 90
     1025
 91
        1
280
     0
281
     0
  0
CLASS
  1
ACDBDETAILVIEWSTYLE
  2
AcDbDetailViewStyle
  3
ObjectDBX Classes
 90
     1025
 91
        1
280
     0
281
     0
  0
CLASS
  1
RAPIDRTRENDERSETTINGS
  2
AcDbRapidRTRenderSettings
  3
ObjectDBX Classes
 90
     1024
 91
        7
280
     0
281
     0
  0
CLASS
  1
SORTENTSTABLE
  2
AcDbSortentsTable
  3
ObjectDBX Classes
 90
        0
 91
        1
280
     0
281
     0
  0
ENDSEC
  0
SECTION
  2
TABLES
  0
TABLE
  2
VPORT
  5
8
330
0
100
AcDbSymbolTable
 70
     1
  0
VPORT
  5
EA
330
8
100
AcDbSymbolTableRecord
100
AcDbViewportTableRecord
  2
*Active
 70
     0
 10
0.0
 20
0.0
 11
1.0
 21
1.0
 12
2423.666009754164
 22
2146.428186565106
 13
0.0
 23
0.0
 14
10.0
 24
10.0
 15
10.0
 25
10.0
 16
0.0
 26
0.0
 36
1.0
 17
0.0
 27
0.0
 37
0.0
 40
544.3962420129704
 41
2.351715686274509
 42
50.0
 43
0.0
 44
0.0
 50
0.0
 51
0.0
 71
     0
 72
  1000
 73
     1
 74
     3
 75
     0
 76
     1
 77
     0
 78
     0
281
     0
 65
     1
110
0.0
120
0.0
130
0.0
111
1.0
121
0.0
131
0.0
112
0.0
122
1.0
132
0.0
 79
     0
146
0.0
348
F5
 60
     3
 61
     5
292
     1
282
     1
141
0.0
142
0.0
 63
   250
421
  3355443
1001
ACAD_NAV_VCDISPLAY
1070
     3
  0
ENDTAB
  0
TABLE
  2
LTYPE
  5
5
330
0
100
AcDbSymbolTable
 70
     3
  0
LTYPE
  5
14
330
5
100
AcDbSymbolTableRecord
100
AcDbLinetypeTableRecord
  2
ByBlock
 70
     0
  3

 72
    65
 73
     0
 40
0.0
  0
LTYPE
  5
15
330
5
100
AcDbSymbolTableRecord
100
AcDbLinetypeTableRecord
  2
ByLayer
 70
     0
  3

 72
    65
 73
     0
 40
0.0
  0
LTYPE
  5
16
330
5
100
AcDbSymbolTableRecord
100
AcDbLinetypeTableRecord
  2
Continuous
 70
     0
  3
Solid line
 72
    65
 73
     0
 40
0.0
  0
LTYPE
  5
41D
330
5
100
AcDbSymbolTableRecord
100
AcDbLinetypeTableRecord
  2
HIDDEN
 70
     0
  3
HIDDEN
 72
    65
 73
     2
 40
4.2
 49
8.4
 74
     0
 49
-4.2
 74
     0
  0
LTYPE
  5
41E
330
5
100
AcDbSymbolTableRecord
100
AcDbLinetypeTableRecord
  2
DASHDOT
 70
     0
  3
DASHDOT
 72
    65
 73
     4
 40
14.5
 49
30.0
 74
     0
 49
-9.0
 74
     0
 49
2.5
 74
     0
 49
-9.0
 74
     0
  0
ENDTAB
  0
TABLE
  2
LAYER
  5
2
102
{ACAD_XDICTIONARY
360
1FF
102
}
330
0
100
AcDbSymbolTable
 70
     4
  0
LAYER
  5
10
102
{ACAD_XDICTIONARY
360
13C
102
}
330
2
100
AcDbSymbolTableRecord
100
AcDbLayerTableRecord
  2
0
 70
     0
 62
     7
  6
Continuous
370
    -3
390
F
347
EE
348
0
  0
LAYER
  5
41F
330
2
100
AcDbSymbolTableRecord
100
AcDbLayerTableRecord
  2
1
 70
     0
 62
     7
  6
Continuous
370
     9
390
F
347
EE
348
0
  0
LAYER
  5
420
330
2
100
AcDbSymbolTableRecord
100
AcDbLayerTableRecord
  2
2
 70
     0
 62
     7
  6
Continuous
370
     9
390
F
347
EE
348
0
  0
LAYER
  5
421
330
2
100
AcDbSymbolTableRecord
100
AcDbLayerTableRecord
  2
5
 70
     0
 62
   255
  6
Continuous
370
     9
390
F
347
EE
348
0
  0
ENDTAB
  0
TABLE
  2
STYLE
  5
3
330
0
100
AcDbSymbolTable
 70
     2
  0
STYLE
  5
11
330
3
100
AcDbSymbolTableRecord
100
AcDbTextStyleTableRecord
  2
Standard
 70
     0
 40
0.0
 41
1.0
 50
0.0
 71
     0
 42
2.5
  3
arial.ttf
  4

1001
ACAD
1000
Arial
1071
       34
  0
STYLE
  5
132
330
3
100
AcDbSymbolTableRecord
100
AcDbTextStyleTableRecord
  2
Annotative
 70
     0
 40
0.0
 41
1.0
 50
0.0
 71
     0
 42
2.5
  3
arial.ttf
  4

1001
AcadAnnotative
1000
AnnotativeData
1002
{
1070
     1
1070
     1
1002
}
1001
ACAD
1000
Arial
1071
       34
  0
ENDTAB
  0
TABLE
  2
VIEW
  5
6
330
0
100
AcDbSymbolTable
 70
     0
  0
ENDTAB
  0
TABLE
  2
UCS
  5
7
330
0
100
AcDbSymbolTable
 70
     0
  0
ENDTAB
  0
TABLE
  2
APPID
  5
9
330
0
100
AcDbSymbolTable
 70
     8
  0
APPID
  5
12
330
9
100
AcDbSymbolTableRecord
100
AcDbRegAppTableRecord
  2
ACAD
 70
     0
  0
APPID
  5
9E
330
9
100
AcDbSymbolTableRecord
100
AcDbRegAppTableRecord
  2
ACAD_PSEXT
 70
     0
  0
APPID
  5
133
330
9
100
AcDbSymbolTableRecord
100
AcDbRegAppTableRecord
  2
AcadAnnoPO
 70
     0
  0
APPID
  5
134
330
9
100
AcDbSymbolTableRecord
100
AcDbRegAppTableRecord
  2
AcadAnnotative
 70
     0
  0
APPID
  5
135
330
9
100
AcDbSymbolTableRecord
100
AcDbRegAppTableRecord
  2
ACAD_DSTYLE_DIMJAG
 70
     0
  0
APPID
  5
136
330
9
100
AcDbSymbolTableRecord
100
AcDbRegAppTableRecord
  2
ACAD_DSTYLE_DIMTALN
 70
     0
  0
APPID
  5
165
330
9
100
AcDbSymbolTableRecord
100
AcDbRegAppTableRecord
  2
ACAD_MLEADERVER
 70
     0
  0
APPID
  5
217
330
9
100
AcDbSymbolTableRecord
100
AcDbRegAppTableRecord
  2
ACAD_NAV_VCDISPLAY
 70
     0
  0
ENDTAB
  0
TABLE
  2
DIMSTYLE
  5
A
330
0
100
AcDbSymbolTable
 70
     3
100
AcDbDimStyleTable
 71
     2
340
27
340
137
  0
DIMSTYLE
105
1B0
330
A
100
AcDbSymbolTableRecord
100
AcDbDimStyleTableRecord
  2
Standard
 70
     0
340
11
  0
DIMSTYLE
105
137
330
A
100
AcDbSymbolTableRecord
100
AcDbDimStyleTableRecord
  2
Annotative
 70
     0
 40
0.0
 41
2.5
 42
0.625
 43
3.75
 44
1.25
 73
     0
 74
     0
 77
     1
 78
     8
140
2.5
141
2.5
143
0.03937007874016
147
0.625
171
     3
172
     1
271
     2
272
     2
274
     3
278
    44
283
     0
284
     8
340
11
1001
AcadAnnotative
1000
AnnotativeData
1002
{
1070
     1
1070
     1
1002
}
1001
ACAD_DSTYLE_DIMJAG
1070
   388
1040
1.5
1001
ACAD_DSTYLE_DIMTALN
1070
   392
1070
     0
  0
DIMSTYLE
105
27
330
A
100
AcDbSymbolTableRecord
100
AcDbDimStyleTableRecord
  2
ISO-25
 70
     0
 41
2.5
 42
0.625
 43
3.75
 44
1.25
 73
     0
 74
     0
 77
     1
 78
     8
140
2.5
141
2.5
143
0.03937007874016
147
0.625
171
     3
172
     1
271
     2
272
     2
274
     3
278
    44
283
     0
284
     8
340
11
  0
ENDTAB
  0
TABLE
  2
BLOCK_RECORD
  5
1
330
0
100
AcDbSymbolTable
 70
    41
  0
BLOCK_RECORD
  5
1F
102
{ACAD_XDICTIONARY
360
1CE
102
}
330
1
100
AcDbSymbolTableRecord
100
AcDbBlockTableRecord
  2
*Model_Space
340
22
 70
     0
280
     1
281
     0
  0
BLOCK_RECORD
  5
D2
330
1
100
AcDbSymbolTableRecord
100
AcDbBlockTableRecord
  2
*Paper_Space
340
D3
 70
     0
280
     1
281
     0
  0
BLOCK_RECORD
  5
D6
330
1
100
AcDbSymbolTableRecord
100
AcDbBlockTableRecord
  2
*Paper_Space0
340
D7
 70
     0
280
     1
281
     0
  0
BLOCK_RECORD
  5
2C1
330
1
100
AcDbSymbolTableRecord
100
AcDbBlockTableRecord
  2
*G471
340
0
 70
     0
280
     1
281
     0
  0
BLOCK_RECORD
  5
2C9
330
1
100
AcDbSymbolTableRecord
100
AcDbBlockTableRecord
  2
*G482
340
0
 70
     0
280
     1
281
     0
  0
BLOCK_RECORD
  5
2D1
330
1
100
AcDbSymbolTableRecord
100
AcDbBlockTableRecord
  2
*G493
340
0
 70
     0
280
     1
281
     0
  0
BLOCK_RECORD
  5
2D7
330
1
100
AcDbSymbolTableRecord
100
AcDbBlockTableRecord
  2
*G504
340
0
 70
     0
280
     1
281
     0
  0
BLOCK_RECORD
  5
2DB
330
1
100
AcDbSymbolTableRecord
100
AcDbBlockTableRecord
  2
*G515
340
0
 70
     0
280
     1
281
     0
  0
BLOCK_RECORD
  5
2E1
330
1
100
AcDbSymbolTableRecord
100
AcDbBlockTableRecord
  2
*G526
340
0
 70
     0
280
     1
281
     0
  0
BLOCK_RECORD
  5
2E5
330
1
100
AcDbSymbolTableRecord
100
AcDbBlockTableRecord
  2
*G537
340
0
 70
     0
280
     1
281
     0
  0
BLOCK_RECORD
  5
2EB
330
1
100
AcDbSymbolTableRecord
100
AcDbBlockTableRecord
  2
*G548
340
0
 70
     0
280
     1
281
     0
  0
BLOCK_RECORD
  5
2EF
330
1
100
AcDbSymbolTableRecord
100
AcDbBlockTableRecord
  2
*G559
340
0
 70
     0
280
     1
281
     0
  0
BLOCK_RECORD
  5
2F5
330
1
100
AcDbSymbolTableRecord
100
AcDbBlockTableRecord
  2
*G5610
340
0
 70
     0
280
     1
281
     0
  0
BLOCK_RECORD
  5
2F9
330
1
100
AcDbSymbolTableRecord
100
AcDbBlockTableRecord
  2
*G6411
340
0
 70
     0
280
     1
281
     0
  0
BLOCK_RECORD
  5
2FD
330
1
100
AcDbSymbolTableRecord
100
AcDbBlockTableRecord
  2
*G6512
340
0
 70
     0
280
     1
281
     0
  0
BLOCK_RECORD
  5
304
330
1
100
AcDbSymbolTableRecord
100
AcDbBlockTableRecord
  2
*G6613
340
0
 70
     0
280
     1
281
     0
  0
BLOCK_RECORD
  5
308
330
1
100
AcDbSymbolTableRecord
100
AcDbBlockTableRecord
  2
*G6714
340
0
 70
     0
280
     1
281
     0
  0
BLOCK_RECORD
  5
313
330
1
100
AcDbSymbolTableRecord
100
AcDbBlockTableRecord
  2
*G7015
340
0
 70
     0
280
     1
281
     0
  0
BLOCK_RECORD
  5
320
330
1
100
AcDbSymbolTableRecord
100
AcDbBlockTableRecord
  2
*G7116
340
0
 70
     0
280
     1
281
     0
  0
BLOCK_RECORD
  5
329
330
1
100
AcDbSymbolTableRecord
100
AcDbBlockTableRecord
  2
*G7317
340
0
 70
     0
280
     1
281
     0
  0
BLOCK_RECORD
  5
331
330
1
100
AcDbSymbolTableRecord
100
AcDbBlockTableRecord
  2
*G7418
340
0
 70
     0
280
     1
281
     0
  0
BLOCK_RECORD
  5
338
330
1
100
AcDbSymbolTableRecord
100
AcDbBlockTableRecord
  2
*G7519
340
0
 70
     0
280
     1
281
     0
  0
BLOCK_RECORD
  5
33F
330
1
100
AcDbSymbolTableRecord
100
AcDbBlockTableRecord
  2
*G8120
340
0
 70
     0
280
     1
281
     0
  0
BLOCK_RECORD
  5
343
330
1
100
AcDbSymbolTableRecord
100
AcDbBlockTableRecord
  2
*G8221
340
0
 70
     0
280
     1
281
     0
  0
BLOCK_RECORD
  5
34A
330
1
100
AcDbSymbolTableRecord
100
AcDbBlockTableRecord
  2
*G8322
340
0
 70
     0
280
     1
281
     0
  0
BLOCK_RECORD
  5
34E
330
1
100
AcDbSymbolTableRecord
100
AcDbBlockTableRecord
  2
*G8423
340
0
 70
     0
280
     1
281
     0
  0
BLOCK_RECORD
  5
359
330
1
100
AcDbSymbolTableRecord
100
AcDbBlockTableRecord
  2
*G8524
340
0
 70
     0
280
     1
281
     0
  0
BLOCK_RECORD
  5
35D
330
1
100
AcDbSymbolTableRecord
100
AcDbBlockTableRecord
  2
*G8625
340
0
 70
     0
280
     1
281
     0
  0
BLOCK_RECORD
  5
364
330
1
100
AcDbSymbolTableRecord
100
AcDbBlockTableRecord
  2
*G8726
340
0
 70
     0
280
     1
281
     0
  0
BLOCK_RECORD
  5
370
330
1
100
AcDbSymbolTableRecord
100
AcDbBlockTableRecord
  2
*G8927
340
0
 70
     0
280
     1
281
     0
  0
BLOCK_RECORD
  5
388
330
1
100
AcDbSymbolTableRecord
100
AcDbBlockTableRecord
  2
*G9028
340
0
 70
     0
280
     1
281
     0
  0
BLOCK_RECORD
  5
3A0
330
1
100
AcDbSymbolTableRecord
100
AcDbBlockTableRecord
  2
*G9129
340
0
 70
     0
280
     1
281
     0
  0
BLOCK_RECORD
  5
3B9
330
1
100
AcDbSymbolTableRecord
100
AcDbBlockTableRecord
  2
*G9330
340
0
 70
     0
280
     1
281
     0
  0
BLOCK_RECORD
  5
3D1
330
1
100
AcDbSymbolTableRecord
100
AcDbBlockTableRecord
  2
*G9431
340
0
 70
     0
280
     1
281
     0
  0
BLOCK_RECORD
  5
3E9
330
1
100
AcDbSymbolTableRecord
100
AcDbBlockTableRecord
  2
*G9532
340
0
 70
     0
280
     1
281
     0
  0
BLOCK_RECORD
  5
3ED
330
1
100
AcDbSymbolTableRecord
100
AcDbBlockTableRecord
  2
*G9633
340
0
 70
     0
280
     1
281
     0
  0
BLOCK_RECORD
  5
3F4
330
1
100
AcDbSymbolTableRecord
100
AcDbBlockTableRecord
  2
*G9734
340
0
 70
     0
280
     1
281
     0
  0
BLOCK_RECORD
  5
3F8
330
1
100
AcDbSymbolTableRecord
100
AcDbBlockTableRecord
  2
*G9835
340
0
 70
     0
280
     1
281
     0
  0
BLOCK_RECORD
  5
403
330
1
100
AcDbSymbolTableRecord
100
AcDbBlockTableRecord
  2
*G9936
340
0
 70
     0
280
     1
281
     0
  0
BLOCK_RECORD
  5
407
330
1
100
AcDbSymbolTableRecord
100
AcDbBlockTableRecord
  2
*G10037
340
0
 70
     0
280
     1
281
     0
  0
BLOCK_RECORD
  5
40E
330
1
100
AcDbSymbolTableRecord
100
AcDbBlockTableRecord
  2
*G10138
340
0
 70
     0
280
     1
281
     0
  0
BLOCK_RECORD
  5
412
330
1
100
AcDbSymbolTableRecord
100
AcDbBlockTableRecord
  2
*G10239
340
0
 70
     0
280
     1
281
     0
  0
ENDTAB
  0
ENDSEC
  0
SECTION
  2
BLOCKS
  0
BLOCK
  5
20
330
1F
100
AcDbEntity
  8
0
100
AcDbBlockBegin
  2
*Model_Space
 70
     0
 10
0.0
 20
0.0
 30
0.0
  3
*Model_Space
  1

  0
ENDBLK
  5
21
330
1F
100
AcDbEntity
  8
0
100
AcDbBlockEnd
  0
BLOCK
  5
D4
330
D2
100
AcDbEntity
 67
     1
  8
0
100
AcDbBlockBegin
  2
*Paper_Space
 70
     0
 10
0.0
 20
0.0
 30
0.0
  3
*Paper_Space
  1

  0
ENDBLK
  5
D5
330
D2
100
AcDbEntity
 67
     1
  8
0
100
AcDbBlockEnd
  0
BLOCK
  5
D8
330
D6
100
AcDbEntity
 67
     1
  8
0
100
AcDbBlockBegin
  2
*Paper_Space0
 70
     0
 10
0.0
 20
0.0
 30
0.0
  3
*Paper_Space0
  1

  0
ENDBLK
  5
D9
330
D6
100
AcDbEntity
 67
     1
  8
0
100
AcDbBlockEnd
  0
BLOCK
  5
2C2
330
2C1
100
AcDbEntity
  8
0
100
AcDbBlockBegin
  2
*G471
 70
     1
 10
0.0
 20
0.0
 30
0.0
  3
*G471
  1
*G47
  0
ARC
  5
2C3
330
2C1
100
AcDbEntity
  8
2
  6
Continuous
 62
   134
370
    30
100
AcDbCircle
 10
573.2002075508485
 20
292.4107194907056
 30
0.0
 40
3.5
100
AcDbArc
 50
89.99999999999991
 51
269.9999999999998
  0
LINE
  5
2C4
330
2C1
100
AcDbEntity
  8
2
  6
Continuous
 62
   134
370
    30
100
AcDbLine
 10
573.2002075508485
 20
288.9107194907056
 30
0.0
 11
581.5002075508496
 21
288.9107194907056
 31
0.0
  0
LINE
  5
2C5
330
2C1
100
AcDbEntity
  8
2
  6
Continuous
 62
   134
370
    30
100
AcDbLine
 10
581.5002075508496
 20
288.9107194907056
 30
0.0
 11
583.5002075508496
 21
286.9107194907056
 31
0.0
  0
LINE
  5
2C6
330
2C1
100
AcDbEntity
  8
2
  6
Continuous
 62
   134
370
    30
100
AcDbLine
 10
573.2002075508485
 20
295.9107194907056
 30
0.0
 11
581.5002075508496
 21
295.9107194907056
 31
0.0
  0
LINE
  5
2C7
330
2C1
100
AcDbEntity
  8
2
  6
Continuous
 62
   134
370
    30
100
AcDbLine
 10
581.5002075508496
 20
295.9107194907056
 30
0.0
 11
583.5002075508496
 21
297.9107194907056
 31
0.0
  0
ENDBLK
  5
2C8
330
2C1
100
AcDbEntity
  8
0
100
AcDbBlockEnd
  0
BLOCK
  5
2CA
330
2C9
100
AcDbEntity
  8
0
100
AcDbBlockBegin
  2
*G482
 70
     1
 10
0.0
 20
0.0
 30
0.0
  3
*G482
  1
*G48
  0
ARC
  5
2CB
330
2C9
100
AcDbEntity
  8
2
  6
Continuous
 62
   134
370
    30
100
AcDbCircle
 10
111.2002075508519
 20
292.4107194907053
 30
0.0
 40
3.5
100
AcDbArc
 50
269.9999999999998
 51
89.99999999999991
  0
LINE
  5
2CC
330
2C9
100
AcDbEntity
  8
2
  6
Continuous
 62
   134
370
    30
100
AcDbLine
 10
111.2002075508519
 20
295.9107194907053
 30
0.0
 11
102.9002075508506
 21
295.9107194907053
 31
0.0
  0
LINE
  5
2CD
330
2C9
100
AcDbEntity
  8
2
  6
Continuous
 62
   134
370
    30
100
AcDbLine
 10
102.9002075508506
 20
295.9107194907053
 30
0.0
 11
100.9002075508506
 21
297.9107194907053
 31
0.0
  0
LINE
  5
2CE
330
2C9
100
AcDbEntity
  8
2
  6
Continuous
 62
   134
370
    30
100
AcDbLine
 10
111.2002075508519
 20
288.9107194907053
 30
0.0
 11
102.9002075508506
 21
288.9107194907053
 31
0.0
  0
LINE
  5
2CF
330
2C9
100
AcDbEntity
  8
2
  6
Continuous
 62
   134
370
    30
100
AcDbLine
 10
102.9002075508506
 20
288.9107194907053
 30
0.0
 11
100.9002075508506
 21
286.9107194907053
 31
0.0
  0
ENDBLK
  5
2D0
330
2C9
100
AcDbEntity
  8
0
100
AcDbBlockEnd
  0
BLOCK
  5
2D2
330
2D1
100
AcDbEntity
  8
0
100
AcDbBlockBegin
  2
*G493
 70
     1
 10
0.0
 20
0.0
 30
0.0
  3
*G493
  1
*G49
  0
ARC
  5
2D3
330
2D1
100
AcDbEntity
  8
2
  6
Continuous
 62
   134
370
    30
100
AcDbCircle
 10
573.2002075508485
 20
276.5357194907056
 30
0.0
 40
3.5
100
AcDbArc
 50
89.99999999999991
 51
269.9999999999998
  0
LINE
  5
2D4
330
2D1
100
AcDbEntity
  8
2
  6
Continuous
 62
   134
370
    30
100
AcDbLine
 10
573.2002075508485
 20
280.0357194907056
 30
0.0
 11
576.2002075508502
 21
280.0357194907056
 31
0.0
  0
LINE
  5
2D5
330
2D1
100
AcDbEntity
  8
2
  6
Continuous
 62
   134
370
    30
100
AcDbLine
 10
573.2002075508485
 20
273.0357194907056
 30
0.0
 11
576.2002075508502
 21
273.0357194907056
 31
0.0
  0
ENDBLK
  5
2D6
330
2D1
100
AcDbEntity
  8
0
100
AcDbBlockEnd
  0
BLOCK
  5
2D8
330
2D7
100
AcDbEntity
  8
0
100
AcDbBlockBegin
  2
*G504
 70
     1
 10
0.0
 20
0.0
 30
0.0
  3
*G504
  1
*G50
  0
ARC
  5
2D9
330
2D7
100
AcDbEntity
  8
2
  6
Continuous
 62
   134
370
    30
100
AcDbCircle
 10
576.2002075508502
 20
276.5357194907053
 30
0.0
 40
3.5
100
AcDbArc
 50
269.9999999999998
 51
89.99999999999991
  0
ENDBLK
  5
2DA
330
2D7
100
AcDbEntity
  8
0
100
AcDbBlockEnd
  0
BLOCK
  5
2DC
330
2DB
100
AcDbEntity
  8
0
100
AcDbBlockBegin
  2
*G515
 70
     1
 10
0.0
 20
0.0
 30
0.0
  3
*G515
  1
*G51
  0
ARC
  5
2DD
330
2DB
100
AcDbEntity
  8
2
  6
Continuous
 62
   134
370
    30
100
AcDbCircle
 10
573.2002075508485
 20
308.2857194907056
 30
0.0
 40
3.5
100
AcDbArc
 50
89.99999999999991
 51
269.9999999999998
  0
LINE
  5
2DE
330
2DB
100
AcDbEntity
  8
2
  6
Continuous
 62
   134
370
    30
100
AcDbLine
 10
573.2002075508485
 20
311.7857194907056
 30
0.0
 11
576.2002075508502
 21
311.7857194907056
 31
0.0
  0
LINE
  5
2DF
330
2DB
100
AcDbEntity
  8
2
  6
Continuous
 62
   134
370
    30
100
AcDbLine
 10
573.2002075508485
 20
304.7857194907056
 30
0.0
 11
576.2002075508502
 21
304.7857194907056
 31
0.0
  0
ENDBLK
  5
2E0
330
2DB
100
AcDbEntity
  8
0
100
AcDbBlockEnd
  0
BLOCK
  5
2E2
330
2E1
100
AcDbEntity
  8
0
100
AcDbBlockBegin
  2
*G526
 70
     1
 10
0.0
 20
0.0
 30
0.0
  3
*G526
  1
*G52
  0
ARC
  5
2E3
330
2E1
100
AcDbEntity
  8
2
  6
Continuous
 62
   134
370
    30
100
AcDbCircle
 10
576.2002075508502
 20
308.2857194907052
 30
0.0
 40
3.5
100
AcDbArc
 50
269.9999999999998
 51
89.99999999999991
  0
ENDBLK
  5
2E4
330
2E1
100
AcDbEntity
  8
0
100
AcDbBlockEnd
  0
BLOCK
  5
2E6
330
2E5
100
AcDbEntity
  8
0
100
AcDbBlockBegin
  2
*G537
 70
     1
 10
0.0
 20
0.0
 30
0.0
  3
*G537
  1
*G53
  0
ARC
  5
2E7
330
2E5
100
AcDbEntity
  8
2
  6
Continuous
 62
   134
370
    30
100
AcDbCircle
 10
108.2002075508484
 20
276.5357194907056
 30
0.0
 40
3.5
100
AcDbArc
 50
89.99999999999991
 51
269.9999999999998
  0
LINE
  5
2E8
330
2E5
100
AcDbEntity
  8
2
  6
Continuous
 62
   134
370
    30
100
AcDbLine
 10
108.2002075508484
 20
280.0357194907056
 30
0.0
 11
111.2002075508505
 21
280.0357194907056
 31
0.0
  0
LINE
  5
2E9
330
2E5
100
AcDbEntity
  8
2
  6
Continuous
 62
   134
370
    30
100
AcDbLine
 10
108.2002075508484
 20
273.0357194907056
 30
0.0
 11
111.2002075508505
 21
273.0357194907056
 31
0.0
  0
ENDBLK
  5
2EA
330
2E5
100
AcDbEntity
  8
0
100
AcDbBlockEnd
  0
BLOCK
  5
2EC
330
2EB
100
AcDbEntity
  8
0
100
AcDbBlockBegin
  2
*G548
 70
     1
 10
0.0
 20
0.0
 30
0.0
  3
*G548
  1
*G54
  0
ARC
  5
2ED
330
2EB
100
AcDbEntity
  8
2
  6
Continuous
 62
   134
370
    30
100
AcDbCircle
 10
111.2002075508505
 20
276.5357194907053
 30
0.0
 40
3.5
100
AcDbArc
 50
269.9999999999998
 51
89.99999999999991
  0
ENDBLK
  5
2EE
330
2EB
100
AcDbEntity
  8
0
100
AcDbBlockEnd
  0
BLOCK
  5
2F0
330
2EF
100
AcDbEntity
  8
0
100
AcDbBlockBegin
  2
*G559
 70
     1
 10
0.0
 20
0.0
 30
0.0
  3
*G559
  1
*G55
  0
ARC
  5
2F1
330
2EF
100
AcDbEntity
  8
2
  6
Continuous
 62
   134
370
    30
100
AcDbCircle
 10
108.2002075508484
 20
308.2857194907056
 30
0.0
 40
3.5
100
AcDbArc
 50
89.99999999999991
 51
269.9999999999998
  0
LINE
  5
2F2
330
2EF
100
AcDbEntity
  8
2
  6
Continuous
 62
   134
370
    30
100
AcDbLine
 10
108.2002075508484
 20
311.7857194907056
 30
0.0
 11
111.2002075508505
 21
311.7857194907056
 31
0.0
  0
LINE
  5
2F3
330
2EF
100
AcDbEntity
  8
2
  6
Continuous
 62
   134
370
    30
100
AcDbLine
 10
108.2002075508484
 20
304.7857194907056
 30
0.0
 11
111.2002075508505
 21
304.7857194907056
 31
0.0
  0
ENDBLK
  5
2F4
330
2EF
100
AcDbEntity
  8
0
100
AcDbBlockEnd
  0
BLOCK
  5
2F6
330
2F5
100
AcDbEntity
  8
0
100
AcDbBlockBegin
  2
*G5610
 70
     1
 10
0.0
 20
0.0
 30
0.0
  3
*G5610
  1
*G56
  0
ARC
  5
2F7
330
2F5
100
AcDbEntity
  8
2
  6
Continuous
 62
   134
370
    30
100
AcDbCircle
 10
111.2002075508505
 20
308.2857194907052
 30
0.0
 40
3.5
100
AcDbArc
 50
269.9999999999998
 51
89.99999999999991
  0
ENDBLK
  5
2F8
330
2F5
100
AcDbEntity
  8
0
100
AcDbBlockEnd
  0
BLOCK
  5
2FA
330
2F9
100
AcDbEntity
  8
0
100
AcDbBlockBegin
  2
*G6411
 70
     1
 10
0.0
 20
0.0
 30
0.0
  3
*G6411
  1
*G64
  0
LINE
  5
2FB
330
2F9
100
AcDbEntity
  8
5
  6
DASHDOT
 62
    94
370
     9
100
AcDbLine
 10
342.2002075508506
 20
368.6335178287882
 30
0.0
 11
342.2002075508509
 21
478.7406349866726
 31
0.0
  0
ENDBLK
  5
2FC
330
2F9
100
AcDbEntity
  8
0
100
AcDbBlockEnd
  0
BLOCK
  5
2FE
330
2FD
100
AcDbEntity
  8
0
100
AcDbBlockBegin
  2
*G6512
 70
     1
 10
0.0
 20
0.0
 30
0.0
  3
*G6512
  1
*G65
  0
LINE
  5
2FF
330
2FD
100
AcDbEntity
  8
5
  6
Continuous
 62
    94
370
    30
100
AcDbLine
 10
337.2002075508503
 20
387.8817321779453
 30
0.0
 11
337.2002075508503
 21
381.3817321779454
 31
0.0
  0
LINE
  5
300
330
2FD
100
AcDbEntity
  8
5
  6
Continuous
 62
    94
370
    30
100
AcDbLine
 10
337.2002075508503
 20
381.3817321779454
 30
0.0
 11
347.2002075508503
 21
381.3817321779454
 31
0.0
  0
LINE
  5
301
330
2FD
100
AcDbEntity
  8
5
  6
Continuous
 62
    94
370
    30
100
AcDbLine
 10
347.2002075508503
 20
381.3817321779454
 30
0.0
 11
347.2002075508503
 21
387.8817321779453
 31
0.0
  0
LINE
  5
302
330
2FD
100
AcDbEntity
  8
5
  6
Continuous
 62
    94
370
    30
100
AcDbLine
 10
347.2002075508503
 20
387.8817321779453
 30
0.0
 11
337.2002075508503
 21
387.8817321779453
 31
0.0
  0
ENDBLK
  5
303
330
2FD
100
AcDbEntity
  8
0
100
AcDbBlockEnd
  0
BLOCK
  5
305
330
304
100
AcDbEntity
  8
0
100
AcDbBlockBegin
  2
*G6613
 70
     1
 10
0.0
 20
0.0
 30
0.0
  3
*G6613
  1
*G66
  0
ARC
  5
306
330
304
100
AcDbEntity
  8
5
  6
Continuous
 62
    94
370
    30
100
AcDbCircle
 10
331.7002075508506
 20
376.8817321779457
 30
0.0
 40
0.5
100
AcDbArc
 50
179.9999999999998
 51
269.9999999999998
  0
ENDBLK
  5
307
330
304
100
AcDbEntity
  8
0
100
AcDbBlockEnd
  0
BLOCK
  5
309
330
308
100
AcDbEntity
  8
0
100
AcDbBlockBegin
  2
*G6714
 70
     1
 10
0.0
 20
0.0
 30
0.0
  3
*G6714
  1
*G67
  0
ARC
  5
30A
330
308
100
AcDbEntity
  8
5
  6
Continuous
 62
    94
370
    30
100
AcDbCircle
 10
331.7002075508506
 20
472.381732177945
 30
0.0
 40
0.5
100
AcDbArc
 50
89.99999999999991
 51
179.9999999999998
  0
LINE
  5
30B
330
308
100
AcDbEntity
  8
5
  6
Continuous
 62
    94
370
    30
100
AcDbLine
 10
331.7002075508506
 20
472.881732177945
 30
0.0
 11
352.7002075508506
 21
472.881732177945
 31
0.0
  0
ARC
  5
30C
330
308
100
AcDbEntity
  8
5
  6
Continuous
 62
    94
370
    30
100
AcDbCircle
 10
352.7002075508506
 20
472.381732177945
 30
0.0
 40
0.5
100
AcDbArc
 50
0.0
 51
89.99999999999991
  0
LINE
  5
30D
330
308
100
AcDbEntity
  8
5
  6
Continuous
 62
    94
370
    30
100
AcDbLine
 10
352.7002075508506
 20
372.8817321779454
 30
0.0
 11
331.7002075508506
 21
372.8817321779454
 31
0.0
  0
LINE
  5
30E
330
308
100
AcDbEntity
  8
5
  6
Continuous
 62
    94
370
    30
100
AcDbLine
 10
353.2002075508506
 20
472.381732177945
 30
0.0
 11
353.2002075508506
 21
373.3817321779454
 31
0.0
  0
ARC
  5
30F
330
308
100
AcDbEntity
  8
5
  6
Continuous
 62
    94
370
    30
100
AcDbCircle
 10
352.7002075508506
 20
373.3817321779454
 30
0.0
 40
0.5
100
AcDbArc
 50
269.9999999999998
 51
0.0
  0
LINE
  5
310
330
308
100
AcDbEntity
  8
5
  6
Continuous
 62
    94
370
    30
100
AcDbLine
 10
331.2002075508506
 20
373.3817321779454
 30
0.0
 11
331.2002075508506
 21
472.381732177945
 31
0.0
  0
ARC
  5
311
330
308
100
AcDbEntity
  8
5
  6
Continuous
 62
    94
370
    30
100
AcDbCircle
 10
331.7002075508506
 20
373.3817321779454
 30
0.0
 40
0.5
100
AcDbArc
 50
179.9999999999998
 51
269.9999999999998
  0
ENDBLK
  5
312
330
308
100
AcDbEntity
  8
0
100
AcDbBlockEnd
  0
BLOCK
  5
314
330
313
100
AcDbEntity
  8
0
100
AcDbBlockBegin
  2
*G7015
 70
     1
 10
0.0
 20
0.0
 30
0.0
  3
*G7015
  1
*G70
  0
LINE
  5
315
330
313
100
AcDbEntity
  8
1
  6
Continuous
 62
     7
370
    30
100
AcDbLine
 10
763.1799999999997
 20
295.6107194906291
 30
0.0
 11
763.1799999999997
 21
289.2107194907806
 31
0.0
  0
LINE
  5
316
330
313
100
AcDbEntity
  8
1
  6
Continuous
 62
     7
370
    30
100
AcDbLine
 10
763.9799999999996
 20
295.0107194906692
 30
0.0
 11
763.9799999999996
 21
289.810719490678
 31
0.0
  0
ARC
  5
317
330
313
100
AcDbEntity
  8
1
  6
Continuous
 62
     7
370
    30
100
AcDbCircle
 10
764.4182923495341
 20
291.2107194906991
 30
0.0
 40
1.399999999999999
100
AcDbArc
 50
269.9999999999998
 51
344.6505229829572
  0
LINE
  5
318
330
313
100
AcDbEntity
  8
1
  6
Continuous
 62
     7
370
    30
100
AcDbLine
 10
764.4182923495341
 20
289.8107194906991
 30
0.0
 11
763.1799999999997
 21
289.8107194906991
 31
0.0
  0
ARC
  5
319
330
313
100
AcDbEntity
  8
1
  6
Continuous
 62
     7
370
    30
100
AcDbCircle
 10
760.0466666667135
 20
292.4107194906892
 30
0.0
 40
5.933333333284991
100
AcDbArc
 50
344.6505229829551
 51
15.34947701729759
  0
ARC
  5
31A
330
313
100
AcDbEntity
  8
1
  6
Continuous
 62
     7
370
    30
100
AcDbCircle
 10
764.4182923495288
 20
293.6107194906986
 30
0.0
 40
1.399999999999999
100
AcDbArc
 50
15.34947701729311
 51
89.99999999999991
  0
LINE
  5
31B
330
313
100
AcDbEntity
  8
1
  6
Continuous
 62
     7
370
    30
100
AcDbLine
 10
764.4182923495288
 20
295.0107194906985
 30
0.0
 11
763.1799999999997
 21
295.0107194906985
 31
0.0
  0
LINE
  5
31C
330
313
100
AcDbEntity
  8
1
  6
Continuous
 62
     7
370
    30
100
AcDbLine
 10
763.1799999999997
 20
295.6107194906989
 30
0.0
 11
762.5799999999996
 21
295.6107194906989
 31
0.0
  0
LINE
  5
31D
330
313
100
AcDbEntity
  8
1
  6
Continuous
 62
     7
370
    30
100
AcDbLine
 10
763.1799999999997
 20
289.2107194906989
 30
0.0
 11
762.5799999999996
 21
289.2107194906989
 31
0.0
  0
LINE
  5
31E
330
313
100
AcDbEntity
  8
1
  6
Continuous
 62
     7
370
    30
100
AcDbLine
 10
763.9800000000037
 20
292.4107194906987
 30
0.0
 11
763.1800000000021
 21
292.4107194906987
 31
0.0
  0
ENDBLK
  5
31F
330
313
100
AcDbEntity
  8
0
100
AcDbBlockEnd
  0
BLOCK
  5
321
330
320
100
AcDbEntity
  8
0
100
AcDbBlockBegin
  2
*G7116
 70
     1
 10
0.0
 20
0.0
 30
0.0
  3
*G7116
  1
*G71
  0
LINE
  5
322
330
320
100
AcDbEntity
  8
5
  6
Continuous
 62
    94
370
    30
100
AcDbLine
 10
762.5799999999998
 20
307.4107194906987
 30
0.0
 11
762.5799999999998
 21
303.4107194906987
 31
0.0
  0
LINE
  5
323
330
320
100
AcDbEntity
  8
5
  6
Continuous
 62
    94
370
    30
100
AcDbLine
 10
762.5799999999998
 20
303.4107194906987
 30
0.0
 11
763.4799999999996
 21
303.4107194906987
 31
0.0
  0
LINE
  5
324
330
320
100
AcDbEntity
  8
5
  6
Continuous
 62
    94
370
    30
100
AcDbLine
 10
763.4799999999996
 20
303.4107194906987
 30
0.0
 11
763.9799999999996
 21
303.9107194906987
 31
0.0
  0
LINE
  5
325
330
320
100
AcDbEntity
  8
5
  6
Continuous
 62
    94
370
    30
100
AcDbLine
 10
763.9799999999996
 20
303.9107194906987
 30
0.0
 11
763.9799999999996
 21
306.9107194906987
 31
0.0
  0
LINE
  5
326
330
320
100
AcDbEntity
  8
5
  6
Continuous
 62
    94
370
    30
100
AcDbLine
 10
762.5799999999998
 20
307.4107194906987
 30
0.0
 11
763.4799999999996
 21
307.4107194906987
 31
0.0
  0
LINE
  5
327
330
320
100
AcDbEntity
  8
5
  6
Continuous
 62
    94
370
    30
100
AcDbLine
 10
763.9799999999996
 20
306.9107194906987
 30
0.0
 11
763.4799999999996
 21
307.4107194906987
 31
0.0
  0
ENDBLK
  5
328
330
320
100
AcDbEntity
  8
0
100
AcDbBlockEnd
  0
BLOCK
  5
32A
330
329
100
AcDbEntity
  8
0
100
AcDbBlockBegin
  2
*G7317
 70
     1
 10
0.0
 20
0.0
 30
0.0
  3
*G7317
  1
*G73
  0
LINE
  5
32B
330
329
100
AcDbEntity
  8
5
  6
Continuous
 62
    94
370
    30
100
AcDbLine
 10
762.5799999999998
 20
281.4107194907122
 30
0.0
 11
763.4799999999996
 21
281.4107194907122
 31
0.0
  0
LINE
  5
32C
330
329
100
AcDbEntity
  8
5
  6
Continuous
 62
    94
370
    30
100
AcDbLine
 10
763.4799999999996
 20
281.4107194907122
 30
0.0
 11
763.9799999999996
 21
280.9107194907122
 31
0.0
  0
LINE
  5
32D
330
329
100
AcDbEntity
  8
5
  6
Continuous
 62
    94
370
    30
100
AcDbLine
 10
763.9799999999996
 20
280.9107194907122
 30
0.0
 11
763.9799999999996
 21
277.9107194907122
 31
0.0
  0
LINE
  5
32E
330
329
100
AcDbEntity
  8
5
  6
Continuous
 62
    94
370
    30
100
AcDbLine
 10
762.5799999999998
 20
277.4107194907122
 30
0.0
 11
763.4799999999996
 21
277.4107194907122
 31
0.0
  0
LINE
  5
32F
330
329
100
AcDbEntity
  8
5
  6
Continuous
 62
    94
370
    30
100
AcDbLine
 10
763.9799999999996
 20
277.9107194907122
 30
0.0
 11
763.4799999999996
 21
277.4107194907122
 31
0.0
  0
ENDBLK
  5
330
330
329
100
AcDbEntity
  8
0
100
AcDbBlockEnd
  0
BLOCK
  5
332
330
331
100
AcDbEntity
  8
0
100
AcDbBlockBegin
  2
*G7418
 70
     1
 10
0.0
 20
0.0
 30
0.0
  3
*G7418
  1
*G74
  0
LINE
  5
333
330
331
100
AcDbEntity
  8
5
  6
Continuous
 62
    94
370
    30
100
AcDbLine
 10
756.1799999999997
 20
295.3107194906991
 30
0.0
 11
756.1799999999997
 21
289.510719490699
 31
0.0
  0
LINE
  5
334
330
331
100
AcDbEntity
  8
5
  6
Continuous
 62
    94
370
    30
100
AcDbLine
 10
756.1799999999997
 20
289.510719490699
 30
0.0
 11
758.7799999999999
 21
289.510719490699
 31
0.0
  0
LINE
  5
335
330
331
100
AcDbEntity
  8
5
  6
Continuous
 62
    94
370
    30
100
AcDbLine
 10
758.7799999999999
 20
289.510719490699
 30
0.0
 11
758.7799999999999
 21
295.3107194906991
 31
0.0
  0
LINE
  5
336
330
331
100
AcDbEntity
  8
5
  6
Continuous
 62
    94
370
    30
100
AcDbLine
 10
758.7799999999999
 20
295.3107194906991
 30
0.0
 11
756.1799999999997
 21
295.3107194906991
 31
0.0
  0
ENDBLK
  5
337
330
331
100
AcDbEntity
  8
0
100
AcDbBlockEnd
  0
BLOCK
  5
339
330
338
100
AcDbEntity
  8
0
100
AcDbBlockBegin
  2
*G7519
 70
     1
 10
0.0
 20
0.0
 30
0.0
  3
*G7519
  1
*G75
  0
LINE
  5
33A
330
338
100
AcDbEntity
  8
5
  6
Continuous
 62
    94
370
    30
100
AcDbLine
 10
755.6799999999997
 20
295.8107194906991
 30
0.0
 11
759.2799999999999
 21
295.8107194906991
 31
0.0
  0
LINE
  5
33B
330
338
100
AcDbEntity
  8
5
  6
Continuous
 62
    94
370
    30
100
AcDbLine
 10
759.2799999999999
 20
295.8107194906991
 30
0.0
 11
759.2799999999999
 21
289.010719490699
 31
0.0
  0
LINE
  5
33C
330
338
100
AcDbEntity
  8
5
  6
Continuous
 62
    94
370
    30
100
AcDbLine
 10
759.2799999999999
 20
289.010719490699
 30
0.0
 11
755.6799999999997
 21
289.010719490699
 31
0.0
  0
LINE
  5
33D
330
338
100
AcDbEntity
  8
5
  6
Continuous
 62
    94
370
    30
100
AcDbLine
 10
755.6799999999997
 20
289.010719490699
 30
0.0
 11
755.6799999999997
 21
295.8107194906991
 31
0.0
  0
ENDBLK
  5
33E
330
338
100
AcDbEntity
  8
0
100
AcDbBlockEnd
  0
BLOCK
  5
340
330
33F
100
AcDbEntity
  8
0
100
AcDbBlockBegin
  2
*G8120
 70
     1
 10
0.0
 20
0.0
 30
0.0
  3
*G8120
  1
*G81
  0
LINE
  5
341
330
33F
100
AcDbEntity
  8
5
  6
DASHDOT
 62
    94
370
     9
100
AcDbLine
 10
131.2002075508503
 20
368.6335178287948
 30
0.0
 11
131.2002075508505
 21
478.7406349866791
 31
0.0
  0
ENDBLK
  5
342
330
33F
100
AcDbEntity
  8
0
100
AcDbBlockEnd
  0
BLOCK
  5
344
330
343
100
AcDbEntity
  8
0
100
AcDbBlockBegin
  2
*G8221
 70
     1
 10
0.0
 20
0.0
 30
0.0
  3
*G8221
  1
*G82
  0
LINE
  5
345
330
343
100
AcDbEntity
  8
5
  6
Continuous
 62
    94
370
    30
100
AcDbLine
 10
126.2002075508502
 20
387.8817321779453
 30
0.0
 11
126.2002075508502
 21
381.3817321779454
 31
0.0
  0
LINE
  5
346
330
343
100
AcDbEntity
  8
5
  6
Continuous
 62
    94
370
    30
100
AcDbLine
 10
126.2002075508502
 20
381.3817321779454
 30
0.0
 11
136.2002075508501
 21
381.3817321779454
 31
0.0
  0
LINE
  5
347
330
343
100
AcDbEntity
  8
5
  6
Continuous
 62
    94
370
    30
100
AcDbLine
 10
136.2002075508501
 20
381.3817321779454
 30
0.0
 11
136.2002075508501
 21
387.8817321779453
 31
0.0
  0
LINE
  5
348
330
343
100
AcDbEntity
  8
5
  6
Continuous
 62
    94
370
    30
100
AcDbLine
 10
136.2002075508501
 20
387.8817321779453
 30
0.0
 11
126.2002075508502
 21
387.8817321779453
 31
0.0
  0
ENDBLK
  5
349
330
343
100
AcDbEntity
  8
0
100
AcDbBlockEnd
  0
BLOCK
  5
34B
330
34A
100
AcDbEntity
  8
0
100
AcDbBlockBegin
  2
*G8322
 70
     1
 10
0.0
 20
0.0
 30
0.0
  3
*G8322
  1
*G83
  0
ARC
  5
34C
330
34A
100
AcDbEntity
  8
5
  6
Continuous
 62
    94
370
    30
100
AcDbCircle
 10
120.7002075508503
 20
376.8817321779522
 30
0.0
 40
0.5
100
AcDbArc
 50
179.9999999999998
 51
269.9999999999998
  0
ENDBLK
  5
34D
330
34A
100
AcDbEntity
  8
0
100
AcDbBlockEnd
  0
BLOCK
  5
34F
330
34E
100
AcDbEntity
  8
0
100
AcDbBlockBegin
  2
*G8423
 70
     1
 10
0.0
 20
0.0
 30
0.0
  3
*G8423
  1
*G84
  0
ARC
  5
350
330
34E
100
AcDbEntity
  8
5
  6
Continuous
 62
    94
370
    30
100
AcDbCircle
 10
120.7002075508503
 20
472.3817321779517
 30
0.0
 40
0.5
100
AcDbArc
 50
89.99999999999991
 51
179.9999999999998
  0
LINE
  5
351
330
34E
100
AcDbEntity
  8
5
  6
Continuous
 62
    94
370
    30
100
AcDbLine
 10
120.7002075508503
 20
472.8817321779517
 30
0.0
 11
141.7002075508503
 21
472.8817321779517
 31
0.0
  0
ARC
  5
352
330
34E
100
AcDbEntity
  8
5
  6
Continuous
 62
    94
370
    30
100
AcDbCircle
 10
141.7002075508503
 20
472.3817321779517
 30
0.0
 40
0.5
100
AcDbArc
 50
0.0
 51
89.99999999999991
  0
LINE
  5
353
330
34E
100
AcDbEntity
  8
5
  6
Continuous
 62
    94
370
    30
100
AcDbLine
 10
141.7002075508503
 20
372.881732177952
 30
0.0
 11
120.7002075508503
 21
372.881732177952
 31
0.0
  0
LINE
  5
354
330
34E
100
AcDbEntity
  8
5
  6
Continuous
 62
    94
370
    30
100
AcDbLine
 10
142.2002075508503
 20
472.3817321779517
 30
0.0
 11
142.2002075508503
 21
373.381732177952
 31
0.0
  0
ARC
  5
355
330
34E
100
AcDbEntity
  8
5
  6
Continuous
 62
    94
370
    30
100
AcDbCircle
 10
141.7002075508503
 20
373.381732177952
 30
0.0
 40
0.5
100
AcDbArc
 50
269.9999999999998
 51
0.0
  0
LINE
  5
356
330
34E
100
AcDbEntity
  8
5
  6
Continuous
 62
    94
370
    30
100
AcDbLine
 10
120.2002075508503
 20
373.381732177952
 30
0.0
 11
120.2002075508503
 21
472.3817321779517
 31
0.0
  0
ARC
  5
357
330
34E
100
AcDbEntity
  8
5
  6
Continuous
 62
    94
370
    30
100
AcDbCircle
 10
120.7002075508503
 20
373.381732177952
 30
0.0
 40
0.5
100
AcDbArc
 50
179.9999999999998
 51
269.9999999999998
  0
ENDBLK
  5
358
330
34E
100
AcDbEntity
  8
0
100
AcDbBlockEnd
  0
BLOCK
  5
35A
330
359
100
AcDbEntity
  8
0
100
AcDbBlockBegin
  2
*G8524
 70
     1
 10
0.0
 20
0.0
 30
0.0
  3
*G8524
  1
*G85
  0
LINE
  5
35B
330
359
100
AcDbEntity
  8
5
  6
DASHDOT
 62
    94
370
     9
100
AcDbLine
 10
553.2002075508505
 20
368.6335178287882
 30
0.0
 11
553.2002075508508
 21
478.7406349866726
 31
0.0
  0
ENDBLK
  5
35C
330
359
100
AcDbEntity
  8
0
100
AcDbBlockEnd
  0
BLOCK
  5
35E
330
35D
100
AcDbEntity
  8
0
100
AcDbBlockBegin
  2
*G8625
 70
     1
 10
0.0
 20
0.0
 30
0.0
  3
*G8625
  1
*G86
  0
LINE
  5
35F
330
35D
100
AcDbEntity
  8
5
  6
Continuous
 62
    94
370
    30
100
AcDbLine
 10
548.2002075508503
 20
387.8817321779453
 30
0.0
 11
548.2002075508503
 21
381.3817321779454
 31
0.0
  0
LINE
  5
360
330
35D
100
AcDbEntity
  8
5
  6
Continuous
 62
    94
370
    30
100
AcDbLine
 10
548.2002075508503
 20
381.3817321779454
 30
0.0
 11
558.2002075508503
 21
381.3817321779454
 31
0.0
  0
LINE
  5
361
330
35D
100
AcDbEntity
  8
5
  6
Continuous
 62
    94
370
    30
100
AcDbLine
 10
558.2002075508503
 20
381.3817321779454
 30
0.0
 11
558.2002075508503
 21
387.8817321779453
 31
0.0
  0
LINE
  5
362
330
35D
100
AcDbEntity
  8
5
  6
Continuous
 62
    94
370
    30
100
AcDbLine
 10
558.2002075508503
 20
387.8817321779453
 30
0.0
 11
548.2002075508503
 21
387.8817321779453
 31
0.0
  0
ENDBLK
  5
363
330
35D
100
AcDbEntity
  8
0
100
AcDbBlockEnd
  0
BLOCK
  5
365
330
364
100
AcDbEntity
  8
0
100
AcDbBlockBegin
  2
*G8726
 70
     1
 10
0.0
 20
0.0
 30
0.0
  3
*G8726
  1
*G87
  0
ARC
  5
366
330
364
100
AcDbEntity
  8
5
  6
Continuous
 62
    94
370
    30
100
AcDbCircle
 10
542.7002075508505
 20
472.381732177945
 30
0.0
 40
0.5
100
AcDbArc
 50
89.99999999999991
 51
179.9999999999998
  0
LINE
  5
367
330
364
100
AcDbEntity
  8
5
  6
Continuous
 62
    94
370
    30
100
AcDbLine
 10
542.7002075508505
 20
472.881732177945
 30
0.0
 11
563.7002075508505
 21
472.881732177945
 31
0.0
  0
ARC
  5
368
330
364
100
AcDbEntity
  8
5
  6
Continuous
 62
    94
370
    30
100
AcDbCircle
 10
563.7002075508505
 20
472.381732177945
 30
0.0
 40
0.5
100
AcDbArc
 50
0.0
 51
89.99999999999991
  0
LINE
  5
369
330
364
100
AcDbEntity
  8
5
  6
Continuous
 62
    94
370
    30
100
AcDbLine
 10
563.7002075508505
 20
372.8817321779454
 30
0.0
 11
542.7002075508505
 21
372.8817321779454
 31
0.0
  0
ARC
  5
36A
330
364
100
AcDbEntity
  8
5
  6
Continuous
 62
    94
370
    30
100
AcDbCircle
 10
542.7002075508505
 20
376.8817321779457
 30
0.0
 40
0.5
100
AcDbArc
 50
179.9999999999998
 51
269.9999999999998
  0
LINE
  5
36B
330
364
100
AcDbEntity
  8
5
  6
Continuous
 62
    94
370
    30
100
AcDbLine
 10
564.2002075508505
 20
472.381732177945
 30
0.0
 11
564.2002075508505
 21
373.3817321779454
 31
0.0
  0
ARC
  5
36C
330
364
100
AcDbEntity
  8
5
  6
Continuous
 62
    94
370
    30
100
AcDbCircle
 10
563.7002075508505
 20
373.3817321779454
 30
0.0
 40
0.5
100
AcDbArc
 50
269.9999999999998
 51
0.0
  0
LINE
  5
36D
330
364
100
AcDbEntity
  8
5
  6
Continuous
 62
    94
370
    30
100
AcDbLine
 10
542.2002075508506
 20
373.3817321779454
 30
0.0
 11
542.2002075508506
 21
472.381732177945
 31
0.0
  0
ARC
  5
36E
330
364
100
AcDbEntity
  8
5
  6
Continuous
 62
    94
370
    30
100
AcDbCircle
 10
542.7002075508505
 20
373.3817321779454
 30
0.0
 40
0.5
100
AcDbArc
 50
179.9999999999998
 51
269.9999999999998
  0
ENDBLK
  5
36F
330
364
100
AcDbEntity
  8
0
100
AcDbBlockEnd
  0
BLOCK
  5
371
330
370
100
AcDbEntity
  8
0
100
AcDbBlockBegin
  2
*G8927
 70
     1
 10
0.0
 20
0.0
 30
0.0
  3
*G8927
  1
*G89
  0
LINE
  5
372
330
370
100
AcDbEntity
  8
5
  6
DASHDOT
 62
    94
370
     9
100
AcDbLine
 10
553.2002075508503
 20
315.1507194907055
 30
0.0
 11
553.2002075508503
 21
269.4607194907055
 31
0.0
  0
ARC
  5
373
330
370
100
AcDbEntity
  8
5
  6
Continuous
 62
    94
370
    30
100
AcDbCircle
 10
563.7002075508502
 20
299.8427689121921
 30
0.0
 40
0.5
100
AcDbArc
 50
269.9999999999998
 51
0.0000000000130276
  0
LINE
  5
374
330
370
100
AcDbEntity
  8
5
  6
Continuous
 62
    94
370
    30
100
AcDbLine
 10
563.7002075508502
 20
299.3427689121921
 30
0.0
 11
542.7002075508503
 21
299.3427689121921
 31
0.0
  0
ARC
  5
375
330
370
100
AcDbEntity
  8
5
  6
Continuous
 62
    94
370
    30
100
AcDbCircle
 10
542.7002075508503
 20
299.8427689121921
 30
0.0
 40
0.5
100
AcDbArc
 50
179.999999999987
 51
269.9999999999998
  0
ARC
  5
376
330
370
100
AcDbEntity
  8
5
  6
Continuous
 62
    94
370
    30
100
AcDbCircle
 10
542.7002075508503
 20
296.8836255124055
 30
0.0
 40
0.5
100
AcDbArc
 50
89.99999999999991
 51
179.9999999999998
  0
LINE
  5
377
330
370
100
AcDbEntity
  8
5
  6
Continuous
 62
    94
370
    30
100
AcDbLine
 10
542.7002075508503
 20
297.3836255124055
 30
0.0
 11
563.7002075508502
 21
297.3836255124055
 31
0.0
  0
ARC
  5
378
330
370
100
AcDbEntity
  8
5
  6
Continuous
 62
    94
370
    30
100
AcDbCircle
 10
563.7002075508502
 20
296.8836255124055
 30
0.0
 40
0.5
100
AcDbArc
 50
0.0
 51
89.99999999999991
  0
ARC
  5
379
330
370
100
AcDbEntity
  8
5
  6
Continuous
 62
    94
370
    30
100
AcDbCircle
 10
542.7002075508503
 20
311.7107194907225
 30
0.0
 40
0.5
100
AcDbArc
 50
89.99999999999991
 51
179.9999999999998
  0
LINE
  5
37A
330
370
100
AcDbEntity
  8
5
  6
Continuous
 62
    94
370
    30
100
AcDbLine
 10
563.7002075508502
 20
312.2107194907225
 30
0.0
 11
542.7002075508503
 21
312.2107194907225
 31
0.0
  0
ARC
  5
37B
330
370
100
AcDbEntity
  8
5
  6
Continuous
 62
    94
370
    30
100
AcDbCircle
 10
563.7002075508502
 20
311.7107194907225
 30
0.0
 40
0.5
100
AcDbArc
 50
0.0
 51
89.99999999999991
  0
LINE
  5
37C
330
370
100
AcDbEntity
  8
5
  6
Continuous
 62
    94
370
    30
100
AcDbLine
 10
564.2002075508502
 20
273.1107194907225
 30
0.0
 11
564.2002075508502
 21
311.7107194907225
 31
0.0
  0
ARC
  5
37D
330
370
100
AcDbEntity
  8
5
  6
Continuous
 62
    94
370
    30
100
AcDbCircle
 10
563.7002075508502
 20
273.1107194907224
 30
0.0
 40
0.5
100
AcDbArc
 50
269.9999999999998
 51
0.0000000000130276
  0
LINE
  5
37E
330
370
100
AcDbEntity
  8
5
  6
Continuous
 62
    94
370
    30
100
AcDbLine
 10
542.7002075508503
 20
272.6107194907224
 30
0.0
 11
563.7002075508502
 21
272.6107194907224
 31
0.0
  0
LINE
  5
37F
330
370
100
AcDbEntity
  8
5
  6
Continuous
 62
    94
370
    30
100
AcDbLine
 10
542.2002075508503
 20
311.7107194907225
 30
0.0
 11
542.2002075508503
 21
273.1107194907225
 31
0.0
  0
ARC
  5
380
330
370
100
AcDbEntity
  8
5
  6
Continuous
 62
    94
370
    30
100
AcDbCircle
 10
542.7002075508503
 20
273.1107194907224
 30
0.0
 40
0.5
100
AcDbArc
 50
179.999999999987
 51
269.9999999999998
  0
LINE
  5
381
330
370
100
AcDbEntity
  8
5
  6
Continuous
 62
    94
370
    30
100
AcDbLine
 10
548.2002075508503
 20
313.7107194907225
 30
0.0
 11
558.2002075508503
 21
313.7107194907225
 31
0.0
  0
LINE
  5
382
330
370
100
AcDbEntity
  8
5
  6
Continuous
 62
    94
370
    30
100
AcDbLine
 10
558.2002075508503
 20
271.1107194907224
 30
0.0
 11
548.2002075508503
 21
271.1107194907224
 31
0.0
  0
LINE
  5
383
330
370
100
AcDbEntity
  8
5
  6
Continuous
 62
    94
370
    30
100
AcDbLine
 10
548.2002075508503
 20
271.1107194907224
 30
0.0
 11
548.2002075508503
 21
272.6107194907224
 31
0.0
  0
LINE
  5
384
330
370
100
AcDbEntity
  8
5
  6
Continuous
 62
    94
370
    30
100
AcDbLine
 10
558.2002075508503
 20
272.6107194907224
 30
0.0
 11
558.2002075508503
 21
271.1107194907224
 31
0.0
  0
LINE
  5
385
330
370
100
AcDbEntity
  8
5
  6
Continuous
 62
    94
370
    30
100
AcDbLine
 10
558.2002075508503
 20
313.7107194907225
 30
0.0
 11
558.2002075508503
 21
312.2107194907225
 31
0.0
  0
LINE
  5
386
330
370
100
AcDbEntity
  8
5
  6
Continuous
 62
    94
370
    30
100
AcDbLine
 10
548.2002075508503
 20
312.2107194907225
 30
0.0
 11
548.2002075508503
 21
313.7107194907225
 31
0.0
  0
ENDBLK
  5
387
330
370
100
AcDbEntity
  8
0
100
AcDbBlockEnd
  0
BLOCK
  5
389
330
388
100
AcDbEntity
  8
0
100
AcDbBlockBegin
  2
*G9028
 70
     1
 10
0.0
 20
0.0
 30
0.0
  3
*G9028
  1
*G90
  0
LINE
  5
38A
330
388
100
AcDbEntity
  8
5
  6
DASHDOT
 62
    94
370
     9
100
AcDbLine
 10
342.2002075508503
 20
315.1507194907055
 30
0.0
 11
342.2002075508503
 21
269.4607194907055
 31
0.0
  0
ARC
  5
38B
330
388
100
AcDbEntity
  8
5
  6
Continuous
 62
    94
370
    30
100
AcDbCircle
 10
352.7002075508503
 20
299.8427689121921
 30
0.0
 40
0.5
100
AcDbArc
 50
269.9999999999998
 51
0.0000000000130276
  0
LINE
  5
38C
330
388
100
AcDbEntity
  8
5
  6
Continuous
 62
    94
370
    30
100
AcDbLine
 10
352.7002075508503
 20
299.3427689121921
 30
0.0
 11
331.7002075508503
 21
299.3427689121921
 31
0.0
  0
ARC
  5
38D
330
388
100
AcDbEntity
  8
5
  6
Continuous
 62
    94
370
    30
100
AcDbCircle
 10
331.7002075508503
 20
299.8427689121921
 30
0.0
 40
0.5
100
AcDbArc
 50
179.999999999987
 51
269.9999999999998
  0
ARC
  5
38E
330
388
100
AcDbEntity
  8
5
  6
Continuous
 62
    94
370
    30
100
AcDbCircle
 10
331.7002075508503
 20
296.8836255124055
 30
0.0
 40
0.5
100
AcDbArc
 50
89.99999999999991
 51
179.9999999999998
  0
LINE
  5
38F
330
388
100
AcDbEntity
  8
5
  6
Continuous
 62
    94
370
    30
100
AcDbLine
 10
331.7002075508503
 20
297.3836255124055
 30
0.0
 11
352.7002075508503
 21
297.3836255124055
 31
0.0
  0
ARC
  5
390
330
388
100
AcDbEntity
  8
5
  6
Continuous
 62
    94
370
    30
100
AcDbCircle
 10
352.7002075508503
 20
296.8836255124055
 30
0.0
 40
0.5
100
AcDbArc
 50
0.0
 51
89.99999999999991
  0
ARC
  5
391
330
388
100
AcDbEntity
  8
5
  6
Continuous
 62
    94
370
    30
100
AcDbCircle
 10
331.7002075508503
 20
311.7107194907225
 30
0.0
 40
0.5
100
AcDbArc
 50
89.99999999999991
 51
179.9999999999998
  0
LINE
  5
392
330
388
100
AcDbEntity
  8
5
  6
Continuous
 62
    94
370
    30
100
AcDbLine
 10
352.7002075508503
 20
312.2107194907225
 30
0.0
 11
331.7002075508503
 21
312.2107194907225
 31
0.0
  0
ARC
  5
393
330
388
100
AcDbEntity
  8
5
  6
Continuous
 62
    94
370
    30
100
AcDbCircle
 10
352.7002075508503
 20
311.7107194907225
 30
0.0
 40
0.5
100
AcDbArc
 50
0.0
 51
89.99999999999991
  0
LINE
  5
394
330
388
100
AcDbEntity
  8
5
  6
Continuous
 62
    94
370
    30
100
AcDbLine
 10
353.2002075508503
 20
273.1107194907225
 30
0.0
 11
353.2002075508503
 21
311.7107194907225
 31
0.0
  0
ARC
  5
395
330
388
100
AcDbEntity
  8
5
  6
Continuous
 62
    94
370
    30
100
AcDbCircle
 10
352.7002075508503
 20
273.1107194907224
 30
0.0
 40
0.5
100
AcDbArc
 50
269.9999999999998
 51
0.0000000000130276
  0
LINE
  5
396
330
388
100
AcDbEntity
  8
5
  6
Continuous
 62
    94
370
    30
100
AcDbLine
 10
331.7002075508503
 20
272.6107194907224
 30
0.0
 11
352.7002075508503
 21
272.6107194907224
 31
0.0
  0
LINE
  5
397
330
388
100
AcDbEntity
  8
5
  6
Continuous
 62
    94
370
    30
100
AcDbLine
 10
331.2002075508503
 20
311.7107194907225
 30
0.0
 11
331.2002075508503
 21
273.1107194907225
 31
0.0
  0
ARC
  5
398
330
388
100
AcDbEntity
  8
5
  6
Continuous
 62
    94
370
    30
100
AcDbCircle
 10
331.7002075508503
 20
273.1107194907224
 30
0.0
 40
0.5
100
AcDbArc
 50
179.999999999987
 51
269.9999999999998
  0
LINE
  5
399
330
388
100
AcDbEntity
  8
5
  6
Continuous
 62
    94
370
    30
100
AcDbLine
 10
337.2002075508503
 20
313.7107194907225
 30
0.0
 11
347.2002075508503
 21
313.7107194907225
 31
0.0
  0
LINE
  5
39A
330
388
100
AcDbEntity
  8
5
  6
Continuous
 62
    94
370
    30
100
AcDbLine
 10
347.2002075508503
 20
271.1107194907224
 30
0.0
 11
337.2002075508503
 21
271.1107194907224
 31
0.0
  0
LINE
  5
39B
330
388
100
AcDbEntity
  8
5
  6
Continuous
 62
    94
370
    30
100
AcDbLine
 10
337.2002075508503
 20
271.1107194907224
 30
0.0
 11
337.2002075508503
 21
272.6107194907161
 31
0.0
  0
LINE
  5
39C
330
388
100
AcDbEntity
  8
5
  6
Continuous
 62
    94
370
    30
100
AcDbLine
 10
347.2002075508503
 20
272.6107194907161
 30
0.0
 11
347.2002075508503
 21
271.1107194907224
 31
0.0
  0
LINE
  5
39D
330
388
100
AcDbEntity
  8
5
  6
Continuous
 62
    94
370
    30
100
AcDbLine
 10
347.2002075508503
 20
313.7107194907225
 30
0.0
 11
347.2002075508503
 21
312.2107194907157
 31
0.0
  0
LINE
  5
39E
330
388
100
AcDbEntity
  8
5
  6
Continuous
 62
    94
370
    30
100
AcDbLine
 10
337.2002075508503
 20
312.2107194907157
 30
0.0
 11
337.2002075508503
 21
313.7107194907225
 31
0.0
  0
ENDBLK
  5
39F
330
388
100
AcDbEntity
  8
0
100
AcDbBlockEnd
  0
BLOCK
  5
3A1
330
3A0
100
AcDbEntity
  8
0
100
AcDbBlockBegin
  2
*G9129
 70
     1
 10
0.0
 20
0.0
 30
0.0
  3
*G9129
  1
*G91
  0
LINE
  5
3A2
330
3A0
100
AcDbEntity
  8
5
  6
DASHDOT
 62
    94
370
     9
100
AcDbLine
 10
131.2002075508502
 20
315.1507194907055
 30
0.0
 11
131.2002075508502
 21
269.4607194907055
 31
0.0
  0
ARC
  5
3A3
330
3A0
100
AcDbEntity
  8
5
  6
Continuous
 62
    94
370
    30
100
AcDbCircle
 10
141.7002075508502
 20
299.8427689121921
 30
0.0
 40
0.5
100
AcDbArc
 50
269.9999999999998
 51
0.0000000000130276
  0
LINE
  5
3A4
330
3A0
100
AcDbEntity
  8
5
  6
Continuous
 62
    94
370
    30
100
AcDbLine
 10
141.7002075508502
 20
299.3427689121921
 30
0.0
 11
120.7002075508502
 21
299.3427689121921
 31
0.0
  0
ARC
  5
3A5
330
3A0
100
AcDbEntity
  8
5
  6
Continuous
 62
    94
370
    30
100
AcDbCircle
 10
120.7002075508502
 20
299.8427689121921
 30
0.0
 40
0.5
100
AcDbArc
 50
179.999999999987
 51
269.9999999999998
  0
ARC
  5
3A6
330
3A0
100
AcDbEntity
  8
5
  6
Continuous
 62
    94
370
    30
100
AcDbCircle
 10
120.7002075508502
 20
296.8836255124055
 30
0.0
 40
0.5
100
AcDbArc
 50
89.99999999999991
 51
179.9999999999998
  0
LINE
  5
3A7
330
3A0
100
AcDbEntity
  8
5
  6
Continuous
 62
    94
370
    30
100
AcDbLine
 10
120.7002075508502
 20
297.3836255124055
 30
0.0
 11
141.7002075508502
 21
297.3836255124055
 31
0.0
  0
ARC
  5
3A8
330
3A0
100
AcDbEntity
  8
5
  6
Continuous
 62
    94
370
    30
100
AcDbCircle
 10
141.7002075508502
 20
296.8836255124055
 30
0.0
 40
0.5
100
AcDbArc
 50
0.0
 51
89.99999999999991
  0
ARC
  5
3A9
330
3A0
100
AcDbEntity
  8
5
  6
Continuous
 62
    94
370
    30
100
AcDbCircle
 10
120.7002075508502
 20
311.7107194907225
 30
0.0
 40
0.5
100
AcDbArc
 50
89.99999999999991
 51
179.9999999999998
  0
LINE
  5
3AA
330
3A0
100
AcDbEntity
  8
5
  6
Continuous
 62
    94
370
    30
100
AcDbLine
 10
141.7002075508502
 20
312.2107194907225
 30
0.0
 11
120.7002075508502
 21
312.2107194907225
 31
0.0
  0
ARC
  5
3AB
330
3A0
100
AcDbEntity
  8
5
  6
Continuous
 62
    94
370
    30
100
AcDbCircle
 10
141.7002075508502
 20
311.7107194907225
 30
0.0
 40
0.5
100
AcDbArc
 50
0.0
 51
89.99999999999991
  0
LINE
  5
3AC
330
3A0
100
AcDbEntity
  8
5
  6
Continuous
 62
    94
370
    30
100
AcDbLine
 10
142.2002075508502
 20
273.1107194907225
 30
0.0
 11
142.2002075508502
 21
311.7107194907225
 31
0.0
  0
ARC
  5
3AD
330
3A0
100
AcDbEntity
  8
5
  6
Continuous
 62
    94
370
    30
100
AcDbCircle
 10
141.7002075508502
 20
273.1107194907224
 30
0.0
 40
0.5
100
AcDbArc
 50
269.9999999999998
 51
0.0000000000130276
  0
LINE
  5
3AE
330
3A0
100
AcDbEntity
  8
5
  6
Continuous
 62
    94
370
    30
100
AcDbLine
 10
120.7002075508502
 20
272.6107194907224
 30
0.0
 11
141.7002075508502
 21
272.6107194907224
 31
0.0
  0
LINE
  5
3AF
330
3A0
100
AcDbEntity
  8
5
  6
Continuous
 62
    94
370
    30
100
AcDbLine
 10
120.2002075508502
 20
311.7107194907225
 30
0.0
 11
120.2002075508502
 21
273.1107194907225
 31
0.0
  0
ARC
  5
3B0
330
3A0
100
AcDbEntity
  8
5
  6
Continuous
 62
    94
370
    30
100
AcDbCircle
 10
120.7002075508502
 20
273.1107194907224
 30
0.0
 40
0.5
100
AcDbArc
 50
179.999999999987
 51
269.9999999999998
  0
LINE
  5
3B1
330
3A0
100
AcDbEntity
  8
5
  6
Continuous
 62
    94
370
    30
100
AcDbLine
 10
126.2002075508502
 20
313.7107194907225
 30
0.0
 11
136.2002075508502
 21
313.7107194907225
 31
0.0
  0
LINE
  5
3B2
330
3A0
100
AcDbEntity
  8
5
  6
HIDDEN
 62
    94
370
     9
100
AcDbLine
 10
126.2002075508502
 20
272.6107194907224
 30
0.0
 11
136.2002075508502
 21
272.6107194907224
 31
0.0
  0
LINE
  5
3B3
330
3A0
100
AcDbEntity
  8
5
  6
Continuous
 62
    94
370
    30
100
AcDbLine
 10
136.2002075508502
 20
271.1107194907224
 30
0.0
 11
126.2002075508502
 21
271.1107194907224
 31
0.0
  0
LINE
  5
3B4
330
3A0
100
AcDbEntity
  8
5
  6
Continuous
 62
    94
370
    30
100
AcDbLine
 10
136.2002075508502
 20
313.7107194907225
 30
0.0
 11
136.2002075508502
 21
312.2107194907157
 31
0.0
  0
LINE
  5
3B5
330
3A0
100
AcDbEntity
  8
5
  6
Continuous
 62
    94
370
    30
100
AcDbLine
 10
126.2002075508502
 20
312.2107194907157
 30
0.0
 11
126.2002075508502
 21
313.7107194907225
 31
0.0
  0
LINE
  5
3B6
330
3A0
100
AcDbEntity
  8
5
  6
Continuous
 62
    94
370
    30
100
AcDbLine
 10
136.2002075508502
 20
272.6107194907161
 30
0.0
 11
136.2002075508502
 21
271.1107194907224
 31
0.0
  0
LINE
  5
3B7
330
3A0
100
AcDbEntity
  8
5
  6
Continuous
 62
    94
370
    30
100
AcDbLine
 10
126.2002075508502
 20
271.1107194907224
 30
0.0
 11
126.2002075508502
 21
272.6107194907161
 31
0.0
  0
ENDBLK
  5
3B8
330
3A0
100
AcDbEntity
  8
0
100
AcDbBlockEnd
  0
BLOCK
  5
3BA
330
3B9
100
AcDbEntity
  8
0
100
AcDbBlockBegin
  2
*G9330
 70
     1
 10
0.0
 20
0.0
 30
0.0
  3
*G9330
  1
*G93
  0
LINE
  5
3BB
330
3B9
100
AcDbEntity
  8
5
  6
DASHDOT
 62
    94
370
     9
100
AcDbLine
 10
454.2002075508506
 20
315.1507194907055
 30
0.0
 11
454.2002075508501
 21
269.4607194907055
 31
0.0
  0
ARC
  5
3BC
330
3B9
100
AcDbEntity
  8
5
  6
Continuous
 62
    94
370
    30
100
AcDbCircle
 10
464.7002075508503
 20
299.842768912192
 30
0.0
 40
0.5
100
AcDbArc
 50
269.9999999999998
 51
0.0
  0
LINE
  5
3BD
330
3B9
100
AcDbEntity
  8
5
  6
Continuous
 62
    94
370
    30
100
AcDbLine
 10
464.7002075508503
 20
299.342768912192
 30
0.0
 11
443.7002075508503
 21
299.3427689121922
 31
0.0
  0
ARC
  5
3BE
330
3B9
100
AcDbEntity
  8
5
  6
Continuous
 62
    94
370
    30
100
AcDbCircle
 10
443.7002075508503
 20
299.8427689121922
 30
0.0
 40
0.5
100
AcDbArc
 50
179.9999999999998
 51
269.9999999999998
  0
ARC
  5
3BF
330
3B9
100
AcDbEntity
  8
5
  6
Continuous
 62
    94
370
    30
100
AcDbCircle
 10
443.7002075508503
 20
296.8836255124056
 30
0.0
 40
0.5
100
AcDbArc
 50
89.99999999999991
 51
179.9999999999998
  0
LINE
  5
3C0
330
3B9
100
AcDbEntity
  8
5
  6
Continuous
 62
    94
370
    30
100
AcDbLine
 10
443.7002075508503
 20
297.3836255124056
 30
0.0
 11
464.7002075508503
 21
297.3836255124053
 31
0.0
  0
ARC
  5
3C1
330
3B9
100
AcDbEntity
  8
5
  6
Continuous
 62
    94
370
    30
100
AcDbCircle
 10
464.7002075508503
 20
296.8836255124053
 30
0.0
 40
0.5
100
AcDbArc
 50
0.0
 51
89.99999999999991
  0
ARC
  5
3C2
330
3B9
100
AcDbEntity
  8
5
  6
Continuous
 62
    94
370
    30
100
AcDbCircle
 10
443.7002075508503
 20
311.7107194907226
 30
0.0
 40
0.5
100
AcDbArc
 50
89.99999999999991
 51
179.9999999999998
  0
LINE
  5
3C3
330
3B9
100
AcDbEntity
  8
5
  6
Continuous
 62
    94
370
    30
100
AcDbLine
 10
464.7002075508503
 20
312.2107194907223
 30
0.0
 11
443.7002075508503
 21
312.2107194907226
 31
0.0
  0
ARC
  5
3C4
330
3B9
100
AcDbEntity
  8
5
  6
Continuous
 62
    94
370
    30
100
AcDbCircle
 10
464.7002075508503
 20
311.7107194907223
 30
0.0
 40
0.5
100
AcDbArc
 50
0.0
 51
89.99999999999991
  0
LINE
  5
3C5
330
3B9
100
AcDbEntity
  8
5
  6
Continuous
 62
    94
370
    30
100
AcDbLine
 10
465.2002075508502
 20
273.1107194907224
 30
0.0
 11
465.2002075508502
 21
311.7107194907223
 31
0.0
  0
ARC
  5
3C6
330
3B9
100
AcDbEntity
  8
5
  6
Continuous
 62
    94
370
    30
100
AcDbCircle
 10
464.7002075508503
 20
273.1107194907224
 30
0.0
 40
0.5
100
AcDbArc
 50
269.9999999999998
 51
0.0
  0
LINE
  5
3C7
330
3B9
100
AcDbEntity
  8
5
  6
Continuous
 62
    94
370
    30
100
AcDbLine
 10
443.7002075508503
 20
272.6107194907227
 30
0.0
 11
464.7002075508503
 21
272.6107194907224
 31
0.0
  0
LINE
  5
3C8
330
3B9
100
AcDbEntity
  8
5
  6
Continuous
 62
    94
370
    30
100
AcDbLine
 10
443.2002075508503
 20
311.7107194907226
 30
0.0
 11
443.2002075508503
 21
273.1107194907227
 31
0.0
  0
ARC
  5
3C9
330
3B9
100
AcDbEntity
  8
5
  6
Continuous
 62
    94
370
    30
100
AcDbCircle
 10
443.7002075508503
 20
273.1107194907227
 30
0.0
 40
0.5
100
AcDbArc
 50
179.9999999999998
 51
269.9999999999998
  0
LINE
  5
3CA
330
3B9
100
AcDbEntity
  8
5
  6
Continuous
 62
    94
370
    30
100
AcDbLine
 10
449.2002075508502
 20
313.7107194907225
 30
0.0
 11
459.2002075508502
 21
313.7107194907225
 31
0.0
  0
LINE
  5
3CB
330
3B9
100
AcDbEntity
  8
5
  6
Continuous
 62
    94
370
    30
100
AcDbLine
 10
459.2002075508502
 20
271.1107194907224
 30
0.0
 11
449.2002075508502
 21
271.1107194907224
 31
0.0
  0
LINE
  5
3CC
330
3B9
100
AcDbEntity
  8
5
  6
Continuous
 62
    94
370
    30
100
AcDbLine
 10
449.2002075508502
 20
271.1107194907224
 30
0.0
 11
449.2002075508502
 21
272.6107194906951
 31
0.0
  0
LINE
  5
3CD
330
3B9
100
AcDbEntity
  8
5
  6
Continuous
 62
    94
370
    30
100
AcDbLine
 10
459.2002075508502
 20
272.6107194906951
 30
0.0
 11
459.2002075508502
 21
271.1107194907224
 31
0.0
  0
LINE
  5
3CE
330
3B9
100
AcDbEntity
  8
5
  6
Continuous
 62
    94
370
    30
100
AcDbLine
 10
459.2002075508502
 20
313.7107194907225
 30
0.0
 11
459.2002075508502
 21
312.2107194906948
 31
0.0
  0
LINE
  5
3CF
330
3B9
100
AcDbEntity
  8
5
  6
Continuous
 62
    94
370
    30
100
AcDbLine
 10
449.2002075508502
 20
312.2107194906948
 30
0.0
 11
449.2002075508502
 21
313.7107194907225
 31
0.0
  0
ENDBLK
  5
3D0
330
3B9
100
AcDbEntity
  8
0
100
AcDbBlockEnd
  0
BLOCK
  5
3D2
330
3D1
100
AcDbEntity
  8
0
100
AcDbBlockBegin
  2
*G9431
 70
     1
 10
0.0
 20
0.0
 30
0.0
  3
*G9431
  1
*G94
  0
LINE
  5
3D3
330
3D1
100
AcDbEntity
  8
5
  6
DASHDOT
 62
    94
370
     9
100
AcDbLine
 10
230.2002075508506
 20
315.1507194907055
 30
0.0
 11
230.2002075508501
 21
269.4607194907055
 31
0.0
  0
ARC
  5
3D4
330
3D1
100
AcDbEntity
  8
5
  6
Continuous
 62
    94
370
    30
100
AcDbCircle
 10
240.7002075508503
 20
299.842768912192
 30
0.0
 40
0.5
100
AcDbArc
 50
269.9999999999998
 51
0.0
  0
LINE
  5
3D5
330
3D1
100
AcDbEntity
  8
5
  6
Continuous
 62
    94
370
    30
100
AcDbLine
 10
240.7002075508503
 20
299.342768912192
 30
0.0
 11
219.7002075508503
 21
299.3427689121922
 31
0.0
  0
ARC
  5
3D6
330
3D1
100
AcDbEntity
  8
5
  6
Continuous
 62
    94
370
    30
100
AcDbCircle
 10
219.7002075508503
 20
299.8427689121922
 30
0.0
 40
0.5
100
AcDbArc
 50
179.9999999999998
 51
269.9999999999998
  0
ARC
  5
3D7
330
3D1
100
AcDbEntity
  8
5
  6
Continuous
 62
    94
370
    30
100
AcDbCircle
 10
219.7002075508503
 20
296.8836255124056
 30
0.0
 40
0.5
100
AcDbArc
 50
89.99999999999991
 51
179.9999999999998
  0
LINE
  5
3D8
330
3D1
100
AcDbEntity
  8
5
  6
Continuous
 62
    94
370
    30
100
AcDbLine
 10
219.7002075508503
 20
297.3836255124056
 30
0.0
 11
240.7002075508503
 21
297.3836255124053
 31
0.0
  0
ARC
  5
3D9
330
3D1
100
AcDbEntity
  8
5
  6
Continuous
 62
    94
370
    30
100
AcDbCircle
 10
240.7002075508503
 20
296.8836255124053
 30
0.0
 40
0.5
100
AcDbArc
 50
0.0
 51
89.99999999999991
  0
ARC
  5
3DA
330
3D1
100
AcDbEntity
  8
5
  6
Continuous
 62
    94
370
    30
100
AcDbCircle
 10
219.7002075508503
 20
311.7107194907226
 30
0.0
 40
0.5
100
AcDbArc
 50
89.99999999999991
 51
179.9999999999998
  0
LINE
  5
3DB
330
3D1
100
AcDbEntity
  8
5
  6
Continuous
 62
    94
370
    30
100
AcDbLine
 10
240.7002075508503
 20
312.2107194907223
 30
0.0
 11
219.7002075508503
 21
312.2107194907226
 31
0.0
  0
ARC
  5
3DC
330
3D1
100
AcDbEntity
  8
5
  6
Continuous
 62
    94
370
    30
100
AcDbCircle
 10
240.7002075508503
 20
311.7107194907223
 30
0.0
 40
0.5
100
AcDbArc
 50
0.0
 51
89.99999999999991
  0
LINE
  5
3DD
330
3D1
100
AcDbEntity
  8
5
  6
Continuous
 62
    94
370
    30
100
AcDbLine
 10
241.2002075508503
 20
273.1107194907224
 30
0.0
 11
241.2002075508503
 21
311.7107194907223
 31
0.0
  0
ARC
  5
3DE
330
3D1
100
AcDbEntity
  8
5
  6
Continuous
 62
    94
370
    30
100
AcDbCircle
 10
240.7002075508503
 20
273.1107194907224
 30
0.0
 40
0.5
100
AcDbArc
 50
269.9999999999998
 51
0.0
  0
LINE
  5
3DF
330
3D1
100
AcDbEntity
  8
5
  6
Continuous
 62
    94
370
    30
100
AcDbLine
 10
219.7002075508503
 20
272.6107194907227
 30
0.0
 11
240.7002075508503
 21
272.6107194907224
 31
0.0
  0
LINE
  5
3E0
330
3D1
100
AcDbEntity
  8
5
  6
Continuous
 62
    94
370
    30
100
AcDbLine
 10
219.2002075508503
 20
311.7107194907226
 30
0.0
 11
219.2002075508503
 21
273.1107194907227
 31
0.0
  0
ARC
  5
3E1
330
3D1
100
AcDbEntity
  8
5
  6
Continuous
 62
    94
370
    30
100
AcDbCircle
 10
219.7002075508503
 20
273.1107194907227
 30
0.0
 40
0.5
100
AcDbArc
 50
179.9999999999998
 51
269.9999999999998
  0
LINE
  5
3E2
330
3D1
100
AcDbEntity
  8
5
  6
Continuous
 62
    94
370
    30
100
AcDbLine
 10
225.2002075508503
 20
313.7107194907225
 30
0.0
 11
235.2002075508503
 21
313.7107194907225
 31
0.0
  0
LINE
  5
3E3
330
3D1
100
AcDbEntity
  8
5
  6
Continuous
 62
    94
370
    30
100
AcDbLine
 10
235.2002075508503
 20
271.1107194907224
 30
0.0
 11
225.2002075508503
 21
271.1107194907224
 31
0.0
  0
LINE
  5
3E4
330
3D1
100
AcDbEntity
  8
5
  6
Continuous
 62
    94
370
    30
100
AcDbLine
 10
225.2002075508503
 20
271.1107194907224
 30
0.0
 11
225.2002075508503
 21
272.6107194906951
 31
0.0
  0
LINE
  5
3E5
330
3D1
100
AcDbEntity
  8
5
  6
Continuous
 62
    94
370
    30
100
AcDbLine
 10
235.2002075508503
 20
272.6107194906951
 30
0.0
 11
235.2002075508503
 21
271.1107194907224
 31
0.0
  0
LINE
  5
3E6
330
3D1
100
AcDbEntity
  8
5
  6
Continuous
 62
    94
370
    30
100
AcDbLine
 10
235.2002075508503
 20
313.7107194907225
 30
0.0
 11
235.2002075508503
 21
312.2107194906948
 31
0.0
  0
LINE
  5
3E7
330
3D1
100
AcDbEntity
  8
5
  6
Continuous
 62
    94
370
    30
100
AcDbLine
 10
225.2002075508503
 20
312.2107194906948
 30
0.0
 11
225.2002075508503
 21
313.7107194907225
 31
0.0
  0
ENDBLK
  5
3E8
330
3D1
100
AcDbEntity
  8
0
100
AcDbBlockEnd
  0
BLOCK
  5
3EA
330
3E9
100
AcDbEntity
  8
0
100
AcDbBlockBegin
  2
*G9532
 70
     1
 10
0.0
 20
0.0
 30
0.0
  3
*G9532
  1
*G95
  0
LINE
  5
3EB
330
3E9
100
AcDbEntity
  8
5
  6
DASHDOT
 62
    94
370
     9
100
AcDbLine
 10
230.2002075508506
 20
368.6335178287882
 30
0.0
 11
230.2002075508506
 21
478.7406349866726
 31
0.0
  0
ENDBLK
  5
3EC
330
3E9
100
AcDbEntity
  8
0
100
AcDbBlockEnd
  0
BLOCK
  5
3EE
330
3ED
100
AcDbEntity
  8
0
100
AcDbBlockBegin
  2
*G9633
 70
     1
 10
0.0
 20
0.0
 30
0.0
  3
*G9633
  1
*G96
  0
LINE
  5
3EF
330
3ED
100
AcDbEntity
  8
5
  6
Continuous
 62
    94
370
    30
100
AcDbLine
 10
225.2002075508503
 20
387.8817321779453
 30
0.0
 11
225.2002075508503
 21
381.3817321779454
 31
0.0
  0
LINE
  5
3F0
330
3ED
100
AcDbEntity
  8
5
  6
Continuous
 62
    94
370
    30
100
AcDbLine
 10
225.2002075508503
 20
381.3817321779454
 30
0.0
 11
235.2002075508503
 21
381.3817321779454
 31
0.0
  0
LINE
  5
3F1
330
3ED
100
AcDbEntity
  8
5
  6
Continuous
 62
    94
370
    30
100
AcDbLine
 10
235.2002075508503
 20
381.3817321779454
 30
0.0
 11
235.2002075508503
 21
387.8817321779453
 31
0.0
  0
LINE
  5
3F2
330
3ED
100
AcDbEntity
  8
5
  6
Continuous
 62
    94
370
    30
100
AcDbLine
 10
235.2002075508503
 20
387.8817321779453
 30
0.0
 11
225.2002075508503
 21
387.8817321779453
 31
0.0
  0
ENDBLK
  5
3F3
330
3ED
100
AcDbEntity
  8
0
100
AcDbBlockEnd
  0
BLOCK
  5
3F5
330
3F4
100
AcDbEntity
  8
0
100
AcDbBlockBegin
  2
*G9734
 70
     1
 10
0.0
 20
0.0
 30
0.0
  3
*G9734
  1
*G97
  0
ARC
  5
3F6
330
3F4
100
AcDbEntity
  8
5
  6
Continuous
 62
    94
370
    30
100
AcDbCircle
 10
219.7002075508506
 20
376.8817321779457
 30
0.0
 40
0.5
100
AcDbArc
 50
179.9999999999998
 51
269.9999999999998
  0
ENDBLK
  5
3F7
330
3F4
100
AcDbEntity
  8
0
100
AcDbBlockEnd
  0
BLOCK
  5
3F9
330
3F8
100
AcDbEntity
  8
0
100
AcDbBlockBegin
  2
*G9835
 70
     1
 10
0.0
 20
0.0
 30
0.0
  3
*G9835
  1
*G98
  0
ARC
  5
3FA
330
3F8
100
AcDbEntity
  8
5
  6
Continuous
 62
    94
370
    30
100
AcDbCircle
 10
219.7002075508506
 20
472.381732177945
 30
0.0
 40
0.5
100
AcDbArc
 50
89.99999999999991
 51
179.9999999999998
  0
LINE
  5
3FB
330
3F8
100
AcDbEntity
  8
5
  6
Continuous
 62
    94
370
    30
100
AcDbLine
 10
219.7002075508506
 20
472.881732177945
 30
0.0
 11
240.7002075508506
 21
472.881732177945
 31
0.0
  0
ARC
  5
3FC
330
3F8
100
AcDbEntity
  8
5
  6
Continuous
 62
    94
370
    30
100
AcDbCircle
 10
240.7002075508506
 20
472.381732177945
 30
0.0
 40
0.5
100
AcDbArc
 50
0.0
 51
89.99999999999991
  0
LINE
  5
3FD
330
3F8
100
AcDbEntity
  8
5
  6
Continuous
 62
    94
370
    30
100
AcDbLine
 10
240.7002075508506
 20
372.8817321779454
 30
0.0
 11
219.7002075508506
 21
372.8817321779454
 31
0.0
  0
LINE
  5
3FE
330
3F8
100
AcDbEntity
  8
5
  6
Continuous
 62
    94
370
    30
100
AcDbLine
 10
241.2002075508506
 20
472.381732177945
 30
0.0
 11
241.2002075508506
 21
373.3817321779454
 31
0.0
  0
ARC
  5
3FF
330
3F8
100
AcDbEntity
  8
5
  6
Continuous
 62
    94
370
    30
100
AcDbCircle
 10
240.7002075508506
 20
373.3817321779454
 30
0.0
 40
0.5
100
AcDbArc
 50
269.9999999999998
 51
0.0
  0
LINE
  5
400
330
3F8
100
AcDbEntity
  8
5
  6
Continuous
 62
    94
370
    30
100
AcDbLine
 10
219.2002075508506
 20
373.3817321779454
 30
0.0
 11
219.2002075508506
 21
472.381732177945
 31
0.0
  0
ARC
  5
401
330
3F8
100
AcDbEntity
  8
5
  6
Continuous
 62
    94
370
    30
100
AcDbCircle
 10
219.7002075508506
 20
373.3817321779454
 30
0.0
 40
0.5
100
AcDbArc
 50
179.9999999999998
 51
269.9999999999998
  0
ENDBLK
  5
402
330
3F8
100
AcDbEntity
  8
0
100
AcDbBlockEnd
  0
BLOCK
  5
404
330
403
100
AcDbEntity
  8
0
100
AcDbBlockBegin
  2
*G9936
 70
     1
 10
0.0
 20
0.0
 30
0.0
  3
*G9936
  1
*G99
  0
LINE
  5
405
330
403
100
AcDbEntity
  8
5
  6
DASHDOT
 62
    94
370
     9
100
AcDbLine
 10
454.2002075508506
 20
368.6335178287882
 30
0.0
 11
454.2002075508506
 21
478.7406349866726
 31
0.0
  0
ENDBLK
  5
406
330
403
100
AcDbEntity
  8
0
100
AcDbBlockEnd
  0
BLOCK
  5
408
330
407
100
AcDbEntity
  8
0
100
AcDbBlockBegin
  2
*G10037
 70
     1
 10
0.0
 20
0.0
 30
0.0
  3
*G10037
  1
*G100
  0
LINE
  5
409
330
407
100
AcDbEntity
  8
5
  6
Continuous
 62
    94
370
    30
100
AcDbLine
 10
449.2002075508502
 20
387.8817321779452
 30
0.0
 11
449.2002075508502
 21
381.3817321779453
 31
0.0
  0
LINE
  5
40A
330
407
100
AcDbEntity
  8
5
  6
Continuous
 62
    94
370
    30
100
AcDbLine
 10
449.2002075508502
 20
381.3817321779453
 30
0.0
 11
459.2002075508502
 21
381.3817321779453
 31
0.0
  0
LINE
  5
40B
330
407
100
AcDbEntity
  8
5
  6
Continuous
 62
    94
370
    30
100
AcDbLine
 10
459.2002075508502
 20
381.3817321779453
 30
0.0
 11
459.2002075508502
 21
387.8817321779452
 31
0.0
  0
LINE
  5
40C
330
407
100
AcDbEntity
  8
5
  6
Continuous
 62
    94
370
    30
100
AcDbLine
 10
459.2002075508502
 20
387.8817321779452
 30
0.0
 11
449.2002075508502
 21
387.8817321779452
 31
0.0
  0
ENDBLK
  5
40D
330
407
100
AcDbEntity
  8
0
100
AcDbBlockEnd
  0
BLOCK
  5
40F
330
40E
100
AcDbEntity
  8
0
100
AcDbBlockBegin
  2
*G10138
 70
     1
 10
0.0
 20
0.0
 30
0.0
  3
*G10138
  1
*G101
  0
ARC
  5
410
330
40E
100
AcDbEntity
  8
5
  6
Continuous
 62
    94
370
    30
100
AcDbCircle
 10
443.7002075508506
 20
376.8817321779455
 30
0.0
 40
0.5
100
AcDbArc
 50
179.999999999987
 51
269.9999999999998
  0
ENDBLK
  5
411
330
40E
100
AcDbEntity
  8
0
100
AcDbBlockEnd
  0
BLOCK
  5
413
330
412
100
AcDbEntity
  8
0
100
AcDbBlockBegin
  2
*G10239
 70
     1
 10
0.0
 20
0.0
 30
0.0
  3
*G10239
  1
*G102
  0
ARC
  5
414
330
412
100
AcDbEntity
  8
5
  6
Continuous
 62
    94
370
    30
100
AcDbCircle
 10
443.7002075508506
 20
472.381732177945
 30
0.0
 40
0.5
100
AcDbArc
 50
89.99999999999991
 51
179.9999999999998
  0
LINE
  5
415
330
412
100
AcDbEntity
  8
5
  6
Continuous
 62
    94
370
    30
100
AcDbLine
 10
443.7002075508506
 20
472.881732177945
 30
0.0
 11
464.7002075508506
 21
472.881732177945
 31
0.0
  0
ARC
  5
416
330
412
100
AcDbEntity
  8
5
  6
Continuous
 62
    94
370
    30
100
AcDbCircle
 10
464.7002075508506
 20
472.381732177945
 30
0.0
 40
0.5
100
AcDbArc
 50
0.0
 51
89.99999999999991
  0
LINE
  5
417
330
412
100
AcDbEntity
  8
5
  6
Continuous
 62
    94
370
    30
100
AcDbLine
 10
464.7002075508506
 20
372.8817321779454
 30
0.0
 11
443.7002075508506
 21
372.8817321779454
 31
0.0
  0
LINE
  5
418
330
412
100
AcDbEntity
  8
5
  6
Continuous
 62
    94
370
    30
100
AcDbLine
 10
465.2002075508506
 20
472.381732177945
 30
0.0
 11
465.2002075508506
 21
373.3817321779454
 31
0.0
  0
ARC
  5
419
330
412
100
AcDbEntity
  8
5
  6
Continuous
 62
    94
370
    30
100
AcDbCircle
 10
464.7002075508506
 20
373.3817321779454
 30
0.0
 40
0.5
100
AcDbArc
 50
269.9999999999998
 51
0.0
  0
LINE
  5
41A
330
412
100
AcDbEntity
  8
5
  6
Continuous
 62
    94
370
    30
100
AcDbLine
 10
443.2002075508505
 20
373.3817321779454
 30
0.0
 11
443.2002075508505
 21
472.381732177945
 31
0.0
  0
ARC
  5
41B
330
412
100
AcDbEntity
  8
5
  6
Continuous
 62
    94
370
    30
100
AcDbCircle
 10
443.7002075508506
 20
373.3817321779454
 30
0.0
 40
0.5
100
AcDbArc
 50
179.9999999999998
 51
269.9999999999998
  0
ENDBLK
  5
41C
330
412
100
AcDbEntity
  8
0
100
AcDbBlockEnd
  0
ENDSEC
  0
SECTION
  2
ENTITIES
  0
LINE
  5
4FB
330
1F
100
AcDbEntity
  8
2
  6
Continuous
370
    -3
100
AcDbLine
 10
2076.365444564952
 20
2282.343594610305
 30
0.0
 11
2052.565444564952
 21
2282.343594610305
 31
0.0
  0
LINE
  5
4FC
330
1F
100
AcDbEntity
  8
2
  6
Continuous
370
    -3
100
AcDbLine
 10
2052.565444564952
 20
2280.743594610305
 30
0.0
 11
2052.565444564952
 21
2282.343594610305
 31
0.0
  0
LINE
  5
4FE
330
1F
100
AcDbEntity
  8
2
  6
Continuous
370
    -3
100
AcDbLine
 10
2052.565444564952
 20
2280.743594610305
 30
0.0
 11
2535.165444564952
 21
2280.743594610305
 31
0.0
  0
LINE
  5
4FF
330
1F
100
AcDbEntity
  8
2
  6
Continuous
370
    -3
100
AcDbLine
 10
2511.365444564952
 20
2282.343594610305
 30
0.0
 11
2535.165444564952
 21
2282.343594610305
 31
0.0
  0
LINE
  5
500
330
1F
100
AcDbEntity
  8
2
  6
Continuous
370
    -3
100
AcDbLine
 10
2535.165444564952
 20
2280.743594610305
 30
0.0
 11
2535.165444564952
 21
2282.343594610305
 31
0.0
  0
LINE
  5
503
330
1F
100
AcDbEntity
  8
2
  6
Continuous
370
    -3
100
AcDbLine
 10
2076.365444564952
 20
2280.743594610305
 30
0.0
 11
2076.365444564952
 21
2288.743594610305
 31
0.0
  0
LINE
  5
504
330
1F
100
AcDbEntity
  8
2
  6
Continuous
370
    -3
100
AcDbLine
 10
2076.365444564952
 20
2288.743594610305
 30
0.0
 11
2078.365444564952
 21
2290.743594610305
 31
0.0
  0
LINE
  5
505
330
1F
100
AcDbEntity
  8
2
  6
Continuous
370
    -3
100
AcDbLine
 10
2511.365444564952
 20
2280.743594610305
 30
0.0
 11
2511.365444564952
 21
2288.743594610305
 31
0.0
  0
LINE
  5
506
330
1F
100
AcDbEntity
  8
2
  6
Continuous
370
    -3
100
AcDbLine
 10
2078.365444564952
 20
2290.743594610305
 30
0.0
 11
2509.365444564952
 21
2290.743594610305
 31
0.0
  0
LINE
  5
507
330
1F
100
AcDbEntity
  8
2
  6
Continuous
370
    -3
100
AcDbLine
 10
2511.365444564952
 20
2288.743594610305
 30
0.0
 11
2509.365444564952
 21
2290.743594610305
 31
0.0
  0
LINE
  5
508
330
1F
100
AcDbEntity
  8
2
  6
Continuous
100
AcDbLine
 10
2511.365444564952
 20
2120.072581923066
 30
0.0
 11
2513.365444564952
 21
2120.072581923066
 31
0.0
  0
LINE
  5
509
330
1F
100
AcDbEntity
  8
2
  6
Continuous
100
AcDbLine
 10
2513.365444564952
 20
2120.072581923066
 30
0.0
 11
2513.365444564952
 21
2121.072581923066
 31
0.0
  0
LINE
  5
50A
330
1F
100
AcDbEntity
  8
2
  6
Continuous
100
AcDbLine
 10
2514.365444564952
 20
2122.072581923066
 30
0.0
 11
2513.365444564952
 21
2121.072581923066
 31
0.0
  0
LINE
  5
50B
330
1F
100
AcDbEntity
  8
2
  6
Continuous
100
AcDbLine
 10
2076.365444564952
 20
2120.072581923066
 30
0.0
 11
2074.365444564952
 21
2120.072581923066
 31
0.0
  0
LINE
  5
50C
330
1F
100
AcDbEntity
  8
2
  6
Continuous
100
AcDbLine
 10
2074.365444564952
 20
2120.072581923066
 30
0.0
 11
2074.365444564952
 21
2121.072581923066
 31
0.0
  0
LINE
  5
50D
330
1F
100
AcDbEntity
  8
2
  6
Continuous
100
AcDbLine
 10
2073.365444564952
 20
2122.072581923066
 30
0.0
 11
2074.365444564952
 21
2121.072581923066
 31
0.0
  0
LINE
  5
50E
330
1F
100
AcDbEntity
  8
2
  6
Continuous
100
AcDbLine
 10
2511.365444564952
 20
2080.472581923066
 30
0.0
 11
2513.365444564952
 21
2080.472581923066
 31
0.0
  0
LINE
  5
50F
330
1F
100
AcDbEntity
  8
2
  6
Continuous
100
AcDbLine
 10
2511.365444564952
 20
2078.472581923066
 30
0.0
 11
2511.365444564952
 21
2080.472581923066
 31
0.0
  0
LINE
  5
510
330
1F
100
AcDbEntity
  8
2
  6
Continuous
100
AcDbLine
 10
2513.365444564952
 20
2080.472581923066
 30
0.0
 11
2513.365444564952
 21
2079.472581923066
 31
0.0
  0
LINE
  5
511
330
1F
100
AcDbEntity
  8
2
  6
Continuous
100
AcDbLine
 10
2513.365444564952
 20
2079.472581923066
 30
0.0
 11
2514.365444564952
 21
2078.472581923066
 31
0.0
  0
LINE
  5
512
330
1F
100
AcDbEntity
  8
2
  6
Continuous
100
AcDbLine
 10
2076.365444564952
 20
2080.472581923066
 30
0.0
 11
2074.365444564952
 21
2080.472581923066
 31
0.0
  0
LINE
  5
513
330
1F
100
AcDbEntity
  8
2
  6
Continuous
100
AcDbLine
 10
2076.365444564952
 20
2078.472581923066
 30
0.0
 11
2076.365444564952
 21
2080.472581923066
 31
0.0
  0
LINE
  5
514
330
1F
100
AcDbEntity
  8
2
  6
Continuous
100
AcDbLine
 10
2074.365444564952
 20
2080.472581923066
 30
0.0
 11
2074.365444564952
 21
2079.472581923066
 31
0.0
  0
LINE
  5
515
330
1F
100
AcDbEntity
  8
2
  6
Continuous
100
AcDbLine
 10
2074.365444564952
 20
2079.472581923066
 30
0.0
 11
2073.365444564952
 21
2078.472581923066
 31
0.0
  0
LINE
  5
516
330
1F
100
AcDbEntity
  8
2
  6
Continuous
100
AcDbLine
 10
2076.365444564952
 20
2078.472581923066
 30
0.0
 11
2511.365444564952
 21
2078.472581923066
 31
0.0
  0
LINE
  5
517
330
1F
100
AcDbEntity
  8
2
  6
Continuous
100
AcDbLine
 10
2073.365444564952
 20
2122.072581923066
 30
0.0
 11
2054.565444564952
 21
2122.072581923066
 31
0.0
  0
LINE
  5
518
330
1F
100
AcDbEntity
  8
2
  6
Continuous
100
AcDbLine
 10
2052.565444564952
 20
2105.772581923066
 30
0.0
 11
2052.565444564952
 21
2120.072581923066
 31
0.0
  0
LINE
  5
519
330
1F
100
AcDbEntity
  8
2
  6
Continuous
100
AcDbLine
 10
2054.565444564952
 20
2122.072581923066
 30
0.0
 11
2052.565444564952
 21
2120.072581923066
 31
0.0
  0
LINE
  5
51A
330
1F
100
AcDbEntity
  8
2
  6
Continuous
100
AcDbLine
 10
2052.565444564952
 20
2094.772581923066
 30
0.0
 11
2052.565444564952
 21
2080.472581923066
 31
0.0
  0
LINE
  5
51B
330
1F
100
AcDbEntity
  8
2
  6
Continuous
100
AcDbLine
 10
2073.365444564952
 20
2078.472581923066
 30
0.0
 11
2054.565444564952
 21
2078.472581923066
 31
0.0
  0
LINE
  5
51C
330
1F
100
AcDbEntity
  8
2
  6
Continuous
100
AcDbLine
 10
2052.565444564952
 20
2080.472581923066
 30
0.0
 11
2054.565444564952
 21
2078.472581923066
 31
0.0
  0
LINE
  5
51D
330
1F
100
AcDbEntity
  8
2
  6
Continuous
100
AcDbLine
 10
2514.365444564952
 20
2122.072581923066
 30
0.0
 11
2533.165444564952
 21
2122.072581923066
 31
0.0
  0
LINE
  5
51E
330
1F
100
AcDbEntity
  8
2
  6
Continuous
100
AcDbLine
 10
2535.165444564952
 20
2105.772581923066
 30
0.0
 11
2535.165444564952
 21
2120.072581923066
 31
0.0
  0
LINE
  5
51F
330
1F
100
AcDbEntity
  8
2
  6
Continuous
100
AcDbLine
 10
2533.165444564952
 20
2122.072581923066
 30
0.0
 11
2535.165444564952
 21
2120.072581923066
 31
0.0
  0
LINE
  5
520
330
1F
100
AcDbEntity
  8
2
  6
Continuous
100
AcDbLine
 10
2535.165444564952
 20
2094.772581923065
 30
0.0
 11
2535.165444564952
 21
2080.472581923066
 31
0.0
  0
LINE
  5
521
330
1F
100
AcDbEntity
  8
2
  6
Continuous
100
AcDbLine
 10
2514.365444564952
 20
2078.472581923066
 30
0.0
 11
2533.165444564952
 21
2078.472581923066
 31
0.0
  0
LINE
  5
522
330
1F
100
AcDbEntity
  8
2
  6
Continuous
100
AcDbLine
 10
2535.165444564952
 20
2080.472581923066
 30
0.0
 11
2533.165444564952
 21
2078.472581923066
 31
0.0
  0
LINE
  5
523
330
1F
100
AcDbEntity
  8
2
  6
Continuous
100
AcDbLine
 10
2076.365444564952
 20
2122.072581923066
 30
0.0
 11
2076.365444564952
 21
2120.072581923066
 31
0.0
  0
LINE
  5
524
330
1F
100
AcDbEntity
  8
2
  6
Continuous
100
AcDbLine
 10
2076.365444564952
 20
2122.072581923066
 30
0.0
 11
2511.365444564952
 21
2122.072581923066
 31
0.0
  0
LINE
  5
525
330
1F
100
AcDbEntity
  8
2
  6
Continuous
100
AcDbLine
 10
2511.365444564952
 20
2122.072581923066
 30
0.0
 11
2511.365444564952
 21
2120.072581923066
 31
0.0
  0
LINE
  5
530
330
1F
100
AcDbEntity
  8
5
  6
Continuous
370
    -3
100
AcDbLine
 10
2288.865444564952
 20
2194.243594610306
 30
0.0
 11
2298.865444564952
 21
2194.243594610306
 31
0.0
  0
LINE
  5
532
330
1F
100
AcDbEntity
  8
5
  6
Continuous
370
    -3
100
AcDbLine
 10
2283.365444564952
 20
2184.243594610306
 30
0.0
 11
2304.365444564952
 21
2184.243594610306
 31
0.0
  0
ARC
  5
533
330
1F
100
AcDbEntity
  8
5
  6
Continuous
370
    -3
100
AcDbCircle
 10
2304.365444564952
 20
2184.743594610306
 30
0.0
 40
0.5
100
AcDbArc
 50
270.0
 51
0.0
  0
LINE
  5
535
330
1F
100
AcDbEntity
  8
2
  6
Continuous
370
    -3
100
AcDbLine
 10
2722.645237014102
 20
2122.072581923066
 30
0.0
 11
2722.645237014102
 21
2120.472581923066
 31
0.0
  0
LINE
  5
536
330
1F
100
AcDbEntity
  8
2
  6
Continuous
370
    -3
100
AcDbLine
 10
2714.245237014101
 20
2120.472581923066
 30
0.0
 11
2722.645237014102
 21
2120.472581923066
 31
0.0
  0
LINE
  5
537
330
1F
100
AcDbEntity
  8
2
  6
Continuous
370
    -3
100
AcDbLine
 10
2712.645237014101
 20
2122.072581923066
 30
0.0
 11
2722.645237014102
 21
2122.072581923066
 31
0.0
  0
ARC
  5
538
330
1F
100
AcDbEntity
  8
2
  6
HIDDEN
370
    -3
100
AcDbCircle
 10
2714.245237014101
 20
2120.472581923066
 30
0.0
 40
1.6
100
AcDbArc
 50
90.0
 51
180.0
  0
ARC
  5
539
330
1F
100
AcDbEntity
  8
5
  6
Continuous
370
    -3
100
AcDbCircle
 10
2622.145237014101
 20
2114.072581923076
 30
0.0
 40
1.7
100
AcDbArc
 50
90.0
 51
180.0
  0
ARC
  5
53A
330
1F
100
AcDbEntity
  8
5
  6
Continuous
370
    -3
100
AcDbCircle
 10
2623.245237014101
 20
2112.972581923075
 30
0.0
 40
0.5
100
AcDbArc
 50
90.0
 51
180.0
  0
ARC
  5
53B
330
1F
100
AcDbEntity
  8
5
  6
Continuous
370
    -3
100
AcDbCircle
 10
2621.145237014101
 20
2113.169843697585
 30
0.0
 40
5.0
100
AcDbArc
 50
180.0
 51
239.9999993719163
  0
LINE
  5
53C
330
1F
100
AcDbEntity
  8
5
  6
Continuous
370
    -3
100
AcDbLine
 10
2616.145237014102
 20
2113.872581923076
 30
0.0
 11
2616.145237014102
 21
2113.169843697585
 31
0.0
  0
LINE
  5
53D
330
1F
100
AcDbEntity
  8
5
  6
Continuous
370
    -3
100
AcDbLine
 10
2626.145237014101
 20
2121.572581923075
 30
0.0
 11
2627.645237014101
 21
2121.572581923075
 31
0.0
  0
ARC
  5
53E
330
1F
100
AcDbEntity
  8
5
  6
Continuous
370
    -3
100
AcDbCircle
 10
2622.145237014102
 20
2114.072581923076
 30
0.0
 40
3.7
100
AcDbArc
 50
90.0
 51
180.0
  0
ARC
  5
53F
330
1F
100
AcDbEntity
  8
5
  6
Continuous
370
    -3
100
AcDbCircle
 10
2622.145237014102
 20
2114.072581923076
 30
0.0
 40
6.0
100
AcDbArc
 50
90.0
 51
180.0
  0
LINE
  5
540
330
1F
100
AcDbEntity
  8
2
  6
Continuous
370
    -3
100
AcDbLine
 10
2722.645237014102
 20
2080.072581923066
 30
0.0
 11
2722.645237014102
 21
2078.472581923066
 31
0.0
  0
LINE
  5
541
330
1F
100
AcDbEntity
  8
2
  6
Continuous
370
    -3
100
AcDbLine
 10
2714.245237014101
 20
2122.072581923066
 30
0.0
 11
2714.245237014101
 21
2078.472581923066
 31
0.0
  0
LINE
  5
542
330
1F
100
AcDbEntity
  8
2
  6
Continuous
370
    -3
100
AcDbLine
 10
2714.245237014101
 20
2080.072581923066
 30
0.0
 11
2722.645237014102
 21
2080.072581923066
 31
0.0
  0
LINE
  5
543
330
1F
100
AcDbEntity
  8
2
  6
Continuous
370
    -3
100
AcDbLine
 10
2712.645237014101
 20
2122.072581923066
 30
0.0
 11
2712.645237014101
 21
2078.472581923066
 31
0.0
  0
LINE
  5
544
330
1F
100
AcDbEntity
  8
2
  6
Continuous
370
    -3
100
AcDbLine
 10
2712.645237014101
 20
2078.472581923066
 30
0.0
 11
2722.645237014102
 21
2078.472581923066
 31
0.0
  0
ARC
  5
545
330
1F
100
AcDbEntity
  8
2
  6
HIDDEN
370
    -3
100
AcDbCircle
 10
2714.245237014101
 20
2080.072581923066
 30
0.0
 40
1.6
100
AcDbArc
 50
180.0
 51
270.0
  0
ARC
  5
546
330
1F
100
AcDbEntity
  8
5
  6
Continuous
370
    -3
100
AcDbCircle
 10
2711.145237014101
 20
2081.972581923076
 30
0.0
 40
1.5
100
AcDbArc
 50
270.0
 51
0.0
  0
ARC
  5
547
330
1F
100
AcDbEntity
  8
5
  6
Continuous
370
    -3
100
AcDbCircle
 10
2618.645237014102
 20
2086.472581923076
 30
0.0
 40
1.7
100
AcDbArc
 50
180.0
 51
270.0
  0
ARC
  5
548
330
1F
100
AcDbEntity
  8
5
  6
Continuous
370
    -3
100
AcDbCircle
 10
2619.745237014101
 20
2087.572581923077
 30
0.0
 40
0.5
100
AcDbArc
 50
180.0
 51
270.0
  0
ARC
  5
549
330
1F
100
AcDbEntity
  8
5
  6
Continuous
370
    -3
100
AcDbCircle
 10
2618.645237014102
 20
2086.472581923076
 30
0.0
 40
1.7
100
AcDbArc
 50
180.0
 51
270.0
  0
LINE
  5
54A
330
1F
100
AcDbEntity
  8
5
  6
Continuous
370
    -3
100
AcDbLine
 10
2626.145237014101
 20
2078.972581923077
 30
0.0
 11
2627.645237014101
 21
2078.972581923077
 31
0.0
  0
ARC
  5
54B
330
1F
100
AcDbEntity
  8
5
  6
Continuous
370
    -3
100
AcDbCircle
 10
2618.645237014102
 20
2086.472581923077
 30
0.0
 40
3.7
100
AcDbArc
 50
180.0
 51
270.0
  0
LINE
  5
54C
330
1F
100
AcDbEntity
  8
5
  6
Continuous
370
    -3
100
AcDbLine
 10
2711.145237014101
 20
2080.472581923076
 30
0.0
 11
2618.645237014102
 21
2080.472581923076
 31
0.0
  0
ARC
  5
54D
330
1F
100
AcDbEntity
  8
5
  6
Continuous
370
    -3
100
AcDbCircle
 10
2618.645237014102
 20
2086.472581923076
 30
0.0
 40
6.0
100
AcDbArc
 50
180.0
 51
270.0
  0
LINE
  5
550
330
1F
100
AcDbEntity
  8
5
  6
Continuous
370
    -3
100
AcDbLine
 10
2715.145237014101
 20
2115.272581923059
 30
0.0
 11
2715.145237014101
 21
2111.272581923059
 31
0.0
  0
ARC
  5
552
330
1F
100
AcDbEntity
  8
5
  6
Continuous
370
    -3
100
AcDbCircle
 10
2619.445237014101
 20
2088.472582179093
 30
0.0
 40
1.0
100
AcDbArc
 50
90.0
 51
101.5369590328027
  0
ARC
  5
553
330
1F
100
AcDbEntity
  8
5
  6
Continuous
370
    -3
100
AcDbCircle
 10
2623.245237014101
 20
2087.572581923077
 30
0.0
 40
0.5
100
AcDbArc
 50
180.0
 51
270.0
  0
LINE
  5
554
330
1F
100
AcDbEntity
  8
5
  6
Continuous
370
    -3
100
AcDbLine
 10
2627.645237014101
 20
2078.972581923077
 30
0.0
 11
2627.645237014101
 21
2080.472581923076
 31
0.0
  0
LINE
  5
555
330
1F
100
AcDbEntity
  8
5
  6
Continuous
370
    -3
100
AcDbLine
 10
2621.145237014102
 20
2080.472581923076
 30
0.0
 11
2626.145237014101
 21
2078.972581923077
 31
0.0
  0
LINE
  5
556
330
1F
100
AcDbEntity
  8
5
  6
Continuous
370
    -3
100
AcDbLine
 10
2627.645237014101
 20
2121.572581923075
 30
0.0
 11
2627.645237014101
 21
2120.072581923076
 31
0.0
  0
LINE
  5
557
330
1F
100
AcDbEntity
  8
5
  6
Continuous
370
    -3
100
AcDbLine
 10
2620.995443817295
 20
2119.94120961162
 30
0.0
 11
2626.145237014101
 21
2121.572581923075
 31
0.0
  0
LINE
  5
559
330
1F
100
AcDbEntity
  8
5
  6
Continuous
370
    -3
100
AcDbLine
 10
2715.145237014101
 20
2085.272581923073
 30
0.0
 11
2715.145237014101
 21
2089.272581923072
 31
0.0
  0
ARC
  5
55A
330
1F
100
AcDbEntity
  8
5
  6
Continuous
370
    -3
100
AcDbCircle
 10
2699.645237014101
 20
2107.472581923075
 30
0.0
 40
6.0
100
AcDbArc
 50
0.0
 51
90.0
  0
LINE
  5
55B
330
1F
100
AcDbEntity
  8
5
  6
Continuous
370
    -3
100
AcDbLine
 10
2699.645237014101
 20
2113.472581923075
 30
0.0
 11
2623.245237014101
 21
2113.472581923075
 31
0.0
  0
ARC
  5
55C
330
1F
100
AcDbEntity
  8
5
  6
Continuous
370
    -3
100
AcDbCircle
 10
2699.645237014101
 20
2093.072581923077
 30
0.0
 40
6.0
100
AcDbArc
 50
270.0
 51
0.0
  0
LINE
  5
55D
330
1F
100
AcDbEntity
  8
5
  6
Continuous
370
    -3
100
AcDbLine
 10
2699.645237014101
 20
2087.072581923077
 30
0.0
 11
2619.745237014101
 21
2087.072581923077
 31
0.0
  0
LINE
  5
55E
330
1F
100
AcDbEntity
  8
5
  6
Continuous
370
    -3
100
AcDbLine
 10
2705.645237014101
 20
2093.072581923077
 30
0.0
 11
2705.645237014101
 21
2107.472581923075
 31
0.0
  0
LINE
  5
560
330
1F
100
AcDbEntity
  8
5
  6
Continuous
370
    -3
100
AcDbLine
 10
2708.972031714901
 20
2103.172581923059
 30
0.0
 11
2709.145237014102
 21
2102.872581526003
 31
0.0
  0
LINE
  5
561
330
1F
100
AcDbEntity
  8
5
  6
Continuous
370
    -3
100
AcDbLine
 10
2709.145237014102
 20
2102.872581526003
 30
0.0
 11
2709.318441929302
 21
2103.172581923059
 31
0.0
  0
LINE
  5
562
330
1F
100
AcDbEntity
  8
5
  6
Continuous
370
    -3
100
AcDbLine
 10
2709.318442313301
 20
2097.372581526004
 30
0.0
 11
2709.145237014102
 21
2097.672581923059
 31
0.0
  0
LINE
  5
563
330
1F
100
AcDbEntity
  8
5
  6
Continuous
370
    -3
100
AcDbLine
 10
2709.145237014102
 20
2097.672581923059
 30
0.0
 11
2708.972032098901
 21
2097.372581526004
 31
0.0
  0
LINE
  5
565
330
1F
100
AcDbEntity
  8
5
  6
Continuous
370
    -3
100
AcDbLine
 10
2707.845237014101
 20
2103.172581923059
 30
0.0
 11
2707.345237014101
 21
2103.672581923059
 31
0.0
  0
LINE
  5
566
330
1F
100
AcDbEntity
  8
5
  6
Continuous
370
    -3
100
AcDbLine
 10
2710.945237014101
 20
2103.672581923059
 30
0.0
 11
2710.445237014101
 21
2103.172581923059
 31
0.0
  0
LINE
  5
567
330
1F
100
AcDbEntity
  8
5
  6
Continuous
370
    -3
100
AcDbLine
 10
2710.445237014101
 20
2097.372581923059
 30
0.0
 11
2710.945237014101
 21
2096.872581923059
 31
0.0
  0
LINE
  5
568
330
1F
100
AcDbEntity
  8
5
  6
Continuous
370
    -3
100
AcDbLine
 10
2707.845237014101
 20
2097.372581923059
 30
0.0
 11
2707.345237014101
 21
2096.872581923059
 31
0.0
  0
LINE
  5
569
330
1F
100
AcDbEntity
  8
5
  6
Continuous
370
    -3
100
AcDbLine
 10
2705.345237014102
 20
2082.772581923076
 30
0.0
 11
2618.645237014102
 21
2082.772581923076
 31
0.0
  0
ARC
  5
56A
330
1F
100
AcDbEntity
  8
5
  6
Continuous
370
    -3
100
AcDbCircle
 10
2705.345237014102
 20
2087.772581923077
 30
0.0
 40
5.0
100
AcDbArc
 50
270.0
 51
0.0
  0
LINE
  5
56B
330
1F
100
AcDbEntity
  8
5
  6
Continuous
370
    -3
100
AcDbLine
 10
2705.345237014102
 20
2117.772581923076
 30
0.0
 11
2622.145237014102
 21
2117.772581923076
 31
0.0
  0
LINE
  5
56C
330
1F
100
AcDbEntity
  8
5
  6
Continuous
370
    -3
100
AcDbLine
 10
2699.645237014101
 20
2115.772581923076
 30
0.0
 11
2622.145237014101
 21
2115.772581923076
 31
0.0
  0
LINE
  5
56D
330
1F
100
AcDbEntity
  8
5
  6
Continuous
370
    -3
100
AcDbLine
 10
2699.645237014101
 20
2084.772581923076
 30
0.0
 11
2618.645237014102
 21
2084.772581923076
 31
0.0
  0
ARC
  5
56E
330
1F
100
AcDbEntity
  8
5
  6
Continuous
370
    -3
100
AcDbCircle
 10
2699.645237014101
 20
2093.072581923076
 30
0.0
 40
8.3
100
AcDbArc
 50
270.0
 51
0.0
  0
ARC
  5
56F
330
1F
100
AcDbEntity
  8
5
  6
Continuous
370
    -3
100
AcDbCircle
 10
2709.145237014101
 20
2106.372581923059
 30
0.0
 40
1.200000000000044
100
AcDbArc
 50
180.0
 51
0.0
  0
LINE
  5
570
330
1F
100
AcDbEntity
  8
5
  6
Continuous
370
    -3
100
AcDbLine
 10
2707.945237014102
 20
2094.172581923059
 30
0.0
 11
2707.945237014102
 21
2093.072581923076
 31
0.0
  0
LINE
  5
571
330
1F
100
AcDbEntity
  8
5
  6
Continuous
370
    -3
100
AcDbLine
 10
2710.345237014101
 20
2094.172581923059
 30
0.0
 11
2710.345237014101
 21
2087.772581923077
 31
0.0
  0
ARC
  5
572
330
1F
100
AcDbEntity
  8
5
  6
Continuous
370
    -3
100
AcDbCircle
 10
2709.145237014101
 20
2094.172581923059
 30
0.0
 40
1.200000000000044
100
AcDbArc
 50
0.0
 51
180.0
  0
LINE
  5
573
330
1F
100
AcDbEntity
  8
5
  6
Continuous
370
    -3
100
AcDbLine
 10
2710.345237014101
 20
2106.372581923059
 30
0.0
 11
2710.345237014101
 21
2112.772581923076
 31
0.0
  0
ARC
  5
574
330
1F
100
AcDbEntity
  8
5
  6
Continuous
370
    -3
100
AcDbCircle
 10
2705.345237014102
 20
2112.772581923076
 30
0.0
 40
5.0
100
AcDbArc
 50
0.0
 51
90.0
  0
LINE
  5
575
330
1F
100
AcDbEntity
  8
5
  6
Continuous
370
    -3
100
AcDbLine
 10
2707.945237014101
 20
2106.372581923059
 30
0.0
 11
2707.945237014102
 21
2107.472581923076
 31
0.0
  0
ARC
  5
576
330
1F
100
AcDbEntity
  8
5
  6
Continuous
370
    -3
100
AcDbCircle
 10
2699.645237014101
 20
2107.472581923076
 30
0.0
 40
8.3
100
AcDbArc
 50
359.999999999974
 51
90.0
  0
LINE
  5
577
330
1F
100
AcDbEntity
  8
5
  6
Continuous
370
    -3
100
AcDbLine
 10
2619.245237014101
 20
2087.572581923077
 30
0.0
 11
2619.245237014101
 21
2099.780275591733
 31
0.0
  0
LINE
  5
57A
330
1F
100
AcDbEntity
  8
5
  6
Continuous
370
    -3
100
AcDbLine
 10
2077.865444564952
 20
2194.243594610306
 30
0.0
 11
2087.865444564951
 21
2194.243594610306
 31
0.0
  0
LINE
  5
57C
330
1F
100
AcDbEntity
  8
5
  6
Continuous
370
    -3
100
AcDbLine
 10
2072.365444564952
 20
2184.243594610312
 30
0.0
 11
2093.365444564952
 21
2184.243594610312
 31
0.0
  0
ARC
  5
57D
330
1F
100
AcDbEntity
  8
5
  6
Continuous
370
    -3
100
AcDbCircle
 10
2093.365444564952
 20
2184.743594610313
 30
0.0
 40
0.5
100
AcDbArc
 50
270.0
 51
0.0
  0
LINE
  5
581
330
1F
100
AcDbEntity
  8
5
  6
Continuous
370
    -3
100
AcDbLine
 10
2499.865444564952
 20
2194.243594610306
 30
0.0
 11
2509.865444564952
 21
2194.243594610306
 31
0.0
  0
LINE
  5
582
330
1F
100
AcDbEntity
  8
5
  6
Continuous
370
    -3
100
AcDbLine
 10
2494.365444564952
 20
2184.243594610306
 30
0.0
 11
2515.365444564952
 21
2184.243594610306
 31
0.0
  0
ARC
  5
583
330
1F
100
AcDbEntity
  8
5
  6
Continuous
370
    -3
100
AcDbCircle
 10
2515.365444564952
 20
2184.743594610306
 30
0.0
 40
0.5
100
AcDbArc
 50
270.0
 51
0.0
  0
CIRCLE
  5
586
330
1F
100
AcDbEntity
  8
2
  6
Continuous
100
AcDbCircle
 10
2098.865444564951
 20
2100.272581923066
 30
0.0
 40
1.75
  0
CIRCLE
  5
587
330
1F
100
AcDbEntity
  8
2
  6
Continuous
100
AcDbCircle
 10
2098.865444564951
 20
2113.272581923065
 30
0.0
 40
2.25
  0
CIRCLE
  5
589
330
1F
100
AcDbEntity
  8
2
  6
Continuous
100
AcDbCircle
 10
2098.865444564951
 20
2087.272581923066
 30
0.0
 40
2.25
  0
CIRCLE
  5
58C
330
1F
100
AcDbEntity
  8
2
  6
Continuous
100
AcDbCircle
 10
2197.865444564952
 20
2100.272581923066
 30
0.0
 40
1.75
  0
CIRCLE
  5
58D
330
1F
100
AcDbEntity
  8
2
  6
Continuous
100
AcDbCircle
 10
2197.865444564952
 20
2113.272581923065
 30
0.0
 40
2.25
  0
CIRCLE
  5
58F
330
1F
100
AcDbEntity
  8
2
  6
Continuous
100
AcDbCircle
 10
2197.865444564952
 20
2087.272581923066
 30
0.0
 40
2.25
  0
CIRCLE
  5
592
330
1F
100
AcDbEntity
  8
2
  6
Continuous
100
AcDbCircle
 10
2389.865444564952
 20
2100.272581923066
 30
0.0
 40
1.75
  0
CIRCLE
  5
593
330
1F
100
AcDbEntity
  8
2
  6
Continuous
100
AcDbCircle
 10
2389.865444564952
 20
2087.272581923066
 30
0.0
 40
2.25
  0
CIRCLE
  5
595
330
1F
100
AcDbEntity
  8
2
  6
Continuous
100
AcDbCircle
 10
2389.865444564952
 20
2113.272581923066
 30
0.0
 40
2.25
  0
CIRCLE
  5
598
330
1F
100
AcDbEntity
  8
2
  6
Continuous
100
AcDbCircle
 10
2488.865444564952
 20
2100.272581923066
 30
0.0
 40
1.75
  0
CIRCLE
  5
599
330
1F
100
AcDbEntity
  8
2
  6
Continuous
100
AcDbCircle
 10
2488.865444564952
 20
2087.272581923066
 30
0.0
 40
2.25
  0
CIRCLE
  5
59B
330
1F
100
AcDbEntity
  8
2
  6
Continuous
100
AcDbCircle
 10
2488.865444564952
 20
2113.272581923066
 30
0.0
 40
2.25
  0
LINE
  5
59D
330
1F
100
AcDbEntity
  8
5
  6
Continuous
370
    -3
100
AcDbLine
 10
2712.645237014101
 20
2118.572581923076
 30
0.0
 11
2712.645237014101
 21
2081.972581923076
 31
0.0
  0
LINE
  5
59E
330
1F
100
AcDbEntity
  8
5
  6
Continuous
370
    -3
100
AcDbLine
 10
2711.145237014101
 20
2120.072581923076
 30
0.0
 11
2622.145237014102
 21
2120.072581923076
 31
0.0
  0
ARC
  5
59F
330
1F
100
AcDbEntity
  8
5
  6
Continuous
370
    -3
100
AcDbCircle
 10
2711.145237014101
 20
2118.572581923076
 30
0.0
 40
1.5
100
AcDbArc
 50
0.0
 51
90.0
  0
ARC
  5
5A0
330
1F
100
AcDbEntity
  8
5
  6
Continuous
370
    -3
100
AcDbCircle
 10
2621.745237014101
 20
2107.704631344552
 30
0.0
 40
1.0
100
AcDbArc
 50
239.999999371905
 51
0.0
  0
LINE
  5
5A1
330
1F
100
AcDbEntity
  8
5
  6
Continuous
370
    -3
100
AcDbLine
 10
2621.245237004608
 20
2106.838605946249
 30
0.0
 11
2618.645236966634
 21
2108.839716706069
 31
0.0
  0
LINE
  5
5A2
330
1F
100
AcDbEntity
  8
5
  6
Continuous
370
    -3
100
AcDbLine
 10
2614.145237023595
 20
2105.111513343069
 30
0.0
 11
2616.745237061569
 21
2103.61040258325
 31
0.0
  0
ARC
  5
5A3
330
1F
100
AcDbEntity
  8
5
  6
Continuous
370
    -3
100
AcDbCircle
 10
2613.645237014101
 20
2104.245487944766
 30
0.0
 40
1.0
100
AcDbArc
 50
59.99999937192759
 51
180.0
  0
ARC
  5
5A4
330
1F
100
AcDbEntity
  8
5
  6
Continuous
370
    -3
100
AcDbCircle
 10
2614.245237014101
 20
2099.280275591732
 30
0.0
 40
5.0
100
AcDbArc
 50
0.0
 51
59.99999937190503
  0
LINE
  5
5A5
330
1F
100
AcDbEntity
  8
5
  6
Continuous
370
    -3
100
AcDbLine
 10
2612.645237014101
 20
2104.245487944766
 30
0.0
 11
2612.645237014101
 21
2086.472581923077
 31
0.0
  0
ARC
  5
5A9
330
1F
100
AcDbEntity
  8
5
  6
Continuous
370
    -3
100
AcDbCircle
 10
2615.945237014101
 20
2100.877537622259
 30
0.0
 40
1.0
100
AcDbArc
 50
0.0
 51
90.0
  0
ARC
  5
5AA
330
1F
100
AcDbEntity
  8
5
  6
Continuous
370
    -3
100
AcDbCircle
 10
2615.945237014101
 20
2100.877537622259
 30
0.0
 40
1.0
100
AcDbArc
 50
90.0
 51
180.0
  0
LINE
  5
5AB
330
1F
100
AcDbEntity
  8
5
  6
Continuous
370
    -3
100
AcDbLine
 10
2616.945237014101
 20
2086.472581923076
 30
0.0
 11
2616.945237014101
 21
2100.877537622259
 31
0.0
  0
LINE
  5
5AC
330
1F
100
AcDbEntity
  8
5
  6
Continuous
370
    -3
100
AcDbLine
 10
2614.945237014101
 20
2086.472581923076
 30
0.0
 11
2614.945237014101
 21
2100.877537622259
 31
0.0
  0
LINE
  5
5AD
330
1F
100
AcDbEntity
  8
5
  6
Continuous
370
    -3
100
AcDbLine
 10
2622.745237014101
 20
2112.972581923075
 30
0.0
 11
2622.745237014101
 21
2107.704631344552
 31
0.0
  0
LINE
  5
5AE
330
1F
100
AcDbEntity
  8
5
  6
Continuous
370
    -3
100
AcDbLine
 10
2620.445237014101
 20
2114.072581923076
 30
0.0
 11
2620.445237014101
 21
2111.572581667059
 31
0.0
  0
ARC
  5
5AF
330
1F
100
AcDbEntity
  8
5
  6
Continuous
370
    -3
100
AcDbCircle
 10
2619.445237014101
 20
2111.572581667059
 30
0.0
 40
1.0
100
AcDbArc
 50
270.0
 51
0.0
  0
ARC
  5
5B0
330
1F
100
AcDbEntity
  8
5
  6
Continuous
370
    -3
100
AcDbCircle
 10
2619.445237014101
 20
2111.572581667059
 30
0.0
 40
1.0
100
AcDbArc
 50
180.0
 51
270.0
  0
LINE
  5
5B1
330
1F
100
AcDbEntity
  8
5
  6
Continuous
370
    -3
100
AcDbLine
 10
2618.445237014102
 20
2114.372581923076
 30
0.0
 11
2618.445237014102
 21
2111.572581667059
 31
0.0
  0
CIRCLE
  5
5B3
330
1F
100
AcDbEntity
  8
2
  6
Continuous
100
AcDbCircle
 10
2277.865444564952
 20
2100.2725819231
 30
0.0
 40
1.75
  0
CIRCLE
  5
5B4
330
1F
100
AcDbEntity
  8
2
  6
Continuous
100
AcDbCircle
 10
2277.865444564952
 20
2087.2725819231
 30
0.0
 40
2.25
  0
CIRCLE
  5
5B6
330
1F
100
AcDbEntity
  8
2
  6
Continuous
100
AcDbCircle
 10
2277.865444564952
 20
2113.2725819231
 30
0.0
 40
2.25
  0
CIRCLE
  5
5B9
330
1F
100
AcDbEntity
  8
2
  6
Continuous
100
AcDbCircle
 10
2309.865444564952
 20
2100.2725819231
 30
0.0
 40
1.75
  0
CIRCLE
  5
5BA
330
1F
100
AcDbEntity
  8
2
  6
Continuous
100
AcDbCircle
 10
2309.865444564952
 20
2113.2725819231
 30
0.0
 40
2.25
  0
CIRCLE
  5
5BC
330
1F
100
AcDbEntity
  8
2
  6
Continuous
100
AcDbCircle
 10
2309.865444564952
 20
2087.2725819231
 30
0.0
 40
2.25
  0
LINE
  5
5C2
330
1F
100
AcDbEntity
  8
5
  6
Continuous
370
    -3
100
AcDbLine
 10
2176.865444564952
 20
2194.243594610306
 30
0.0
 11
2186.865444564952
 21
2194.243594610306
 31
0.0
  0
LINE
  5
5C4
330
1F
100
AcDbEntity
  8
5
  6
Continuous
370
    -3
100
AcDbLine
 10
2171.365444564952
 20
2184.243594610306
 30
0.0
 11
2192.365444564952
 21
2184.243594610306
 31
0.0
  0
ARC
  5
5C5
330
1F
100
AcDbEntity
  8
5
  6
Continuous
370
    -3
100
AcDbCircle
 10
2192.365444564952
 20
2184.743594610306
 30
0.0
 40
0.5
100
AcDbArc
 50
270.0
 51
0.0
  0
LINE
  5
5C9
330
1F
100
AcDbEntity
  8
5
  6
Continuous
370
    -3
100
AcDbLine
 10
2400.865444564952
 20
2194.243594610306
 30
0.0
 11
2410.865444564952
 21
2194.243594610306
 31
0.0
  0
LINE
  5
5CB
330
1F
100
AcDbEntity
  8
5
  6
Continuous
370
    -3
100
AcDbLine
 10
2395.365444564952
 20
2184.243594610306
 30
0.0
 11
2416.365444564952
 21
2184.243594610306
 31
0.0
  0
ARC
  5
5CC
330
1F
100
AcDbEntity
  8
5
  6
Continuous
370
    -3
100
AcDbCircle
 10
2416.365444564952
 20
2184.743594610305
 30
0.0
 40
0.5
100
AcDbArc
 50
270.0
 51
0.0
  0
ARC
  5
5CE
330
1F
100
AcDbEntity
  8
5
  6
Continuous
370
    -3
100
AcDbCircle
 10
2494.365444564952
 20
2280.243594610305
 30
0.0
 40
0.5
100
AcDbArc
 50
90.0
 51
180.0
  0
LINE
  5
5CF
330
1F
100
AcDbEntity
  8
5
  6
Continuous
370
    -3
100
AcDbLine
 10
2494.365444564952
 20
2280.743594610305
 30
0.0
 11
2515.365444564952
 21
2280.743594610305
 31
0.0
  0
ARC
  5
5D0
330
1F
100
AcDbEntity
  8
5
  6
Continuous
370
    -3
100
AcDbCircle
 10
2515.365444564952
 20
2280.243594610305
 30
0.0
 40
0.5
100
AcDbArc
 50
0.0
 51
90.0
  0
LINE
  5
5D1
330
1F
100
AcDbEntity
  8
5
  6
Continuous
370
    -3
100
AcDbLine
 10
2515.365444564952
 20
2180.743594610305
 30
0.0
 11
2494.365444564952
 21
2180.743594610305
 31
0.0
  0
ARC
  5
5D2
330
1F
100
AcDbEntity
  8
5
  6
Continuous
370
    -3
100
AcDbCircle
 10
2494.365444564952
 20
2184.743594610306
 30
0.0
 40
0.5
100
AcDbArc
 50
180.0
 51
270.0
  0
LINE
  5
5D3
330
1F
100
AcDbEntity
  8
5
  6
Continuous
370
    -3
100
AcDbLine
 10
2515.865444564952
 20
2280.243594610305
 30
0.0
 11
2515.865444564952
 21
2181.243594610306
 31
0.0
  0
ARC
  5
5D4
330
1F
100
AcDbEntity
  8
5
  6
Continuous
370
    -3
100
AcDbCircle
 10
2515.365444564952
 20
2181.243594610306
 30
0.0
 40
0.5
100
AcDbArc
 50
270.0
 51
0.0
  0
LINE
  5
5D5
330
1F
100
AcDbEntity
  8
5
  6
Continuous
370
    -3
100
AcDbLine
 10
2493.865444564952
 20
2181.243594610306
 30
0.0
 11
2493.865444564952
 21
2280.243594610305
 31
0.0
  0
ARC
  5
5D6
330
1F
100
AcDbEntity
  8
5
  6
Continuous
370
    -3
100
AcDbCircle
 10
2494.365444564952
 20
2181.243594610306
 30
0.0
 40
0.5
100
AcDbArc
 50
180.0
 51
270.0
  0
ARC
  5
5D9
330
1F
100
AcDbEntity
  8
5
  6
Continuous
370
    -3
100
AcDbCircle
 10
2283.365444564952
 20
2280.243594610305
 30
0.0
 40
0.5
100
AcDbArc
 50
90.0
 51
180.0
  0
LINE
  5
5DA
330
1F
100
AcDbEntity
  8
5
  6
Continuous
370
    -3
100
AcDbLine
 10
2283.365444564952
 20
2280.743594610305
 30
0.0
 11
2304.365444564952
 21
2280.743594610305
 31
0.0
  0
ARC
  5
5DB
330
1F
100
AcDbEntity
  8
5
  6
Continuous
370
    -3
100
AcDbCircle
 10
2304.365444564952
 20
2280.243594610305
 30
0.0
 40
0.5
100
AcDbArc
 50
0.0
 51
90.0
  0
LINE
  5
5DC
330
1F
100
AcDbEntity
  8
5
  6
Continuous
370
    -3
100
AcDbLine
 10
2304.365444564952
 20
2180.743594610305
 30
0.0
 11
2283.365444564952
 21
2180.743594610305
 31
0.0
  0
LINE
  5
5DD
330
1F
100
AcDbEntity
  8
5
  6
Continuous
370
    -3
100
AcDbLine
 10
2304.865444564952
 20
2280.243594610305
 30
0.0
 11
2304.865444564952
 21
2181.243594610306
 31
0.0
  0
ARC
  5
5DE
330
1F
100
AcDbEntity
  8
5
  6
Continuous
370
    -3
100
AcDbCircle
 10
2304.365444564952
 20
2181.243594610306
 30
0.0
 40
0.5
100
AcDbArc
 50
270.0
 51
0.0
  0
LINE
  5
5DF
330
1F
100
AcDbEntity
  8
5
  6
Continuous
370
    -3
100
AcDbLine
 10
2282.865444564952
 20
2181.243594610306
 30
0.0
 11
2282.865444564952
 21
2280.243594610305
 31
0.0
  0
ARC
  5
5E0
330
1F
100
AcDbEntity
  8
5
  6
Continuous
370
    -3
100
AcDbCircle
 10
2283.365444564952
 20
2181.243594610306
 30
0.0
 40
0.5
100
AcDbArc
 50
180.0
 51
270.0
  0
ARC
  5
5E2
330
1F
100
AcDbEntity
  8
5
  6
Continuous
370
    -3
100
AcDbCircle
 10
2072.365444564952
 20
2280.243594610312
 30
0.0
 40
0.5
100
AcDbArc
 50
90.0
 51
180.0
  0
LINE
  5
5E3
330
1F
100
AcDbEntity
  8
5
  6
Continuous
370
    -3
100
AcDbLine
 10
2072.365444564952
 20
2280.743594610312
 30
0.0
 11
2093.365444564952
 21
2280.743594610312
 31
0.0
  0
ARC
  5
5E4
330
1F
100
AcDbEntity
  8
5
  6
Continuous
370
    -3
100
AcDbCircle
 10
2093.365444564952
 20
2280.243594610312
 30
0.0
 40
0.5
100
AcDbArc
 50
0.0
 51
90.0
  0
LINE
  5
5E5
330
1F
100
AcDbEntity
  8
5
  6
Continuous
370
    -3
100
AcDbLine
 10
2093.365444564952
 20
2180.743594610312
 30
0.0
 11
2072.365444564952
 21
2180.743594610312
 31
0.0
  0
LINE
  5
5E6
330
1F
100
AcDbEntity
  8
5
  6
Continuous
370
    -3
100
AcDbLine
 10
2093.865444564952
 20
2280.243594610312
 30
0.0
 11
2093.865444564952
 21
2181.243594610312
 31
0.0
  0
ARC
  5
5E7
330
1F
100
AcDbEntity
  8
5
  6
Continuous
370
    -3
100
AcDbCircle
 10
2093.365444564952
 20
2181.243594610312
 30
0.0
 40
0.5
100
AcDbArc
 50
270.0
 51
0.0
  0
LINE
  5
5E8
330
1F
100
AcDbEntity
  8
5
  6
Continuous
370
    -3
100
AcDbLine
 10
2071.865444564952
 20
2181.243594610312
 30
0.0
 11
2071.865444564952
 21
2280.243594610312
 31
0.0
  0
ARC
  5
5E9
330
1F
100
AcDbEntity
  8
5
  6
Continuous
370
    -3
100
AcDbCircle
 10
2072.365444564952
 20
2181.243594610312
 30
0.0
 40
0.5
100
AcDbArc
 50
180.0
 51
270.0
  0
ARC
  5
5EB
330
1F
100
AcDbEntity
  8
5
  6
Continuous
370
    -3
100
AcDbCircle
 10
2171.365444564952
 20
2280.243594610305
 30
0.0
 40
0.5
100
AcDbArc
 50
90.0
 51
180.0
  0
LINE
  5
5EC
330
1F
100
AcDbEntity
  8
5
  6
Continuous
370
    -3
100
AcDbLine
 10
2171.365444564952
 20
2280.743594610305
 30
0.0
 11
2192.365444564952
 21
2280.743594610305
 31
0.0
  0
ARC
  5
5ED
330
1F
100
AcDbEntity
  8
5
  6
Continuous
370
    -3
100
AcDbCircle
 10
2192.365444564952
 20
2280.243594610305
 30
0.0
 40
0.5
100
AcDbArc
 50
0.0
 51
90.0
  0
LINE
  5
5EE
330
1F
100
AcDbEntity
  8
5
  6
Continuous
370
    -3
100
AcDbLine
 10
2192.365444564952
 20
2180.743594610305
 30
0.0
 11
2171.365444564952
 21
2180.743594610305
 31
0.0
  0
LINE
  5
5EF
330
1F
100
AcDbEntity
  8
5
  6
Continuous
370
    -3
100
AcDbLine
 10
2192.865444564953
 20
2280.243594610305
 30
0.0
 11
2192.865444564953
 21
2181.243594610306
 31
0.0
  0
ARC
  5
5F0
330
1F
100
AcDbEntity
  8
5
  6
Continuous
370
    -3
100
AcDbCircle
 10
2192.365444564952
 20
2181.243594610306
 30
0.0
 40
0.5
100
AcDbArc
 50
270.0
 51
0.0
  0
LINE
  5
5F1
330
1F
100
AcDbEntity
  8
5
  6
Continuous
370
    -3
100
AcDbLine
 10
2170.865444564952
 20
2181.243594610306
 30
0.0
 11
2170.865444564952
 21
2280.243594610305
 31
0.0
  0
ARC
  5
5F2
330
1F
100
AcDbEntity
  8
5
  6
Continuous
370
    -3
100
AcDbCircle
 10
2171.365444564952
 20
2181.243594610306
 30
0.0
 40
0.5
100
AcDbArc
 50
180.0
 51
270.0
  0
ARC
  5
5F4
330
1F
100
AcDbEntity
  8
5
  6
Continuous
370
    -3
100
AcDbCircle
 10
2395.365444564952
 20
2280.243594610305
 30
0.0
 40
0.5
100
AcDbArc
 50
90.0
 51
180.0
  0
LINE
  5
5F5
330
1F
100
AcDbEntity
  8
5
  6
Continuous
370
    -3
100
AcDbLine
 10
2395.365444564952
 20
2280.743594610305
 30
0.0
 11
2416.365444564953
 21
2280.743594610305
 31
0.0
  0
ARC
  5
5F6
330
1F
100
AcDbEntity
  8
5
  6
Continuous
370
    -3
100
AcDbCircle
 10
2416.365444564953
 20
2280.243594610305
 30
0.0
 40
0.5
100
AcDbArc
 50
0.0
 51
90.0
  0
LINE
  5
5F7
330
1F
100
AcDbEntity
  8
5
  6
Continuous
370
    -3
100
AcDbLine
 10
2416.365444564953
 20
2180.743594610305
 30
0.0
 11
2395.365444564952
 21
2180.743594610305
 31
0.0
  0
LINE
  5
5F8
330
1F
100
AcDbEntity
  8
5
  6
Continuous
370
    -3
100
AcDbLine
 10
2416.865444564952
 20
2280.243594610305
 30
0.0
 11
2416.865444564952
 21
2181.243594610306
 31
0.0
  0
ARC
  5
5F9
330
1F
100
AcDbEntity
  8
5
  6
Continuous
370
    -3
100
AcDbCircle
 10
2416.365444564953
 20
2181.243594610306
 30
0.0
 40
0.5
100
AcDbArc
 50
270.0
 51
0.0
  0
LINE
  5
5FA
330
1F
100
AcDbEntity
  8
5
  6
Continuous
370
    -3
100
AcDbLine
 10
2394.865444564953
 20
2181.243594610306
 30
0.0
 11
2394.865444564953
 21
2280.243594610305
 31
0.0
  0
ARC
  5
5FB
330
1F
100
AcDbEntity
  8
5
  6
Continuous
370
    -3
100
AcDbCircle
 10
2395.365444564952
 20
2181.243594610306
 30
0.0
 40
0.5
100
AcDbArc
 50
180.0
 51
270.0
  0
LINE
  5
5FC
330
1F
100
AcDbEntity
  8
5
  6
Continuous
370
    -3
100
AcDbLine
 10
2288.865444564952
 20
2195.743594610306
 30
0.0
 11
2288.865444564952
 21
2189.243594610306
 31
0.0
  0
LINE
  5
5FD
330
1F
100
AcDbEntity
  8
5
  6
Continuous
370
    -3
100
AcDbLine
 10
2288.865444564952
 20
2189.243594610306
 30
0.0
 11
2298.865444564952
 21
2189.243594610306
 31
0.0
  0
LINE
  5
5FE
330
1F
100
AcDbEntity
  8
5
  6
Continuous
370
    -3
100
AcDbLine
 10
2298.865444564952
 20
2189.243594610306
 30
0.0
 11
2298.865444564952
 21
2195.743594610306
 31
0.0
  0
LINE
  5
5FF
330
1F
100
AcDbEntity
  8
5
  6
Continuous
370
    -3
100
AcDbLine
 10
2298.865444564952
 20
2195.743594610306
 30
0.0
 11
2288.865444564952
 21
2195.743594610306
 31
0.0
  0
ARC
  5
600
330
1F
100
AcDbEntity
  8
5
  6
Continuous
370
    -3
100
AcDbCircle
 10
2283.365444564952
 20
2184.743594610306
 30
0.0
 40
0.5
100
AcDbArc
 50
180.0
 51
270.0
  0
LINE
  5
601
330
1F
100
AcDbEntity
  8
5
  6
Continuous
370
    -3
100
AcDbLine
 10
2077.865444564952
 20
2195.743594610306
 30
0.0
 11
2077.865444564952
 21
2189.243594610306
 31
0.0
  0
LINE
  5
602
330
1F
100
AcDbEntity
  8
5
  6
Continuous
370
    -3
100
AcDbLine
 10
2077.865444564952
 20
2189.243594610306
 30
0.0
 11
2087.865444564951
 21
2189.243594610306
 31
0.0
  0
LINE
  5
603
330
1F
100
AcDbEntity
  8
5
  6
Continuous
370
    -3
100
AcDbLine
 10
2087.865444564951
 20
2189.243594610306
 30
0.0
 11
2087.865444564951
 21
2195.743594610306
 31
0.0
  0
LINE
  5
604
330
1F
100
AcDbEntity
  8
5
  6
Continuous
370
    -3
100
AcDbLine
 10
2087.865444564951
 20
2195.743594610306
 30
0.0
 11
2077.865444564952
 21
2195.743594610306
 31
0.0
  0
ARC
  5
605
330
1F
100
AcDbEntity
  8
5
  6
Continuous
370
    -3
100
AcDbCircle
 10
2072.365444564952
 20
2184.743594610313
 30
0.0
 40
0.5
100
AcDbArc
 50
180.0
 51
270.0
  0
LINE
  5
606
330
1F
100
AcDbEntity
  8
5
  6
Continuous
370
    -3
100
AcDbLine
 10
2499.865444564952
 20
2195.743594610306
 30
0.0
 11
2499.865444564952
 21
2189.243594610306
 31
0.0
  0
LINE
  5
607
330
1F
100
AcDbEntity
  8
5
  6
Continuous
370
    -3
100
AcDbLine
 10
2499.865444564952
 20
2189.243594610306
 30
0.0
 11
2509.865444564952
 21
2189.243594610306
 31
0.0
  0
LINE
  5
608
330
1F
100
AcDbEntity
  8
5
  6
Continuous
370
    -3
100
AcDbLine
 10
2509.865444564952
 20
2189.243594610306
 30
0.0
 11
2509.865444564952
 21
2195.743594610306
 31
0.0
  0
LINE
  5
609
330
1F
100
AcDbEntity
  8
5
  6
Continuous
370
    -3
100
AcDbLine
 10
2509.865444564952
 20
2195.743594610306
 30
0.0
 11
2499.865444564952
 21
2195.743594610306
 31
0.0
  0
LINE
  5
60A
330
1F
100
AcDbEntity
  8
5
  6
Continuous
370
    -3
100
AcDbLine
 10
2176.865444564952
 20
2195.743594610306
 30
0.0
 11
2176.865444564952
 21
2189.243594610306
 31
0.0
  0
LINE
  5
60B
330
1F
100
AcDbEntity
  8
5
  6
Continuous
370
    -3
100
AcDbLine
 10
2176.865444564952
 20
2189.243594610306
 30
0.0
 11
2186.865444564952
 21
2189.243594610306
 31
0.0
  0
LINE
  5
60C
330
1F
100
AcDbEntity
  8
5
  6
Continuous
370
    -3
100
AcDbLine
 10
2186.865444564952
 20
2189.243594610306
 30
0.0
 11
2186.865444564952
 21
2195.743594610306
 31
0.0
  0
LINE
  5
60D
330
1F
100
AcDbEntity
  8
5
  6
Continuous
370
    -3
100
AcDbLine
 10
2186.865444564952
 20
2195.743594610306
 30
0.0
 11
2176.865444564952
 21
2195.743594610306
 31
0.0
  0
ARC
  5
60E
330
1F
100
AcDbEntity
  8
5
  6
Continuous
370
    -3
100
AcDbCircle
 10
2171.365444564952
 20
2184.743594610306
 30
0.0
 40
0.5
100
AcDbArc
 50
180.0
 51
270.0
  0
LINE
  5
60F
330
1F
100
AcDbEntity
  8
5
  6
Continuous
370
    -3
100
AcDbLine
 10
2400.865444564952
 20
2195.743594610305
 30
0.0
 11
2400.865444564952
 21
2189.243594610306
 31
0.0
  0
LINE
  5
610
330
1F
100
AcDbEntity
  8
5
  6
Continuous
370
    -3
100
AcDbLine
 10
2400.865444564952
 20
2189.243594610306
 30
0.0
 11
2410.865444564952
 21
2189.243594610306
 31
0.0
  0
LINE
  5
611
330
1F
100
AcDbEntity
  8
5
  6
Continuous
370
    -3
100
AcDbLine
 10
2410.865444564952
 20
2189.243594610306
 30
0.0
 11
2410.865444564952
 21
2195.743594610305
 31
0.0
  0
LINE
  5
612
330
1F
100
AcDbEntity
  8
5
  6
Continuous
370
    -3
100
AcDbLine
 10
2410.865444564952
 20
2195.743594610305
 30
0.0
 11
2400.865444564952
 21
2195.743594610305
 31
0.0
  0
ARC
  5
613
330
1F
100
AcDbEntity
  8
5
  6
Continuous
370
    -3
100
AcDbCircle
 10
2395.365444564952
 20
2184.743594610305
 30
0.0
 40
0.5
100
AcDbArc
 50
179.999999999987
 51
270.0
  0
ARC
  5
614
330
1F
100
AcDbEntity
  8
2
  6
Continuous
370
    30
100
AcDbCircle
 10
2524.86544456495
 20
2100.272581923066
 30
0.0
 40
3.5
100
AcDbArc
 50
90.0
 51
270.0
  0
LINE
  5
615
330
1F
100
AcDbEntity
  8
2
  6
Continuous
370
    30
100
AcDbLine
 10
2524.86544456495
 20
2096.772581923066
 30
0.0
 11
2533.165444564951
 21
2096.772581923066
 31
0.0
  0
LINE
  5
616
330
1F
100
AcDbEntity
  8
2
  6
Continuous
370
    30
100
AcDbLine
 10
2533.165444564951
 20
2096.772581923066
 30
0.0
 11
2535.165444564951
 21
2094.772581923066
 31
0.0
  0
LINE
  5
617
330
1F
100
AcDbEntity
  8
2
  6
Continuous
370
    30
100
AcDbLine
 10
2524.86544456495
 20
2103.772581923066
 30
0.0
 11
2533.165444564951
 21
2103.772581923066
 31
0.0
  0
LINE
  5
618
330
1F
100
AcDbEntity
  8
2
  6
Continuous
370
    30
100
AcDbLine
 10
2533.165444564951
 20
2103.772581923066
 30
0.0
 11
2535.165444564951
 21
2105.772581923066
 31
0.0
  0
ARC
  5
619
330
1F
100
AcDbEntity
  8
2
  6
Continuous
370
    30
100
AcDbCircle
 10
2062.865444564953
 20
2100.272581923066
 30
0.0
 40
3.5
100
AcDbArc
 50
270.0
 51
90.0
  0
LINE
  5
61A
330
1F
100
AcDbEntity
  8
2
  6
Continuous
370
    30
100
AcDbLine
 10
2062.865444564953
 20
2103.772581923065
 30
0.0
 11
2054.565444564952
 21
2103.772581923065
 31
0.0
  0
LINE
  5
61B
330
1F
100
AcDbEntity
  8
2
  6
Continuous
370
    30
100
AcDbLine
 10
2054.565444564952
 20
2103.772581923065
 30
0.0
 11
2052.565444564952
 21
2105.772581923066
 31
0.0
  0
LINE
  5
61C
330
1F
100
AcDbEntity
  8
2
  6
Continuous
370
    30
100
AcDbLine
 10
2062.865444564953
 20
2096.772581923065
 30
0.0
 11
2054.565444564952
 21
2096.772581923065
 31
0.0
  0
LINE
  5
61D
330
1F
100
AcDbEntity
  8
2
  6
Continuous
370
    30
100
AcDbLine
 10
2054.565444564952
 20
2096.772581923065
 30
0.0
 11
2052.565444564952
 21
2094.772581923066
 31
0.0
  0
ARC
  5
61E
330
1F
100
AcDbEntity
  8
2
  6
Continuous
370
    30
100
AcDbCircle
 10
2524.86544456495
 20
2084.397581923066
 30
0.0
 40
3.5
100
AcDbArc
 50
90.0
 51
270.0
  0
LINE
  5
61F
330
1F
100
AcDbEntity
  8
2
  6
Continuous
370
    30
100
AcDbLine
 10
2524.86544456495
 20
2087.897581923066
 30
0.0
 11
2527.865444564952
 21
2087.897581923066
 31
0.0
  0
LINE
  5
620
330
1F
100
AcDbEntity
  8
2
  6
Continuous
370
    30
100
AcDbLine
 10
2524.86544456495
 20
2080.897581923066
 30
0.0
 11
2527.865444564952
 21
2080.897581923066
 31
0.0
  0
ARC
  5
621
330
1F
100
AcDbEntity
  8
2
  6
Continuous
370
    30
100
AcDbCircle
 10
2527.865444564952
 20
2084.397581923065
 30
0.0
 40
3.5
100
AcDbArc
 50
270.0
 51
90.0
  0
ARC
  5
622
330
1F
100
AcDbEntity
  8
2
  6
Continuous
370
    30
100
AcDbCircle
 10
2524.86544456495
 20
2116.147581923066
 30
0.0
 40
3.5
100
AcDbArc
 50
90.0
 51
270.0
  0
LINE
  5
623
330
1F
100
AcDbEntity
  8
2
  6
Continuous
370
    30
100
AcDbLine
 10
2524.86544456495
 20
2119.647581923066
 30
0.0
 11
2527.865444564952
 21
2119.647581923066
 31
0.0
  0
LINE
  5
624
330
1F
100
AcDbEntity
  8
2
  6
Continuous
370
    30
100
AcDbLine
 10
2524.86544456495
 20
2112.647581923066
 30
0.0
 11
2527.865444564952
 21
2112.647581923066
 31
0.0
  0
ARC
  5
625
330
1F
100
AcDbEntity
  8
2
  6
Continuous
370
    30
100
AcDbCircle
 10
2527.865444564952
 20
2116.147581923065
 30
0.0
 40
3.5
100
AcDbArc
 50
270.0
 51
90.0
  0
ARC
  5
626
330
1F
100
AcDbEntity
  8
2
  6
Continuous
370
    30
100
AcDbCircle
 10
2059.86544456495
 20
2084.397581923066
 30
0.0
 40
3.5
100
AcDbArc
 50
90.0
 51
270.0
  0
LINE
  5
627
330
1F
100
AcDbEntity
  8
2
  6
Continuous
370
    30
100
AcDbLine
 10
2059.86544456495
 20
2087.897581923066
 30
0.0
 11
2062.865444564952
 21
2087.897581923066
 31
0.0
  0
LINE
  5
628
330
1F
100
AcDbEntity
  8
2
  6
Continuous
370
    30
100
AcDbLine
 10
2059.86544456495
 20
2080.897581923066
 30
0.0
 11
2062.865444564952
 21
2080.897581923066
 31
0.0
  0
ARC
  5
629
330
1F
100
AcDbEntity
  8
2
  6
Continuous
370
    30
100
AcDbCircle
 10
2062.865444564952
 20
2084.397581923065
 30
0.0
 40
3.5
100
AcDbArc
 50
270.0
 51
90.0
  0
ARC
  5
62A
330
1F
100
AcDbEntity
  8
2
  6
Continuous
370
    30
100
AcDbCircle
 10
2059.86544456495
 20
2116.147581923066
 30
0.0
 40
3.5
100
AcDbArc
 50
90.0
 51
270.0
  0
LINE
  5
62B
330
1F
100
AcDbEntity
  8
2
  6
Continuous
370
    30
100
AcDbLine
 10
2059.86544456495
 20
2119.647581923066
 30
0.0
 11
2062.865444564952
 21
2119.647581923066
 31
0.0
  0
LINE
  5
62C
330
1F
100
AcDbEntity
  8
2
  6
Continuous
370
    30
100
AcDbLine
 10
2059.86544456495
 20
2112.647581923066
 30
0.0
 11
2062.865444564952
 21
2112.647581923066
 31
0.0
  0
ARC
  5
62D
330
1F
100
AcDbEntity
  8
2
  6
Continuous
370
    30
100
AcDbCircle
 10
2062.865444564952
 20
2116.147581923065
 30
0.0
 40
3.5
100
AcDbArc
 50
270.0
 51
90.0
  0
ARC
  5
62F
330
1F
100
AcDbEntity
  8
5
  6
Continuous
370
    30
100
AcDbCircle
 10
2515.365444564952
 20
2107.704631344552
 30
0.0
 40
0.5
100
AcDbArc
 50
270.0
 51
0.0000000000130276
  0
LINE
  5
630
330
1F
100
AcDbEntity
  8
5
  6
Continuous
370
    30
100
AcDbLine
 10
2515.365444564952
 20
2107.204631344552
 30
0.0
 11
2494.365444564952
 21
2107.204631344552
 31
0.0
  0
ARC
  5
631
330
1F
100
AcDbEntity
  8
5
  6
Continuous
370
    30
100
AcDbCircle
 10
2494.365444564952
 20
2107.704631344552
 30
0.0
 40
0.5
100
AcDbArc
 50
179.999999999987
 51
270.0
  0
ARC
  5
632
330
1F
100
AcDbEntity
  8
5
  6
Continuous
370
    30
100
AcDbCircle
 10
2494.365444564952
 20
2104.745487944766
 30
0.0
 40
0.5
100
AcDbArc
 50
90.0
 51
180.0
  0
LINE
  5
633
330
1F
100
AcDbEntity
  8
5
  6
Continuous
370
    30
100
AcDbLine
 10
2494.365444564952
 20
2105.245487944765
 30
0.0
 11
2515.365444564952
 21
2105.245487944765
 31
0.0
  0
ARC
  5
634
330
1F
100
AcDbEntity
  8
5
  6
Continuous
370
    30
100
AcDbCircle
 10
2515.365444564952
 20
2104.745487944766
 30
0.0
 40
0.5
100
AcDbArc
 50
0.0
 51
90.0
  0
ARC
  5
635
330
1F
100
AcDbEntity
  8
5
  6
Continuous
370
    30
100
AcDbCircle
 10
2494.365444564952
 20
2119.572581923083
 30
0.0
 40
0.5
100
AcDbArc
 50
90.0
 51
180.0
  0
LINE
  5
636
330
1F
100
AcDbEntity
  8
5
  6
Continuous
370
    30
100
AcDbLine
 10
2515.365444564952
 20
2120.072581923083
 30
0.0
 11
2494.365444564952
 21
2120.072581923083
 31
0.0
  0
ARC
  5
637
330
1F
100
AcDbEntity
  8
5
  6
Continuous
370
    30
100
AcDbCircle
 10
2515.365444564952
 20
2119.572581923083
 30
0.0
 40
0.5
100
AcDbArc
 50
0.0
 51
90.0
  0
LINE
  5
638
330
1F
100
AcDbEntity
  8
5
  6
Continuous
370
    30
100
AcDbLine
 10
2515.865444564952
 20
2080.972581923083
 30
0.0
 11
2515.865444564952
 21
2119.572581923083
 31
0.0
  0
ARC
  5
639
330
1F
100
AcDbEntity
  8
5
  6
Continuous
370
    30
100
AcDbCircle
 10
2515.365444564952
 20
2080.972581923083
 30
0.0
 40
0.5
100
AcDbArc
 50
270.0
 51
0.0000000000130276
  0
LINE
  5
63A
330
1F
100
AcDbEntity
  8
5
  6
Continuous
370
    30
100
AcDbLine
 10
2494.365444564952
 20
2080.472581923082
 30
0.0
 11
2515.365444564952
 21
2080.472581923082
 31
0.0
  0
LINE
  5
63B
330
1F
100
AcDbEntity
  8
5
  6
Continuous
370
    30
100
AcDbLine
 10
2493.865444564952
 20
2119.572581923083
 30
0.0
 11
2493.865444564952
 21
2080.972581923083
 31
0.0
  0
ARC
  5
63C
330
1F
100
AcDbEntity
  8
5
  6
Continuous
370
    30
100
AcDbCircle
 10
2494.365444564952
 20
2080.972581923083
 30
0.0
 40
0.5
100
AcDbArc
 50
179.999999999987
 51
270.0
  0
LINE
  5
63D
330
1F
100
AcDbEntity
  8
5
  6
Continuous
370
    30
100
AcDbLine
 10
2499.865444564952
 20
2121.572581923083
 30
0.0
 11
2509.865444564952
 21
2121.572581923083
 31
0.0
  0
LINE
  5
63E
330
1F
100
AcDbEntity
  8
5
  6
Continuous
370
    30
100
AcDbLine
 10
2509.865444564952
 20
2078.972581923082
 30
0.0
 11
2499.865444564952
 21
2078.972581923082
 31
0.0
  0
LINE
  5
63F
330
1F
100
AcDbEntity
  8
5
  6
Continuous
370
    30
100
AcDbLine
 10
2499.865444564952
 20
2078.972581923082
 30
0.0
 11
2499.865444564952
 21
2080.472581923082
 31
0.0
  0
LINE
  5
640
330
1F
100
AcDbEntity
  8
5
  6
Continuous
370
    30
100
AcDbLine
 10
2509.865444564952
 20
2080.472581923082
 30
0.0
 11
2509.865444564952
 21
2078.972581923082
 31
0.0
  0
LINE
  5
641
330
1F
100
AcDbEntity
  8
5
  6
Continuous
370
    30
100
AcDbLine
 10
2509.865444564952
 20
2121.572581923083
 30
0.0
 11
2509.865444564952
 21
2120.072581923083
 31
0.0
  0
LINE
  5
642
330
1F
100
AcDbEntity
  8
5
  6
Continuous
370
    30
100
AcDbLine
 10
2499.865444564952
 20
2120.072581923083
 30
0.0
 11
2499.865444564952
 21
2121.572581923083
 31
0.0
  0
ARC
  5
644
330
1F
100
AcDbEntity
  8
5
  6
Continuous
370
    30
100
AcDbCircle
 10
2304.365444564952
 20
2107.704631344552
 30
0.0
 40
0.5
100
AcDbArc
 50
270.0
 51
0.0000000000130276
  0
LINE
  5
645
330
1F
100
AcDbEntity
  8
5
  6
Continuous
370
    30
100
AcDbLine
 10
2304.365444564952
 20
2107.204631344552
 30
0.0
 11
2283.365444564952
 21
2107.204631344552
 31
0.0
  0
ARC
  5
646
330
1F
100
AcDbEntity
  8
5
  6
Continuous
370
    30
100
AcDbCircle
 10
2283.365444564952
 20
2107.704631344552
 30
0.0
 40
0.5
100
AcDbArc
 50
179.999999999987
 51
270.0
  0
ARC
  5
647
330
1F
100
AcDbEntity
  8
5
  6
Continuous
370
    30
100
AcDbCircle
 10
2283.365444564952
 20
2104.745487944766
 30
0.0
 40
0.5
100
AcDbArc
 50
90.0
 51
180.0
  0
LINE
  5
648
330
1F
100
AcDbEntity
  8
5
  6
Continuous
370
    30
100
AcDbLine
 10
2283.365444564952
 20
2105.245487944765
 30
0.0
 11
2304.365444564952
 21
2105.245487944765
 31
0.0
  0
ARC
  5
649
330
1F
100
AcDbEntity
  8
5
  6
Continuous
370
    30
100
AcDbCircle
 10
2304.365444564952
 20
2104.745487944766
 30
0.0
 40
0.5
100
AcDbArc
 50
0.0
 51
90.0
  0
ARC
  5
64A
330
1F
100
AcDbEntity
  8
5
  6
Continuous
370
    30
100
AcDbCircle
 10
2283.365444564952
 20
2119.572581923083
 30
0.0
 40
0.5
100
AcDbArc
 50
90.0
 51
180.0
  0
LINE
  5
64B
330
1F
100
AcDbEntity
  8
5
  6
Continuous
370
    30
100
AcDbLine
 10
2304.365444564952
 20
2120.072581923083
 30
0.0
 11
2283.365444564952
 21
2120.072581923083
 31
0.0
  0
ARC
  5
64C
330
1F
100
AcDbEntity
  8
5
  6
Continuous
370
    30
100
AcDbCircle
 10
2304.365444564952
 20
2119.572581923083
 30
0.0
 40
0.5
100
AcDbArc
 50
0.0
 51
90.0
  0
LINE
  5
64D
330
1F
100
AcDbEntity
  8
5
  6
Continuous
370
    30
100
AcDbLine
 10
2304.865444564952
 20
2080.972581923083
 30
0.0
 11
2304.865444564952
 21
2119.572581923083
 31
0.0
  0
ARC
  5
64E
330
1F
100
AcDbEntity
  8
5
  6
Continuous
370
    30
100
AcDbCircle
 10
2304.365444564952
 20
2080.972581923083
 30
0.0
 40
0.5
100
AcDbArc
 50
270.0
 51
0.0000000000130276
  0
LINE
  5
64F
330
1F
100
AcDbEntity
  8
5
  6
Continuous
370
    30
100
AcDbLine
 10
2283.365444564952
 20
2080.472581923082
 30
0.0
 11
2304.365444564952
 21
2080.472581923082
 31
0.0
  0
LINE
  5
650
330
1F
100
AcDbEntity
  8
5
  6
Continuous
370
    30
100
AcDbLine
 10
2282.865444564952
 20
2119.572581923083
 30
0.0
 11
2282.865444564952
 21
2080.972581923083
 31
0.0
  0
ARC
  5
651
330
1F
100
AcDbEntity
  8
5
  6
Continuous
370
    30
100
AcDbCircle
 10
2283.365444564952
 20
2080.972581923083
 30
0.0
 40
0.5
100
AcDbArc
 50
179.999999999987
 51
270.0
  0
LINE
  5
652
330
1F
100
AcDbEntity
  8
5
  6
Continuous
370
    30
100
AcDbLine
 10
2288.865444564952
 20
2121.572581923083
 30
0.0
 11
2298.865444564952
 21
2121.572581923083
 31
0.0
  0
LINE
  5
653
330
1F
100
AcDbEntity
  8
5
  6
Continuous
370
    30
100
AcDbLine
 10
2298.865444564952
 20
2078.972581923082
 30
0.0
 11
2288.865444564952
 21
2078.972581923082
 31
0.0
  0
LINE
  5
654
330
1F
100
AcDbEntity
  8
5
  6
Continuous
370
    30
100
AcDbLine
 10
2288.865444564952
 20
2078.972581923082
 30
0.0
 11
2288.865444564952
 21
2080.472581923076
 31
0.0
  0
LINE
  5
655
330
1F
100
AcDbEntity
  8
5
  6
Continuous
370
    30
100
AcDbLine
 10
2298.865444564952
 20
2080.472581923076
 30
0.0
 11
2298.865444564952
 21
2078.972581923082
 31
0.0
  0
LINE
  5
656
330
1F
100
AcDbEntity
  8
5
  6
Continuous
370
    30
100
AcDbLine
 10
2298.865444564952
 20
2121.572581923083
 30
0.0
 11
2298.865444564952
 21
2120.072581923076
 31
0.0
  0
LINE
  5
657
330
1F
100
AcDbEntity
  8
5
  6
Continuous
370
    30
100
AcDbLine
 10
2288.865444564952
 20
2120.072581923076
 30
0.0
 11
2288.865444564952
 21
2121.572581923083
 31
0.0
  0
ARC
  5
659
330
1F
100
AcDbEntity
  8
5
  6
Continuous
370
    30
100
AcDbCircle
 10
2093.365444564952
 20
2107.704631344552
 30
0.0
 40
0.5
100
AcDbArc
 50
270.0
 51
0.0000000000130276
  0
LINE
  5
65A
330
1F
100
AcDbEntity
  8
5
  6
Continuous
370
    30
100
AcDbLine
 10
2093.365444564952
 20
2107.204631344552
 30
0.0
 11
2072.365444564952
 21
2107.204631344552
 31
0.0
  0
ARC
  5
65B
330
1F
100
AcDbEntity
  8
5
  6
Continuous
370
    30
100
AcDbCircle
 10
2072.365444564952
 20
2107.704631344552
 30
0.0
 40
0.5
100
AcDbArc
 50
179.999999999987
 51
270.0
  0
ARC
  5
65C
330
1F
100
AcDbEntity
  8
5
  6
Continuous
370
    30
100
AcDbCircle
 10
2072.365444564952
 20
2104.745487944766
 30
0.0
 40
0.5
100
AcDbArc
 50
90.0
 51
180.0
  0
LINE
  5
65D
330
1F
100
AcDbEntity
  8
5
  6
Continuous
370
    30
100
AcDbLine
 10
2072.365444564952
 20
2105.245487944765
 30
0.0
 11
2093.365444564952
 21
2105.245487944765
 31
0.0
  0
ARC
  5
65E
330
1F
100
AcDbEntity
  8
5
  6
Continuous
370
    30
100
AcDbCircle
 10
2093.365444564952
 20
2104.745487944766
 30
0.0
 40
0.5
100
AcDbArc
 50
0.0
 51
90.0
  0
ARC
  5
65F
330
1F
100
AcDbEntity
  8
5
  6
Continuous
370
    30
100
AcDbCircle
 10
2072.365444564952
 20
2119.572581923083
 30
0.0
 40
0.5
100
AcDbArc
 50
90.0
 51
180.0
  0
LINE
  5
660
330
1F
100
AcDbEntity
  8
5
  6
Continuous
370
    30
100
AcDbLine
 10
2093.365444564952
 20
2120.072581923083
 30
0.0
 11
2072.365444564952
 21
2120.072581923083
 31
0.0
  0
ARC
  5
661
330
1F
100
AcDbEntity
  8
5
  6
Continuous
370
    30
100
AcDbCircle
 10
2093.365444564952
 20
2119.572581923083
 30
0.0
 40
0.5
100
AcDbArc
 50
0.0
 51
90.0
  0
LINE
  5
662
330
1F
100
AcDbEntity
  8
5
  6
Continuous
370
    30
100
AcDbLine
 10
2093.865444564952
 20
2080.972581923083
 30
0.0
 11
2093.865444564952
 21
2119.572581923083
 31
0.0
  0
ARC
  5
663
330
1F
100
AcDbEntity
  8
5
  6
Continuous
370
    30
100
AcDbCircle
 10
2093.365444564952
 20
2080.972581923083
 30
0.0
 40
0.5
100
AcDbArc
 50
270.0
 51
0.0000000000130276
  0
LINE
  5
664
330
1F
100
AcDbEntity
  8
5
  6
Continuous
370
    30
100
AcDbLine
 10
2072.365444564952
 20
2080.472581923082
 30
0.0
 11
2093.365444564952
 21
2080.472581923082
 31
0.0
  0
LINE
  5
665
330
1F
100
AcDbEntity
  8
5
  6
Continuous
370
    30
100
AcDbLine
 10
2071.865444564952
 20
2119.572581923083
 30
0.0
 11
2071.865444564952
 21
2080.972581923083
 31
0.0
  0
ARC
  5
666
330
1F
100
AcDbEntity
  8
5
  6
Continuous
370
    30
100
AcDbCircle
 10
2072.365444564952
 20
2080.972581923083
 30
0.0
 40
0.5
100
AcDbArc
 50
179.999999999987
 51
270.0
  0
LINE
  5
667
330
1F
100
AcDbEntity
  8
5
  6
Continuous
370
    30
100
AcDbLine
 10
2077.865444564952
 20
2121.572581923083
 30
0.0
 11
2087.865444564952
 21
2121.572581923083
 31
0.0
  0
LINE
  5
668
330
1F
100
AcDbEntity
  8
5
  6
HIDDEN
370
     9
100
AcDbLine
 10
2077.865444564952
 20
2080.472581923082
 30
0.0
 11
2087.865444564952
 21
2080.472581923082
 31
0.0
  0
LINE
  5
669
330
1F
100
AcDbEntity
  8
5
  6
Continuous
370
    30
100
AcDbLine
 10
2087.865444564952
 20
2078.972581923082
 30
0.0
 11
2077.865444564952
 21
2078.972581923082
 31
0.0
  0
LINE
  5
66A
330
1F
100
AcDbEntity
  8
5
  6
Continuous
370
    30
100
AcDbLine
 10
2087.865444564952
 20
2121.572581923083
 30
0.0
 11
2087.865444564952
 21
2120.072581923076
 31
0.0
  0
LINE
  5
66B
330
1F
100
AcDbEntity
  8
5
  6
Continuous
370
    30
100
AcDbLine
 10
2077.865444564952
 20
2120.072581923076
 30
0.0
 11
2077.865444564952
 21
2121.572581923083
 31
0.0
  0
LINE
  5
66C
330
1F
100
AcDbEntity
  8
5
  6
Continuous
370
    30
100
AcDbLine
 10
2087.865444564952
 20
2080.472581923076
 30
0.0
 11
2087.865444564952
 21
2078.972581923082
 31
0.0
  0
LINE
  5
66D
330
1F
100
AcDbEntity
  8
5
  6
Continuous
370
    30
100
AcDbLine
 10
2077.865444564952
 20
2078.972581923082
 30
0.0
 11
2077.865444564952
 21
2080.472581923076
 31
0.0
  0
ARC
  5
66F
330
1F
100
AcDbEntity
  8
5
  6
Continuous
370
    30
100
AcDbCircle
 10
2416.365444564952
 20
2107.704631344552
 30
0.0
 40
0.5
100
AcDbArc
 50
270.0
 51
0.0
  0
LINE
  5
670
330
1F
100
AcDbEntity
  8
5
  6
Continuous
370
    30
100
AcDbLine
 10
2416.365444564952
 20
2107.204631344552
 30
0.0
 11
2395.365444564952
 21
2107.204631344552
 31
0.0
  0
ARC
  5
671
330
1F
100
AcDbEntity
  8
5
  6
Continuous
370
    30
100
AcDbCircle
 10
2395.365444564952
 20
2107.704631344552
 30
0.0
 40
0.5
100
AcDbArc
 50
180.0
 51
270.0
  0
ARC
  5
672
330
1F
100
AcDbEntity
  8
5
  6
Continuous
370
    30
100
AcDbCircle
 10
2395.365444564952
 20
2104.745487944766
 30
0.0
 40
0.5
100
AcDbArc
 50
90.0
 51
180.0
  0
LINE
  5
673
330
1F
100
AcDbEntity
  8
5
  6
Continuous
370
    30
100
AcDbLine
 10
2395.365444564952
 20
2105.245487944766
 30
0.0
 11
2416.365444564952
 21
2105.245487944765
 31
0.0
  0
ARC
  5
674
330
1F
100
AcDbEntity
  8
5
  6
Continuous
370
    30
100
AcDbCircle
 10
2416.365444564952
 20
2104.745487944766
 30
0.0
 40
0.5
100
AcDbArc
 50
0.0
 51
90.0
  0
ARC
  5
675
330
1F
100
AcDbEntity
  8
5
  6
Continuous
370
    30
100
AcDbCircle
 10
2395.365444564952
 20
2119.572581923083
 30
0.0
 40
0.5
100
AcDbArc
 50
90.0
 51
180.0
  0
LINE
  5
676
330
1F
100
AcDbEntity
  8
5
  6
Continuous
370
    30
100
AcDbLine
 10
2416.365444564952
 20
2120.072581923083
 30
0.0
 11
2395.365444564952
 21
2120.072581923083
 31
0.0
  0
ARC
  5
677
330
1F
100
AcDbEntity
  8
5
  6
Continuous
370
    30
100
AcDbCircle
 10
2416.365444564952
 20
2119.572581923083
 30
0.0
 40
0.5
100
AcDbArc
 50
0.0
 51
90.0
  0
LINE
  5
678
330
1F
100
AcDbEntity
  8
5
  6
Continuous
370
    30
100
AcDbLine
 10
2416.865444564952
 20
2080.972581923083
 30
0.0
 11
2416.865444564952
 21
2119.572581923083
 31
0.0
  0
ARC
  5
679
330
1F
100
AcDbEntity
  8
5
  6
Continuous
370
    30
100
AcDbCircle
 10
2416.365444564952
 20
2080.972581923083
 30
0.0
 40
0.5
100
AcDbArc
 50
270.0
 51
0.0
  0
LINE
  5
67A
330
1F
100
AcDbEntity
  8
5
  6
Continuous
370
    30
100
AcDbLine
 10
2395.365444564952
 20
2080.472581923083
 30
0.0
 11
2416.365444564952
 21
2080.472581923082
 31
0.0
  0
LINE
  5
67B
330
1F
100
AcDbEntity
  8
5
  6
Continuous
370
    30
100
AcDbLine
 10
2394.865444564952
 20
2119.572581923083
 30
0.0
 11
2394.865444564952
 21
2080.972581923083
 31
0.0
  0
ARC
  5
67C
330
1F
100
AcDbEntity
  8
5
  6
Continuous
370
    30
100
AcDbCircle
 10
2395.365444564952
 20
2080.972581923083
 30
0.0
 40
0.5
100
AcDbArc
 50
180.0
 51
270.0
  0
LINE
  5
67D
330
1F
100
AcDbEntity
  8
5
  6
Continuous
370
    30
100
AcDbLine
 10
2400.865444564952
 20
2121.572581923083
 30
0.0
 11
2410.865444564952
 21
2121.572581923083
 31
0.0
  0
LINE
  5
67E
330
1F
100
AcDbEntity
  8
5
  6
Continuous
370
    30
100
AcDbLine
 10
2410.865444564952
 20
2078.972581923082
 30
0.0
 11
2400.865444564952
 21
2078.972581923082
 31
0.0
  0
LINE
  5
67F
330
1F
100
AcDbEntity
  8
5
  6
Continuous
370
    30
100
AcDbLine
 10
2400.865444564952
 20
2078.972581923082
 30
0.0
 11
2400.865444564952
 21
2080.472581923055
 31
0.0
  0
LINE
  5
680
330
1F
100
AcDbEntity
  8
5
  6
Continuous
370
    30
100
AcDbLine
 10
2410.865444564952
 20
2080.472581923055
 30
0.0
 11
2410.865444564952
 21
2078.972581923082
 31
0.0
  0
LINE
  5
681
330
1F
100
AcDbEntity
  8
5
  6
Continuous
370
    30
100
AcDbLine
 10
2410.865444564952
 20
2121.572581923083
 30
0.0
 11
2410.865444564952
 21
2120.072581923055
 31
0.0
  0
LINE
  5
682
330
1F
100
AcDbEntity
  8
5
  6
Continuous
370
    30
100
AcDbLine
 10
2400.865444564952
 20
2120.072581923055
 30
0.0
 11
2400.865444564952
 21
2121.572581923083
 31
0.0
  0
ARC
  5
684
330
1F
100
AcDbEntity
  8
5
  6
Continuous
370
    30
100
AcDbCircle
 10
2192.365444564952
 20
2107.704631344552
 30
0.0
 40
0.5
100
AcDbArc
 50
270.0
 51
0.0
  0
LINE
  5
685
330
1F
100
AcDbEntity
  8
5
  6
Continuous
370
    30
100
AcDbLine
 10
2192.365444564952
 20
2107.204631344552
 30
0.0
 11
2171.365444564952
 21
2107.204631344552
 31
0.0
  0
ARC
  5
686
330
1F
100
AcDbEntity
  8
5
  6
Continuous
370
    30
100
AcDbCircle
 10
2171.365444564952
 20
2107.704631344552
 30
0.0
 40
0.5
100
AcDbArc
 50
180.0
 51
270.0
  0
ARC
  5
687
330
1F
100
AcDbEntity
  8
5
  6
Continuous
370
    30
100
AcDbCircle
 10
2171.365444564952
 20
2104.745487944766
 30
0.0
 40
0.5
100
AcDbArc
 50
90.0
 51
180.0
  0
LINE
  5
688
330
1F
100
AcDbEntity
  8
5
  6
Continuous
370
    30
100
AcDbLine
 10
2171.365444564952
 20
2105.245487944766
 30
0.0
 11
2192.365444564952
 21
2105.245487944765
 31
0.0
  0
ARC
  5
689
330
1F
100
AcDbEntity
  8
5
  6
Continuous
370
    30
100
AcDbCircle
 10
2192.365444564952
 20
2104.745487944766
 30
0.0
 40
0.5
100
AcDbArc
 50
0.0
 51
90.0
  0
ARC
  5
68A
330
1F
100
AcDbEntity
  8
5
  6
Continuous
370
    30
100
AcDbCircle
 10
2171.365444564952
 20
2119.572581923083
 30
0.0
 40
0.5
100
AcDbArc
 50
90.0
 51
180.0
  0
LINE
  5
68B
330
1F
100
AcDbEntity
  8
5
  6
Continuous
370
    30
100
AcDbLine
 10
2192.365444564952
 20
2120.072581923083
 30
0.0
 11
2171.365444564952
 21
2120.072581923083
 31
0.0
  0
ARC
  5
68C
330
1F
100
AcDbEntity
  8
5
  6
Continuous
370
    30
100
AcDbCircle
 10
2192.365444564952
 20
2119.572581923083
 30
0.0
 40
0.5
100
AcDbArc
 50
0.0
 51
90.0
  0
LINE
  5
68D
330
1F
100
AcDbEntity
  8
5
  6
Continuous
370
    30
100
AcDbLine
 10
2192.865444564952
 20
2080.972581923083
 30
0.0
 11
2192.865444564952
 21
2119.572581923083
 31
0.0
  0
ARC
  5
68E
330
1F
100
AcDbEntity
  8
5
  6
Continuous
370
    30
100
AcDbCircle
 10
2192.365444564952
 20
2080.972581923083
 30
0.0
 40
0.5
100
AcDbArc
 50
270.0
 51
0.0
  0
LINE
  5
68F
330
1F
100
AcDbEntity
  8
5
  6
Continuous
370
    30
100
AcDbLine
 10
2171.365444564952
 20
2080.472581923083
 30
0.0
 11
2192.365444564952
 21
2080.472581923082
 31
0.0
  0
LINE
  5
690
330
1F
100
AcDbEntity
  8
5
  6
Continuous
370
    30
100
AcDbLine
 10
2170.865444564952
 20
2119.572581923083
 30
0.0
 11
2170.865444564952
 21
2080.972581923083
 31
0.0
  0
ARC
  5
691
330
1F
100
AcDbEntity
  8
5
  6
Continuous
370
    30
100
AcDbCircle
 10
2171.365444564952
 20
2080.972581923083
 30
0.0
 40
0.5
100
AcDbArc
 50
180.0
 51
270.0
  0
LINE
  5
692
330
1F
100
AcDbEntity
  8
5
  6
Continuous
370
    30
100
AcDbLine
 10
2176.865444564952
 20
2121.572581923083
 30
0.0
 11
2186.865444564952
 21
2121.572581923083
 31
0.0
  0
LINE
  5
693
330
1F
100
AcDbEntity
  8
5
  6
Continuous
370
    30
100
AcDbLine
 10
2186.865444564952
 20
2078.972581923082
 30
0.0
 11
2176.865444564952
 21
2078.972581923082
 31
0.0
  0
LINE
  5
694
330
1F
100
AcDbEntity
  8
5
  6
Continuous
370
    30
100
AcDbLine
 10
2176.865444564952
 20
2078.972581923082
 30
0.0
 11
2176.865444564952
 21
2080.472581923055
 31
0.0
  0
LINE
  5
695
330
1F
100
AcDbEntity
  8
5
  6
Continuous
370
    30
100
AcDbLine
 10
2186.865444564952
 20
2080.472581923055
 30
0.0
 11
2186.865444564952
 21
2078.972581923082
 31
0.0
  0
LINE
  5
696
330
1F
100
AcDbEntity
  8
5
  6
Continuous
370
    30
100
AcDbLine
 10
2186.865444564952
 20
2121.572581923083
 30
0.0
 11
2186.865444564952
 21
2120.072581923055
 31
0.0
  0
LINE
  5
697
330
1F
100
AcDbEntity
  8
5
  6
Continuous
370
    30
100
AcDbLine
 10
2176.865444564952
 20
2120.072581923055
 30
0.0
 11
2176.865444564952
 21
2121.572581923083
 31
0.0
  0
LINE
  5
698
330
1F
100
AcDbEntity
  8
1
  6
Continuous
370
    -3
100
AcDbLine
 10
2714.845237014101
 20
2103.472581922989
 30
0.0
 11
2714.845237014101
 21
2097.072581923141
 31
0.0
  0
LINE
  5
699
330
1F
100
AcDbEntity
  8
1
  6
Continuous
370
    -3
100
AcDbLine
 10
2715.645237014101
 20
2102.87258192303
 30
0.0
 11
2715.645237014101
 21
2097.672581923038
 31
0.0
  0
ARC
  5
69A
330
1F
100
AcDbEntity
  8
1
  6
Continuous
370
    -3
100
AcDbCircle
 10
2716.083529363636
 20
2099.07258192306
 30
0.0
 40
1.399999999999999
100
AcDbArc
 50
270.0
 51
344.650522982954
  0
LINE
  5
69B
330
1F
100
AcDbEntity
  8
1
  6
Continuous
370
    -3
100
AcDbLine
 10
2716.083529363636
 20
2097.672581923059
 30
0.0
 11
2714.845237014101
 21
2097.672581923059
 31
0.0
  0
ARC
  5
69C
330
1F
100
AcDbEntity
  8
1
  6
Continuous
370
    -3
100
AcDbCircle
 10
2711.711903680815
 20
2100.272581923049
 30
0.0
 40
5.933333333284991
100
AcDbArc
 50
344.650522982954
 51
15.3494770172928
  0
ARC
  5
69D
330
1F
100
AcDbEntity
  8
1
  6
Continuous
370
    -3
100
AcDbCircle
 10
2716.08352936363
 20
2101.472581923059
 30
0.0
 40
1.399999999999999
100
AcDbArc
 50
15.3494770172928
 51
90.0
  0
LINE
  5
69E
330
1F
100
AcDbEntity
  8
1
  6
Continuous
370
    -3
100
AcDbLine
 10
2716.08352936363
 20
2102.872581923059
 30
0.0
 11
2714.845237014101
 21
2102.872581923059
 31
0.0
  0
LINE
  5
69F
330
1F
100
AcDbEntity
  8
1
  6
Continuous
370
    -3
100
AcDbLine
 10
2714.845237014101
 20
2103.472581923059
 30
0.0
 11
2714.245237014101
 21
2103.472581923059
 31
0.0
  0
LINE
  5
6A0
330
1F
100
AcDbEntity
  8
1
  6
Continuous
370
    -3
100
AcDbLine
 10
2714.845237014101
 20
2097.072581923059
 30
0.0
 11
2714.245237014101
 21
2097.072581923059
 31
0.0
  0
LINE
  5
6A1
330
1F
100
AcDbEntity
  8
1
  6
Continuous
370
    -3
100
AcDbLine
 10
2715.645237014105
 20
2100.272581923059
 30
0.0
 11
2714.845237014104
 21
2100.272581923059
 31
0.0
  0
LINE
  5
6A2
330
1F
100
AcDbEntity
  8
5
  6
Continuous
370
    -3
100
AcDbLine
 10
2714.245237014102
 20
2115.272581923059
 30
0.0
 11
2714.245237014102
 21
2111.272581923059
 31
0.0
  0
LINE
  5
6A3
330
1F
100
AcDbEntity
  8
5
  6
Continuous
370
    -3
100
AcDbLine
 10
2714.245237014102
 20
2111.272581923059
 30
0.0
 11
2715.145237014101
 21
2111.272581923059
 31
0.0
  0
LINE
  5
6A4
330
1F
100
AcDbEntity
  8
5
  6
Continuous
370
    -3
100
AcDbLine
 10
2715.145237014101
 20
2111.272581923059
 30
0.0
 11
2715.645237014101
 21
2111.772581923059
 31
0.0
  0
LINE
  5
6A5
330
1F
100
AcDbEntity
  8
5
  6
Continuous
370
    -3
100
AcDbLine
 10
2715.645237014101
 20
2111.772581923059
 30
0.0
 11
2715.645237014101
 21
2114.772581923059
 31
0.0
  0
LINE
  5
6A6
330
1F
100
AcDbEntity
  8
5
  6
Continuous
370
    -3
100
AcDbLine
 10
2714.245237014102
 20
2115.272581923059
 30
0.0
 11
2715.145237014101
 21
2115.272581923059
 31
0.0
  0
LINE
  5
6A7
330
1F
100
AcDbEntity
  8
5
  6
Continuous
370
    -3
100
AcDbLine
 10
2715.645237014101
 20
2114.772581923059
 30
0.0
 11
2715.145237014101
 21
2115.272581923059
 31
0.0
  0
LINE
  5
6A8
330
1F
100
AcDbEntity
  8
5
  6
Continuous
370
    -3
100
AcDbLine
 10
2714.245237014102
 20
2089.272581923072
 30
0.0
 11
2715.145237014101
 21
2089.272581923072
 31
0.0
  0
LINE
  5
6A9
330
1F
100
AcDbEntity
  8
5
  6
Continuous
370
    -3
100
AcDbLine
 10
2715.145237014101
 20
2089.272581923072
 30
0.0
 11
2715.645237014101
 21
2088.772581923072
 31
0.0
  0
LINE
  5
6AA
330
1F
100
AcDbEntity
  8
5
  6
Continuous
370
    -3
100
AcDbLine
 10
2715.645237014101
 20
2088.772581923072
 30
0.0
 11
2715.645237014101
 21
2085.772581923072
 31
0.0
  0
LINE
  5
6AB
330
1F
100
AcDbEntity
  8
5
  6
Continuous
370
    -3
100
AcDbLine
 10
2714.245237014102
 20
2085.272581923073
 30
0.0
 11
2715.145237014101
 21
2085.272581923073
 31
0.0
  0
LINE
  5
6AC
330
1F
100
AcDbEntity
  8
5
  6
Continuous
370
    -3
100
AcDbLine
 10
2715.645237014101
 20
2085.772581923072
 30
0.0
 11
2715.145237014101
 21
2085.272581923073
 31
0.0
  0
LINE
  5
6AD
330
1F
100
AcDbEntity
  8
5
  6
Continuous
370
    -3
100
AcDbLine
 10
2707.845237014101
 20
2103.172581923059
 30
0.0
 11
2707.845237014101
 21
2097.372581923059
 31
0.0
  0
LINE
  5
6AE
330
1F
100
AcDbEntity
  8
5
  6
Continuous
370
    -3
100
AcDbLine
 10
2707.845237014101
 20
2097.372581923059
 30
0.0
 11
2710.445237014102
 21
2097.372581923059
 31
0.0
  0
LINE
  5
6AF
330
1F
100
AcDbEntity
  8
5
  6
Continuous
370
    -3
100
AcDbLine
 10
2710.445237014102
 20
2097.372581923059
 30
0.0
 11
2710.445237014102
 21
2103.172581923059
 31
0.0
  0
LINE
  5
6B0
330
1F
100
AcDbEntity
  8
5
  6
Continuous
370
    -3
100
AcDbLine
 10
2710.445237014102
 20
2103.172581923059
 30
0.0
 11
2707.845237014101
 21
2103.172581923059
 31
0.0
  0
LINE
  5
6B1
330
1F
100
AcDbEntity
  8
5
  6
Continuous
370
    -3
100
AcDbLine
 10
2707.345237014101
 20
2103.672581923059
 30
0.0
 11
2710.945237014102
 21
2103.672581923059
 31
0.0
  0
LINE
  5
6B2
330
1F
100
AcDbEntity
  8
5
  6
Continuous
370
    -3
100
AcDbLine
 10
2710.945237014102
 20
2103.672581923059
 30
0.0
 11
2710.945237014102
 21
2096.872581923059
 31
0.0
  0
LINE
  5
6B3
330
1F
100
AcDbEntity
  8
5
  6
Continuous
370
    -3
100
AcDbLine
 10
2710.945237014102
 20
2096.872581923059
 30
0.0
 11
2707.345237014101
 21
2096.872581923059
 31
0.0
  0
LINE
  5
6B4
330
1F
100
AcDbEntity
  8
5
  6
Continuous
370
    -3
100
AcDbLine
 10
2707.345237014101
 20
2096.872581923059
 30
0.0
 11
2707.345237014101
 21
2103.672581923059
 31
0.0
  0
ENDSEC
  0
SECTION
  2
OBJECTS
  0
DICTIONARY
  5
C
330
0
100
AcDbDictionary
281
     1
  3
ACAD_CIP_PREVIOUS_PRODUCT_INFO
350
216
  3
ACAD_COLOR
350
6B
  3
ACAD_DETAILVIEWSTYLE
350
21B
  3
ACAD_GROUP
350
D
  3
ACAD_LAST_SAVED_VERSION_INFO
350
6B5
  3
ACAD_LAYOUT
350
1A
  3
ACAD_MATERIAL
350
6A
  3
ACAD_MLEADERSTYLE
350
12D
  3
ACAD_MLINESTYLE
350
17
  3
ACAD_PLOTSETTINGS
350
19
  3
ACAD_PLOTSTYLENAME
350
E
  3
ACAD_RENDER_ACTIVE_RAPIDRT_SETTINGS
350
2C0
  3
ACAD_RENDER_RAPIDRT_SETTINGS
350
2B9
  3
ACAD_SCALELIST
350
10C
  3
ACAD_SECTIONVIEWSTYLE
350
219
  3
ACAD_TABLESTYLE
350
7E
  3
ACAD_VISUALSTYLE
350
EF
  3
ACDB_RECOMPOSE_DATA
350
6B7
  3
AcDbVariableDictionary
350
5E
  0
DICTIONARY
  5
1FF
330
2
100
AcDbDictionary
280
     1
281
     1
  3
ACAD_LAYERSTATES
360
200
  0
DICTIONARY
  5
13C
330
10
100
AcDbDictionary
280
     1
281
     1
  0
DICTIONARY
  5
1CE
330
1F
100
AcDbDictionary
280
     1
281
     1
  3
ACAD_SORTENTS
360
5D7
  0
XRECORD
  5
216
102
{ACAD_REACTORS
330
C
102
}
330
C
100
AcDbXrecord
280
     1
300
ACD
300
2024
300

  0
DICTIONARY
  5
6B
102
{ACAD_REACTORS
330
C
102
}
330
C
100
AcDbDictionary
281
     1
  0
DICTIONARY
  5
21B
102
{ACAD_REACTORS
330
C
102
}
330
C
100
AcDbDictionary
281
     1
  3
Metric50
350
21C
  0
DICTIONARY
  5
D
102
{ACAD_REACTORS
330
C
102
}
330
C
100
AcDbDictionary
281
     1
  0
XRECORD
  5
6B5
102
{ACAD_REACTORS
330
C
102
}
330
C
100
AcDbXrecord
280
     1
300
{337313AD-5406-2547-9AE8-DC09472CF95D}
301
{D72EA1C6-2516-914E-A575-26C11F06C466}
302
{337313AD-5406-2547-9AE8-DC09472CF95D}
303
C:\Users\dsp199\Desktop\CAD HP UP\整線パネル、ハンガー\NSSPL-1U.dxf
  0
DICTIONARY
  5
1A
102
{ACAD_REACTORS
330
C
102
}
330
C
100
AcDbDictionary
281
     1
  3
Model
350
22
  3
レイアウト1
350
D3
  3
レイアウト2
350
D7
  0
DICTIONARY
  5
6A
102
{ACAD_REACTORS
330
C
102
}
330
C
100
AcDbDictionary
281
     1
  3
ByBlock
350
ED
  3
ByLayer
350
EC
  3
Global
350
EE
  0
DICTIONARY
  5
12D
102
{ACAD_REACTORS
330
C
102
}
330
C
100
AcDbDictionary
281
     1
  3
Annotative
350
13B
  3
Standard
350
12E
  0
DICTIONARY
  5
17
102
{ACAD_REACTORS
330
C
102
}
330
C
100
AcDbDictionary
281
     1
  3
Standard
350
18
  0
DICTIONARY
  5
19
102
{ACAD_REACTORS
330
C
102
}
330
C
100
AcDbDictionary
281
     1
  0
ACDBDICTIONARYWDFLT
  5
E
102
{ACAD_REACTORS
330
C
102
}
330
C
100
AcDbDictionary
281
     1
  3
Normal
350
F
100
AcDbDictionaryWithDefault
340
F
  0
RAPIDRTRENDERSETTINGS
  5
2C0
102
{ACAD_REACTORS
330
C
102
}
330
C
100
AcDbRenderSettings
 90
        2
  1
中
290
     1
290
     0
290
     1
290
     1
  1

  1
5 レンダリング レベルを適用
 90
        0
100
AcDbRapidRTRenderSettings
 90
        3
 70
     0
 90
        5
 90
        1
 70
     1
 70
     2
 40
3.0
 40
3.0
290
     1
  0
DICTIONARY
  5
2B9
102
{ACAD_REACTORS
330
C
102
}
330
C
100
AcDbDictionary
281
     1
  3
オーバーナイト品質
350
2BF
  3
コーヒー ブレイク品質
350
2BD
  3
ランチ タイム品質
350
2BE
  3
中
350
2BB
  3
低
350
2BA
  3
高
350
2BC
  0
DICTIONARY
  5
10C
102
{ACAD_REACTORS
330
C
102
}
330
C
100
AcDbDictionary
281
     1
  3
A0
350
10D
  3
A1
350
1BE
  3
A2
350
1BF
  3
A3
350
1C0
  3
A4
350
1C1
  3
A5
350
1C2
  3
A6
350
1C3
  3
A7
350
1C4
  3
A8
350
1C5
  3
A9
350
1C6
  3
B0
350
1C7
  3
B1
350
1C8
  3
B2
350
1C9
  3
B3
350
1CA
  3
B4
350
1CB
  3
B5
350
1CC
  3
B6
350
1CD
  0
DICTIONARY
  5
219
102
{ACAD_REACTORS
330
C
102
}
330
C
100
AcDbDictionary
281
     1
  3
Metric50
350
21A
  0
DICTIONARY
  5
7E
102
{ACAD_REACTORS
330
C
102
}
330
C
100
AcDbDictionary
281
     1
  3
Standard
350
7F
  0
DICTIONARY
  5
EF
102
{ACAD_REACTORS
330
C
102
}
330
C
100
AcDbDictionary
281
     1
  3
2dWireframe
350
F5
  3
Basic
350
F4
  3
Brighten
350
FB
  3
ColorChange
350
FF
  3
Conceptual
350
F8
  3
Dim
350
FA
  3
EdgeColorOff
350
1E6
  3
Facepattern
350
FE
  3
Flat
350
F0
  3
FlatWithEdges
350
F1
  3
Gouraud
350
F2
  3
GouraudWithEdges
350
F3
  3
Hidden
350
F7
  3
JitterOff
350
1E4
  3
Linepattern
350
FD
  3
OverhangOff
350
1E5
  3
Realistic
350
F9
  3
Shaded
350
1F3
  3
Shaded with edges
350
1F2
  3
Shades of Gray
350
1EF
  3
Sketchy
350
1F0
  3
Thicken
350
FC
  3
Wireframe
350
F6
  3
X-Ray
350
1F1
  0
XRECORD
  5
6B7
102
{ACAD_REACTORS
330
C
102
}
330
C
100
AcDbXrecord
280
     1
 90
        1
330
7F
  0
DICTIONARY
  5
5E
102
{ACAD_REACTORS
330
C
102
}
330
C
100
AcDbDictionary
281
     1
  3
CANNOSCALE
350
146
  3
CENTEREXE
350
259
  3
CENTERLTYPEFILE
350
25A
  3
CMLEADERSTYLE
350
145
  3
CTABLESTYLE
350
84
  3
CVIEWDETAILSTYLE
350
227
  3
CVIEWSECTIONSTYLE
350
228
  3
DIMASSOC
350
5F
  3
HIDETEXT
350
63
  3
LAYEREVAL
350
1AE
  3
LAYERNOTIFY
350
1AF
  0
DICTIONARY
  5
200
102
{ACAD_REACTORS
330
1FF
102
}
330
1FF
100
AcDbDictionary
281
     1
  0
SORTENTSTABLE
  5
5D7
102
{ACAD_REACTORS
330
1CE
102
}
330
1CE
100
AcDbSortentsTable
330
1F
331
503
  5
50D
331
504
  5
50E
331
505
  5
50F
331
506
  5
510
331
507
  5
511
331
508
  5
512
331
509
  5
513
331
50A
  5
514
331
50B
  5
515
331
50C
  5
516
331
50D
  5
517
331
50E
  5
518
331
50F
  5
519
331
510
  5
51A
331
511
  5
51B
331
512
  5
51C
331
513
  5
51D
331
514
  5
51E
331
515
  5
51F
331
516
  5
520
331
517
  5
521
331
518
  5
522
331
519
  5
523
331
51A
  5
524
331
51B
  5
525
331
51C
  5
531
331
51D
  5
533
331
51E
  5
535
331
51F
  5
536
331
520
  5
537
331
521
  5
538
331
522
  5
539
331
523
  5
53A
331
524
  5
53B
331
525
  5
53C
331
530
  5
551
331
532
  5
553
331
533
  5
554
331
535
  5
55D
331
536
  5
55E
331
537
  5
55F
331
538
  5
560
331
539
  5
561
331
53A
  5
562
331
53B
  5
563
331
53C
  5
564
331
53D
  5
565
331
53E
  5
566
331
53F
  5
567
331
540
  5
568
331
541
  5
569
331
542
  5
56A
331
543
  5
56B
331
544
  5
56C
331
545
  5
56D
331
546
  5
56E
331
547
  5
56F
331
548
  5
570
331
549
  5
571
331
54A
  5
572
331
54B
  5
573
331
54C
  5
574
331
54D
  5
575
331
550
  5
590
331
552
  5
595
331
553
  5
596
331
554
  5
597
331
555
  5
598
331
556
  5
599
331
557
  5
59A
331
559
  5
5A0
331
55A
  5
5A1
331
55B
  5
5A2
331
55C
  5
5A3
331
55D
  5
5A4
331
55E
  5
5A5
331
560
  5
5AA
331
561
  5
5AB
331
562
  5
5AC
331
563
  5
5AD
331
565
  5
5B2
331
566
  5
5B3
331
567
  5
5B4
331
568
  5
5B5
331
569
  5
5B6
331
56A
  5
5B7
331
56B
  5
5B8
331
56C
  5
5B9
331
56D
  5
5BA
331
56E
  5
5BB
331
56F
  5
5BC
331
570
  5
5BD
331
571
  5
5BE
331
572
  5
5BF
331
573
  5
5C0
331
574
  5
5C1
331
575
  5
5C2
331
576
  5
5C3
331
577
  5
5C4
331
57A
  5
5CB
331
57C
  5
5D5
331
57D
  5
5D8
331
581
  5
5F5
331
582
  5
5F6
331
583
  5
5F7
331
586
  5
602
331
587
  5
603
331
589
  5
604
331
58C
  5
605
331
58D
  5
606
331
58F
  5
607
331
592
  5
608
331
593
  5
609
331
595
  5
60A
331
598
  5
60B
331
599
  5
60C
331
59B
  5
60D
331
59D
  5
60F
331
59E
  5
610
331
59F
  5
611
331
5A0
  5
612
331
5A1
  5
613
331
5A2
  5
614
331
5A3
  5
615
331
5A4
  5
616
331
5A5
  5
617
331
5A9
  5
65D
331
5AA
  5
65E
331
5AB
  5
65F
331
5AC
  5
660
331
5AD
  5
661
331
5AE
  5
662
331
5AF
  5
664
331
5B0
  5
665
331
5B1
  5
666
331
5B3
  5
667
331
5B4
  5
668
331
5B6
  5
669
331
5B9
  5
66A
331
5BA
  5
66B
331
5BC
  5
66C
331
5C2
  5
699
331
5C4
  5
69B
331
5C5
  5
69C
331
5C9
  5
6A9
331
5CB
  5
6AB
331
5CC
  5
6AC
331
5CE
  5
5F8
331
5CF
  5
5FA
331
5D0
  5
5FB
331
5D1
  5
5FC
331
5D2
  5
5FD
331
5D3
  5
5FE
331
5D4
  5
5FF
331
5D5
  5
600
331
5D6
  5
601
331
5D9
  5
555
331
5DA
  5
556
331
5DB
  5
557
331
5DC
  5
558
331
5DD
  5
559
331
5DE
  5
55A
331
5DF
  5
55B
331
5E0
  5
55C
331
5E2
  5
5DA
331
5E3
  5
5DD
331
5E4
  5
5DE
331
5E5
  5
5E2
331
5E8
  5
5E9
331
5E9
  5
5EB
331
5EB
  5
69D
331
5EC
  5
69E
331
5ED
  5
69F
331
5EE
  5
6A0
331
5EF
  5
6A1
331
5F0
  5
6A2
331
5F1
  5
6A3
331
5F2
  5
6A4
331
5F4
  5
6AD
331
5F5
  5
6AE
331
5F6
  5
6AF
331
5F7
  5
6B0
331
5F8
  5
6B1
331
5F9
  5
6B2
331
5FA
  5
6B3
331
5FB
  5
6B4
331
5FC
  5
54D
331
5FD
  5
54E
331
5FE
  5
54F
331
5FF
  5
550
331
600
  5
552
331
601
  5
5C5
331
602
  5
5C6
331
603
  5
5C7
331
604
  5
5CA
331
605
  5
5CD
331
606
  5
5EC
331
607
  5
5ED
331
608
  5
5F0
331
609
  5
5F4
331
60A
  5
695
331
60B
  5
696
331
60C
  5
697
331
60D
  5
698
331
60E
  5
69A
331
60F
  5
6A5
331
610
  5
6A6
331
611
  5
6A7
331
612
  5
6A8
331
613
  5
6AA
331
614
  5
503
331
615
  5
504
331
616
  5
505
331
617
  5
506
331
618
  5
507
331
619
  5
508
331
61A
  5
509
331
61B
  5
50A
331
61C
  5
50B
331
61D
  5
50C
331
61E
  5
53D
331
61F
  5
53E
331
620
  5
53F
331
621
  5
540
331
622
  5
541
331
623
  5
542
331
624
  5
543
331
625
  5
544
331
626
  5
545
331
627
  5
546
331
628
  5
547
331
629
  5
548
331
62A
  5
549
331
62B
  5
54A
331
62C
  5
54B
331
62D
  5
54C
331
62F
  5
618
331
630
  5
619
331
631
  5
61A
331
632
  5
61B
331
633
  5
61C
331
634
  5
61D
331
635
  5
61E
331
636
  5
61F
331
637
  5
620
331
638
  5
621
331
639
  5
622
331
63A
  5
624
331
63B
  5
625
331
63C
  5
626
331
63D
  5
627
331
63E
  5
628
331
63F
  5
629
331
640
  5
62A
331
641
  5
62B
331
642
  5
62C
331
644
  5
62D
331
645
  5
62E
331
646
  5
62F
331
647
  5
630
331
648
  5
631
331
649
  5
632
331
64A
  5
633
331
64B
  5
634
331
64C
  5
635
331
64D
  5
636
331
64E
  5
637
331
64F
  5
638
331
650
  5
639
331
651
  5
63A
331
652
  5
63B
331
653
  5
63C
331
654
  5
63D
331
655
  5
63E
331
656
  5
63F
331
657
  5
640
331
659
  5
641
331
65A
  5
643
331
65B
  5
644
331
65C
  5
646
331
65D
  5
649
331
65E
  5
64A
331
65F
  5
64C
331
660
  5
64F
331
661
  5
650
331
662
  5
651
331
663
  5
652
331
664
  5
653
331
665
  5
654
331
666
  5
655
331
667
  5
656
331
668
  5
657
331
669
  5
658
331
66A
  5
659
331
66B
  5
65A
331
66C
  5
65B
331
66D
  5
65C
331
66F
  5
66D
331
670
  5
66E
331
671
  5
66F
331
672
  5
670
331
673
  5
671
331
674
  5
672
331
675
  5
673
331
676
  5
674
331
677
  5
675
331
678
  5
676
331
679
  5
677
331
67A
  5
678
331
67B
  5
679
331
67C
  5
67A
331
67D
  5
67B
331
67E
  5
67C
331
67F
  5
67D
331
680
  5
67E
331
681
  5
67F
331
682
  5
680
331
684
  5
681
331
685
  5
682
331
686
  5
683
331
687
  5
684
331
688
  5
685
331
689
  5
686
331
68A
  5
687
331
68B
  5
688
331
68C
  5
689
331
68D
  5
68A
331
68E
  5
68B
331
68F
  5
68C
331
690
  5
68D
331
691
  5
68E
331
692
  5
68F
331
693
  5
690
331
694
  5
691
331
695
  5
692
331
696
  5
693
331
697
  5
694
331
698
  5
579
331
699
  5
57A
331
69A
  5
57B
331
69B
  5
57C
331
69C
  5
57D
331
69D
  5
57F
331
69E
  5
580
331
69F
  5
581
331
6A0
  5
586
331
6A1
  5
588
331
6A2
  5
589
331
6A3
  5
58A
331
6A4
  5
58B
331
6A5
  5
58C
331
6A6
  5
58E
331
6A7
  5
58F
331
6A8
  5
59B
331
6A9
  5
59C
331
6AA
  5
59D
331
6AB
  5
59E
331
6AC
  5
59F
331
6AD
  5
5A6
331
6AE
  5
5A7
331
6AF
  5
5A8
331
6B0
  5
5A9
331
6B1
  5
5AE
331
6B2
  5
5AF
331
6B3
  5
5B0
331
6B4
  5
5B1
  0
ACDBDETAILVIEWSTYLE
  5
21C
102
{ACAD_REACTORS
330
21B
102
}
330
21B
100
AcDbModelDocViewStyle
 70
     0
  3
Metric50
290
     0
300
Metric50
 90
        0
100
AcDbDetailViewStyle
 70
     0
 71
     0
 90
        3
 71
     1
340
11
 62
   256
 40
5.0
340
0
 62
   256
 40
5.0
300

 40
0.0
280
     1
 71
     2
340
16
 90
       25
 62
   256
 71
     3
340
11
 62
   256
 40
5.0
 90
        0
 40
15.0
 90
        1
300
%<\AcVar ViewDetailId>% (%<\AcVar ViewScale \f "%sn">%)
 71
     4
340
16
 90
       25
 62
   256
340
16
 90
       25
 62
   256
280
     0
  0
LAYOUT
  5
22
102
{ACAD_XDICTIONARY
360
205
102
}
102
{ACAD_REACTORS
330
1A
102
}
330
1A
100
AcDbPlotSettings
  1

  2
none_device
  4
ISO_A4_(210.00_x_297.00_MM)
  6

 40
7.5
 41
20.0
 42
7.5
 43
20.0
 44
210.0
 45
297.0
 46
11.54999923706054
 47
-13.65000009536743
 48
0.0
 49
0.0
140
0.0
141
0.0
142
1.0
143
8.704084754739808
 70
 11952
 72
     1
 73
     0
 74
     0
  7

 75
     0
147
0.1148885871608098
 76
     0
 77
     2
 78
   300
148
0.0
149
0.0
100
AcDbLayout
  1
Model
 70
     1
 71
     0
 10
0.0
 20
0.0
 11
12.0
 21
9.0
 12
0.0
 22
0.0
 32
0.0
 14
0.0
 24
0.0
 34
0.0
 15
0.0
 25
0.0
 35
0.0
146
0.0
 13
0.0
 23
0.0
 33
0.0
 16
1.0
 26
0.0
 36
0.0
 17
0.0
 27
1.0
 37
0.0
 76
     0
330
1F
331
EA
1001
ACAD_PSEXT
1000
None
1000
None
1000
Not applicable
1000
The layout will not be plotted unless a new plotter configuration name is selected.
1070
     0
  0
LAYOUT
  5
D3
102
{ACAD_REACTORS
330
1A
102
}
330
1A
100
AcDbPlotSettings
  1

  2
C:\Documents and Settings\basas\Application Data\Autodesk\AutoCAD 2005\R16.1\enu\plotters\Default Windows System Printer.pc3
  4

  6

 40
0.0
 41
0.0
 42
0.0
 43
0.0
 44
0.0
 45
0.0
 46
0.0
 47
0.0
 48
0.0
 49
0.0
140
0.0
141
0.0
142
1.0
143
1.0
 70
   688
 72
     0
 73
     0
 74
     5
  7

 75
    16
147
1.0
 76
     0
 77
     2
 78
   300
148
0.0
149
0.0
100
AcDbLayout
  1
レイアウト1
 70
     1
 71
     1
 10
0.0
 20
0.0
 11
12.0
 21
9.0
 12
0.0
 22
0.0
 32
0.0
 14
0.0
 24
0.0
 34
0.0
 15
0.0
 25
0.0
 35
0.0
146
0.0
 13
0.0
 23
0.0
 33
0.0
 16
1.0
 26
0.0
 36
0.0
 17
0.0
 27
1.0
 37
0.0
 76
     0
330
D2
  0
LAYOUT
  5
D7
102
{ACAD_REACTORS
330
1A
102
}
330
1A
100
AcDbPlotSettings
  1

  2
C:\Documents and Settings\basas\Application Data\Autodesk\AutoCAD 2005\R16.1\enu\plotters\Default Windows System Printer.pc3
  4

  6

 40
0.0
 41
0.0
 42
0.0
 43
0.0
 44
0.0
 45
0.0
 46
0.0
 47
0.0
 48
0.0
 49
0.0
140
0.0
141
0.0
142
1.0
143
1.0
 70
   688
 72
     0
 73
     0
 74
     5
  7

 75
    16
147
1.0
 76
     0
 77
     2
 78
   300
148
0.0
149
0.0
100
AcDbLayout
  1
レイアウト2
 70
     1
 71
     2
 10
0.0
 20
0.0
 11
12.0
 21
9.0
 12
0.0
 22
0.0
 32
0.0
 14
0.0
 24
0.0
 34
0.0
 15
0.0
 25
0.0
 35
0.0
146
0.0
 13
0.0
 23
0.0
 33
0.0
 16
1.0
 26
0.0
 36
0.0
 17
0.0
 27
1.0
 37
0.0
 76
     0
330
D6
  0
MATERIAL
  5
ED
102
{ACAD_XDICTIONARY
360
1F9
102
}
102
{ACAD_REACTORS
330
6A
102
}
330
6A
100
AcDbMaterial
  1
ByBlock
 94
       63
  0
MATERIAL
  5
EC
102
{ACAD_XDICTIONARY
360
1F7
102
}
102
{ACAD_REACTORS
330
6A
102
}
330
6A
100
AcDbMaterial
  1
ByLayer
 94
       63
  0
MATERIAL
  5
EE
102
{ACAD_XDICTIONARY
360
173
102
}
102
{ACAD_REACTORS
330
6A
102
}
330
6A
100
AcDbMaterial
  1
Global
 43
0.0007999999797903
 43
0.0
 43
0.0
 43
0.0
 43
0.0
 43
0.0007999999797903
 43
0.0
 43
0.0
 43
0.0
 43
0.0
 43
1.0
 43
0.0
 43
0.0
 43
0.0
 43
0.0
 43
1.0
 49
0.0007999999797903
 49
0.0
 49
0.0
 49
0.0
 49
0.0
 49
0.0007999999797903
 49
0.0
 49
0.0
 49
0.0
 49
0.0
 49
1.0
 49
0.0
 49
0.0
 49
0.0
 49
0.0
 49
1.0
142
0.0007999999797903
142
0.0
142
0.0
142
0.0
142
0.0
142
0.0007999999797903
142
0.0
142
0.0
142
0.0
142
0.0
142
1.0
142
0.0
142
0.0
142
0.0
142
0.0
142
1.0
144
0.0007999999797903
144
0.0
144
0.0
144
0.0
144
0.0
144
0.0007999999797903
144
0.0
144
0.0
144
0.0
144
0.0
144
1.0
144
0.0
144
0.0
144
0.0
144
0.0
144
1.0
 94
       63
1001
ACAD
1070
    -1
1070
     3
1070
     0
1000

1071
        0
1070
     0
  0
MLEADERSTYLE
  5
13B
102
{ACAD_REACTORS
330
12D
102
}
330
12D
100
AcDbMLeaderStyle
179
     2
170
     2
171
     1
172
     0
 90
        2
 40
0.0
 41
0.0
173
     1
 91
-1056964608
340
14
 92
       -2
290
     1
 42
2.0
291
     1
 43
8.0
  3
Standard
 44
4.0
300

342
11
174
     1
178
     1
175
     1
176
     0
 93
-1056964608
 45
4.0
292
     0
297
     0
 46
4.0
 94
-1056964608
 47
1.0
 49
1.0
140
1.0
293
     1
141
0.0
294
     1
177
     0
142
1.0
295
     0
296
     1
143
3.75
271
     0
272
     9
273
     9
298
     0
  0
MLEADERSTYLE
  5
12E
102
{ACAD_REACTORS
330
12D
102
}
330
12D
100
AcDbMLeaderStyle
179
     2
170
     2
171
     1
172
     0
 90
        2
 40
0.0
 41
0.0
173
     1
 91
-1056964608
340
14
 92
       -2
290
     1
 42
2.0
291
     1
 43
8.0
  3
Standard
 44
4.0
300

342
11
174
     1
178
     1
175
     1
176
     0
 93
-1056964608
 45
4.0
292
     0
297
     0
 46
4.0
 94
-1056964608
 47
1.0
 49
1.0
140
1.0
293
     1
141
0.0
294
     1
177
     0
142
1.0
295
     0
296
     0
143
3.75
271
     0
272
     9
273
     9
298
     0
  0
MLINESTYLE
  5
18
102
{ACAD_REACTORS
330
17
102
}
330
17
100
AcDbMlineStyle
  2
STANDARD
 70
     0
  3

 62
   256
 51
90.0
 52
90.0
 71
     2
 49
0.5
 62
   256
  6
BYLAYER
 49
-0.5
 62
   256
  6
BYLAYER
  0
ACDBPLACEHOLDER
  5
F
102
{ACAD_REACTORS
330
E
102
}
330
E
  0
RAPIDRTRENDERSETTINGS
  5
2BF
102
{ACAD_REACTORS
330
2B9
102
}
330
2B9
100
AcDbRenderSettings
 90
        2
  1
オーバーナイト品質
290
     1
290
     0
290
     1
290
     1
  1

  1
12 時間のレンダリング
 90
        5
100
AcDbRapidRTRenderSettings
 90
        3
 70
     1
 90
        1
 90
      720
 70
     2
 70
     2
 40
3.0
 40
3.0
290
     1
  0
RAPIDRTRENDERSETTINGS
  5
2BD
102
{ACAD_REACTORS
330
2B9
102
}
330
2B9
100
AcDbRenderSettings
 90
        2
  1
コーヒー ブレイク品質
290
     1
290
     0
290
     1
290
     1
  1

  1
10 分のレンダリング
 90
        3
100
AcDbRapidRTRenderSettings
 90
        3
 70
     1
 90
        1
 90
       10
 70
     1
 70
     2
 40
3.0
 40
3.0
290
     1
  0
RAPIDRTRENDERSETTINGS
  5
2BE
102
{ACAD_REACTORS
330
2B9
102
}
330
2B9
100
AcDbRenderSettings
 90
        2
  1
ランチ タイム品質
290
     1
290
     0
290
     1
290
     1
  1

  1
60 分のレンダリング
 90
        4
100
AcDbRapidRTRenderSettings
 90
        3
 70
     1
 90
        1
 90
       60
 70
     2
 70
     2
 40
3.0
 40
3.0
290
     1
  0
RAPIDRTRENDERSETTINGS
  5
2BB
102
{ACAD_REACTORS
330
2B9
102
}
330
2B9
100
AcDbRenderSettings
 90
        2
  1
中
290
     1
290
     0
290
     1
290
     1
  1

  1
5 レンダリング レベルを適用
 90
        1
100
AcDbRapidRTRenderSettings
 90
        3
 70
     0
 90
        5
 90
        1
 70
     1
 70
     2
 40
3.0
 40
3.0
290
     1
  0
RAPIDRTRENDERSETTINGS
  5
2BA
102
{ACAD_REACTORS
330
2B9
102
}
330
2B9
100
AcDbRenderSettings
 90
        2
  1
低
290
     1
290
     0
290
     1
290
     1
  1

  1
1 レンダリング レベルを適用
 90
        0
100
AcDbRapidRTRenderSettings
 90
        3
 70
     0
 90
        1
 90
        1
 70
     0
 70
     2
 40
3.0
 40
3.0
290
     1
  0
RAPIDRTRENDERSETTINGS
  5
2BC
102
{ACAD_REACTORS
330
2B9
102
}
330
2B9
100
AcDbRenderSettings
 90
        2
  1
高
290
     1
290
     0
290
     1
290
     1
  1

  1
10 レンダリング レベルを適用
 90
        2
100
AcDbRapidRTRenderSettings
 90
        3
 70
     0
 90
       10
 90
        1
 70
     2
 70
     2
 40
3.0
 40
3.0
290
     1
  0
SCALE
  5
10D
102
{ACAD_REACTORS
330
10C
102
}
330
10C
100
AcDbScale
 70
     0
300
1:1
140
1.0
141
1.0
290
     1
  0
SCALE
  5
1BE
102
{ACAD_REACTORS
330
10C
102
}
330
10C
100
AcDbScale
 70
     0
300
1:2
140
1.0
141
2.0
290
     0
  0
SCALE
  5
1BF
102
{ACAD_REACTORS
330
10C
102
}
330
10C
100
AcDbScale
 70
     0
300
1:4
140
1.0
141
4.0
290
     0
  0
SCALE
  5
1C0
102
{ACAD_REACTORS
330
10C
102
}
330
10C
100
AcDbScale
 70
     0
300
1:5
140
1.0
141
5.0
290
     0
  0
SCALE
  5
1C1
102
{ACAD_REACTORS
330
10C
102
}
330
10C
100
AcDbScale
 70
     0
300
1:8
140
1.0
141
8.0
290
     0
  0
SCALE
  5
1C2
102
{ACAD_REACTORS
330
10C
102
}
330
10C
100
AcDbScale
 70
     0
300
1:10
140
1.0
141
10.0
290
     0
  0
SCALE
  5
1C3
102
{ACAD_REACTORS
330
10C
102
}
330
10C
100
AcDbScale
 70
     0
300
1:16
140
1.0
141
16.0
290
     0
  0
SCALE
  5
1C4
102
{ACAD_REACTORS
330
10C
102
}
330
10C
100
AcDbScale
 70
     0
300
1:20
140
1.0
141
20.0
290
     0
  0
SCALE
  5
1C5
102
{ACAD_REACTORS
330
10C
102
}
330
10C
100
AcDbScale
 70
     0
300
1:30
140
1.0
141
30.0
290
     0
  0
SCALE
  5
1C6
102
{ACAD_REACTORS
330
10C
102
}
330
10C
100
AcDbScale
 70
     0
300
1:40
140
1.0
141
40.0
290
     0
  0
SCALE
  5
1C7
102
{ACAD_REACTORS
330
10C
102
}
330
10C
100
AcDbScale
 70
     0
300
1:50
140
1.0
141
50.0
290
     0
  0
SCALE
  5
1C8
102
{ACAD_REACTORS
330
10C
102
}
330
10C
100
AcDbScale
 70
     0
300
1:100
140
1.0
141
100.0
290
     0
  0
SCALE
  5
1C9
102
{ACAD_REACTORS
330
10C
102
}
330
10C
100
AcDbScale
 70
     0
300
2:1
140
2.0
141
1.0
290
     0
  0
SCALE
  5
1CA
102
{ACAD_REACTORS
330
10C
102
}
330
10C
100
AcDbScale
 70
     0
300
4:1
140
4.0
141
1.0
290
     0
  0
SCALE
  5
1CB
102
{ACAD_REACTORS
330
10C
102
}
330
10C
100
AcDbScale
 70
     0
300
8:1
140
8.0
141
1.0
290
     0
  0
SCALE
  5
1CC
102
{ACAD_REACTORS
330
10C
102
}
330
10C
100
AcDbScale
 70
     0
300
10:1
140
10.0
141
1.0
290
     0
  0
SCALE
  5
1CD
102
{ACAD_REACTORS
330
10C
102
}
330
10C
100
AcDbScale
 70
     0
300
100:1
140
100.0
141
1.0
290
     0
  0
ACDBSECTIONVIEWSTYLE
  5
21A
102
{ACAD_REACTORS
330
219
102
}
330
219
100
AcDbModelDocViewStyle
 70
     0
  3
Metric50
290
     0
300
Metric50
 90
        0
100
AcDbSectionViewStyle
 70
     0
 71
     0
 90
      102
 71
     1
340
11
 62
   256
 40
5.0
340
0
340
0
 62
   256
 40
5.0
300
I, O, Q, S, X, Z
 40
10.0
 90
        0
 40
2.5
 90
        0
 71
     2
340
16
 90
       25
 62
   256
340
16
 90
       50
 62
   256
 40
5.0
 40
2.5
 40
5.0
 71
     3
340
11
 62
   256
 40
5.0
 90
        0
 40
15.0
 90
        1
300
%<\AcVar ViewSectionStartId>%-%<\AcVar ViewSectionEndId>% (%<\AcVar ViewScale \f "%sn">%)
 71
     4
 62
   256
 62
   257
300
ANSI31
 40
1.0
 90
        0
290
     0
290
     0
 90
        6
 40
0.0
 40
1.570796326794896
 40
0.2617993877991494
 40
1.308996938995747
 40
-0.2617993877991494
 40
1.832595714594046
  0
TABLESTYLE
  5
7F
102
{ACAD_XDICTIONARY
360
162
102
}
102
{ACAD_REACTORS
330
7E
102
}
330
7E
100
AcDbTableStyle
280
     0
  3
Standard
 70
     0
 71
     0
 40
1.5
 41
1.5
280
     0
281
     0
  7
Standard
140
4.5
170
     2
 62
     0
 63
     7
283
     0
 90
      512
 91
        0
  1

274
    -2
284
     1
 64
     0
275
    -2
285
     1
 65
     0
276
    -2
286
     1
 66
     0
277
    -2
287
     1
 67
     0
278
    -2
288
     1
 68
     0
279
    -2
289
     1
 69
     0
  7
Standard
140
6.0
170
     5
 62
     0
 63
     7
283
     0
 90
      512
 91
        0
  1

274
    -2
284
     1
 64
     0
275
    -2
285
     1
 65
     0
276
    -2
286
     1
 66
     0
277
    -2
287
     1
 67
     0
278
    -2
288
     1
 68
     0
279
    -2
289
     1
 69
     0
  7
Standard
140
4.5
170
     5
 62
     0
 63
     7
283
     0
 90
      512
 91
        0
  1

274
    -2
284
     1
 64
     0
275
    -2
285
     1
 65
     0
276
    -2
286
     1
 66
     0
277
    -2
287
     1
 67
     0
278
    -2
288
     1
 68
     0
279
    -2
289
     1
 69
     0
  0
VISUALSTYLE
  5
F5
102
{ACAD_REACTORS
330
EF
102
}
330
EF
100
AcDbVisualStyle
  2
2dWireframe
 70
     4
177
     3
291
     0
 70
    58
 90
        0
176
     1
 90
        2
176
     1
 90
        1
176
     1
 90
        0
176
     1
 40
0.6
176
     1
 40
30.0
176
     1
 62
     7
420
 16777215
176
     1
 90
        1
176
     1
 90
        4
176
     1
 62
     7
176
     1
 62
   257
176
     1
 90
        1
176
     1
 90
        1
176
     1
 40
1.0
176
     1
 90
        0
176
     1
 62
   257
176
     1
 40
1.0
176
     1
 90
        1
176
     1
 90
        6
176
     1
 90
        2
176
     1
 62
     7
176
     1
 90
        5
176
     1
 90
        0
176
     1
 90
        0
176
     1
290
     0
176
     1
 90
        1
176
     1
 40
0.0
176
     1
 90
        0
176
     1
290
     1
176
     1
290
     1
176
     1
290
     0
176
     1
290
     0
176
     1
290
     0
176
     1
290
     0
176
     1
290
     0
176
     1
290
     0
176
     1
290
     0
176
     1
 90
       50
176
     1
 40
0.0
176
     1
 40
1.0
176
     1
 90
        0
176
     1
 62
    18
420
        0
176
     1
 90
       50
176
     1
 90
        3
176
     1
 62
     5
420
      255
176
     1
290
     0
176
     1
 90
       50
176
     1
 90
       50
176
     1
 90
       50
176
     1
290
     0
176
     1
 90
       50
176
     1
 62
   256
176
     0
 40
1.0
176
     0
 90
        2
176
     1
  1
strokes_ogs.tif
176
     1
290
     0
176
     1
 40
1.0
176
     1
 40
1.0
176
     1
  0
VISUALSTYLE
  5
F4
102
{ACAD_REACTORS
330
EF
102
}
330
EF
100
AcDbVisualStyle
  2
Basic
 70
     7
177
     3
291
     1
 70
    58
 90
        1
176
     1
 90
        0
176
     1
 90
        1
176
     1
 90
        0
176
     1
 40
0.6
176
     1
 40
30.0
176
     1
 62
     7
420
 16777215
176
     1
 90
        0
176
     1
 90
        4
176
     1
 62
     7
176
     1
 62
   257
176
     1
 90
        1
176
     1
 90
        1
176
     1
 40
1.0
176
     1
 90
        8
176
     1
 62
     7
176
     1
 40
1.0
176
     1
 90
        1
176
     1
 90
        6
176
     1
 90
        2
176
     1
 62
     7
176
     1
 90
        5
176
     1
 90
        0
176
     1
 90
        0
176
     1
290
     0
176
     1
 90
        1
176
     1
 40
0.0
176
     1
 90
        0
176
     1
290
     0
176
     1
290
     1
176
     1
290
     1
176
     1
290
     0
176
     1
290
     0
176
     1
290
     0
176
     1
290
     0
176
     1
290
     0
176
     1
290
     0
176
     1
 90
       50
176
     1
 40
0.0
176
     1
 40
1.0
176
     1
 90
        0
176
     1
 62
    18
420
        0
176
     1
 90
       50
176
     1
 90
        3
176
     1
 62
     5
420
      255
176
     1
290
     0
176
     1
 90
       50
176
     1
 90
       50
176
     1
 90
       50
176
     1
290
     0
176
     1
 90
       50
176
     1
 62
   256
176
     0
 40
1.0
176
     0
 90
        2
176
     1
  1
strokes_ogs.tif
176
     1
290
     0
176
     1
 40
1.0
176
     1
 40
1.0
176
     1
  0
VISUALSTYLE
  5
FB
102
{ACAD_REACTORS
330
EF
102
}
330
EF
100
AcDbVisualStyle
  2
Brighten
 70
    12
177
     3
291
     1
 70
    58
 90
        2
176
     1
 90
        2
176
     1
 90
        1
176
     1
 90
        0
176
     1
 40
0.6
176
     1
 40
30.0
176
     1
 62
     7
420
 16777215
176
     1
 90
        1
176
     1
 90
        4
176
     1
 62
     7
176
     1
 62
   257
176
     1
 90
        1
176
     1
 90
        1
176
     1
 40
1.0
176
     1
 90
        8
176
     1
 62
     7
176
     1
 40
1.0
176
     1
 90
        1
176
     1
 90
        6
176
     1
 90
        2
176
     1
 62
     7
176
     1
 90
        5
176
     1
 90
        0
176
     1
 90
        0
176
     1
290
     0
176
     1
 90
        1
176
     1
 40
50.0
176
     1
 90
        0
176
     1
290
     0
176
     1
290
     1
176
     1
290
     1
176
     1
290
     0
176
     1
290
     0
176
     1
290
     0
176
     1
290
     0
176
     1
290
     0
176
     1
290
     0
176
     1
 90
       50
176
     1
 40
0.0
176
     1
 40
1.0
176
     1
 90
        0
176
     1
 62
    18
420
        0
176
     1
 90
       50
176
     1
 90
        3
176
     1
 62
     5
420
      255
176
     1
290
     0
176
     1
 90
       50
176
     1
 90
       50
176
     1
 90
       50
176
     1
290
     0
176
     1
 90
       50
176
     1
 62
   256
176
     0
 40
1.0
176
     0
 90
        2
176
     1
  1
strokes_ogs.tif
176
     1
290
     0
176
     1
 40
1.0
176
     1
 40
1.0
176
     1
  0
VISUALSTYLE
  5
FF
102
{ACAD_REACTORS
330
EF
102
}
330
EF
100
AcDbVisualStyle
  2
ColorChange
 70
    16
177
     3
291
     1
 70
    58
 90
        2
176
     1
 90
        2
176
     1
 90
        3
176
     1
 90
        0
176
     1
 40
0.6
176
     1
 40
30.0
176
     1
 62
     8
420
  8421504
176
     1
 90
        1
176
     1
 90
        4
176
     1
 62
     7
176
     1
 62
   257
176
     1
 90
        1
176
     1
 90
        1
176
     1
 40
1.0
176
     1
 90
        8
176
     1
 62
     8
420
  8421504
176
     1
 40
1.0
176
     1
 90
        1
176
     1
 90
        6
176
     1
 90
        2
176
     1
 62
     7
176
     1
 90
        5
176
     1
 90
        0
176
     1
 90
        0
176
     1
290
     0
176
     1
 90
        1
176
     1
 40
0.0
176
     1
 90
        0
176
     1
290
     0
176
     1
290
     1
176
     1
290
     1
176
     1
290
     0
176
     1
290
     0
176
     1
290
     0
176
     1
290
     0
176
     1
290
     0
176
     1
290
     0
176
     1
 90
       50
176
     1
 40
0.0
176
     1
 40
1.0
176
     1
 90
        0
176
     1
 62
    18
420
        0
176
     1
 90
       50
176
     1
 90
        3
176
     1
 62
     5
420
      255
176
     1
290
     0
176
     1
 90
       50
176
     1
 90
       50
176
     1
 90
       50
176
     1
290
     0
176
     1
 90
       50
176
     1
 62
   256
176
     0
 40
1.0
176
     0
 90
        2
176
     1
  1
strokes_ogs.tif
176
     1
290
     0
176
     1
 40
1.0
176
     1
 40
1.0
176
     1
  0
VISUALSTYLE
  5
F8
102
{ACAD_REACTORS
330
EF
102
}
330
EF
100
AcDbVisualStyle
  2
Conceptual
 70
     9
177
     3
291
     0
 70
    58
 90
        3
176
     1
 90
        2
176
     1
 90
        1
176
     1
 90
        0
176
     1
 40
0.6
176
     1
 40
30.0
176
     1
 62
     7
420
 16777215
176
     1
 90
        2
176
     1
 90
        2
176
     1
 62
     7
176
     1
 62
   257
176
     1
 90
        1
176
     1
 90
        1
176
     1
 40
40.0
176
     1
 90
        8
176
     1
 62
     7
176
     1
 40
1.0
176
     1
 90
        1
176
     1
 90
        6
176
     1
 90
        2
176
     1
 62
     7
176
     1
 90
        3
176
     1
 90
        0
176
     1
 90
        0
176
     1
290
     0
176
     1
 90
        1
176
     1
 40
0.0
176
     1
 90
        0
176
     1
290
     0
176
     1
290
     1
176
     1
290
     1
176
     1
290
     0
176
     1
290
     0
176
     1
290
     0
176
     1
290
     0
176
     1
290
     0
176
     1
290
     0
176
     1
 90
       50
176
     1
 40
0.0
176
     1
 40
1.0
176
     1
 90
        0
176
     1
 62
    18
420
        0
176
     1
 90
       50
176
     1
 90
        3
176
     1
 62
     5
420
      255
176
     1
290
     0
176
     1
 90
       50
176
     1
 90
       50
176
     1
 90
       50
176
     1
290
     0
176
     1
 90
       50
176
     1
 62
   256
176
     0
 40
1.0
176
     0
 90
        2
176
     1
  1
strokes_ogs.tif
176
     1
290
     0
176
     1
 40
1.0
176
     1
 40
1.0
176
     1
  0
VISUALSTYLE
  5
FA
102
{ACAD_REACTORS
330
EF
102
}
330
EF
100
AcDbVisualStyle
  2
Dim
 70
    11
177
     3
291
     1
 70
    58
 90
        2
176
     1
 90
        2
176
     1
 90
        1
176
     1
 90
        0
176
     1
 40
0.6
176
     1
 40
30.0
176
     1
 62
     7
420
 16777215
176
     1
 90
        1
176
     1
 90
        4
176
     1
 62
     7
176
     1
 62
   257
176
     1
 90
        1
176
     1
 90
        1
176
     1
 40
1.0
176
     1
 90
        8
176
     1
 62
     7
176
     1
 40
1.0
176
     1
 90
        1
176
     1
 90
        6
176
     1
 90
        2
176
     1
 62
     7
176
     1
 90
        5
176
     1
 90
        0
176
     1
 90
        0
176
     1
290
     0
176
     1
 90
        1
176
     1
 40
-50.0
176
     1
 90
        0
176
     1
290
     0
176
     1
290
     1
176
     1
290
     1
176
     1
290
     0
176
     1
290
     0
176
     1
290
     0
176
     1
290
     0
176
     1
290
     0
176
     1
290
     0
176
     1
 90
       50
176
     1
 40
0.0
176
     1
 40
1.0
176
     1
 90
        0
176
     1
 62
    18
420
        0
176
     1
 90
       50
176
     1
 90
        3
176
     1
 62
     5
420
      255
176
     1
290
     0
176
     1
 90
       50
176
     1
 90
       50
176
     1
 90
       50
176
     1
290
     0
176
     1
 90
       50
176
     1
 62
   256
176
     0
 40
1.0
176
     0
 90
        2
176
     1
  1
strokes_ogs.tif
176
     1
290
     0
176
     1
 40
1.0
176
     1
 40
1.0
176
     1
  0
VISUALSTYLE
  5
1E6
102
{ACAD_REACTORS
330
EF
102
}
330
EF
100
AcDbVisualStyle
  2
EdgeColorOff
 70
    22
177
     3
291
     1
 70
    58
 90
        2
176
     0
 90
        2
176
     0
 90
        0
176
     0
 90
        0
176
     0
 40
0.6
176
     0
 40
30.0
176
     0
 62
     7
420
 16777215
176
     0
 90
        1
176
     0
 90
        4
176
     0
 62
     7
176
     0
 62
   257
176
     0
 90
        1
176
     0
 90
        1
176
     0
 40
1.0
176
     0
 90
        8
176
     2
 62
     7
176
     0
 40
1.0
176
     0
 90
        1
176
     0
 90
        6
176
     0
 90
        2
176
     0
 62
     7
176
     0
 90
        5
176
     0
 90
        0
176
     0
 90
        0
176
     0
290
     0
176
     0
 90
        1
176
     0
 40
0.0
176
     0
 90
        0
176
     0
290
     0
176
     1
290
     1
176
     1
290
     1
176
     1
290
     0
176
     1
290
     0
176
     1
290
     0
176
     1
290
     0
176
     1
290
     0
176
     1
290
     0
176
     1
 90
       50
176
     1
 40
0.0
176
     1
 40
1.0
176
     1
 90
        0
176
     1
 62
    18
420
        0
176
     1
 90
       50
176
     1
 90
        3
176
     1
 62
     5
420
      255
176
     1
290
     0
176
     1
 90
       50
176
     1
 90
       50
176
     1
 90
       50
176
     1
290
     0
176
     1
 90
       50
176
     1
 62
   256
176
     0
 40
1.0
176
     0
 90
        2
176
     1
  1
strokes_ogs.tif
176
     1
290
     0
176
     1
 40
1.0
176
     1
 40
1.0
176
     1
  0
VISUALSTYLE
  5
FE
102
{ACAD_REACTORS
330
EF
102
}
330
EF
100
AcDbVisualStyle
  2
Facepattern
 70
    15
177
     3
291
     1
 70
    58
 90
        2
176
     1
 90
        2
176
     1
 90
        1
176
     1
 90
        0
176
     1
 40
0.6
176
     1
 40
30.0
176
     1
 62
     7
420
 16777215
176
     1
 90
        1
176
     1
 90
        4
176
     1
 62
     7
176
     1
 62
   257
176
     1
 90
        1
176
     1
 90
        1
176
     1
 40
1.0
176
     1
 90
        8
176
     1
 62
     7
176
     1
 40
1.0
176
     1
 90
        1
176
     1
 90
        6
176
     1
 90
        2
176
     1
 62
     7
176
     1
 90
        5
176
     1
 90
        0
176
     1
 90
        0
176
     1
290
     0
176
     1
 90
        1
176
     1
 40
0.0
176
     1
 90
        0
176
     1
290
     0
176
     1
290
     1
176
     1
290
     1
176
     1
290
     0
176
     1
290
     0
176
     1
290
     0
176
     1
290
     0
176
     1
290
     0
176
     1
290
     0
176
     1
 90
       50
176
     1
 40
0.0
176
     1
 40
1.0
176
     1
 90
        0
176
     1
 62
    18
420
        0
176
     1
 90
       50
176
     1
 90
        3
176
     1
 62
     5
420
      255
176
     1
290
     0
176
     1
 90
       50
176
     1
 90
       50
176
     1
 90
       50
176
     1
290
     0
176
     1
 90
       50
176
     1
 62
   256
176
     0
 40
1.0
176
     0
 90
        2
176
     1
  1
strokes_ogs.tif
176
     1
290
     0
176
     1
 40
1.0
176
     1
 40
1.0
176
     1
  0
VISUALSTYLE
  5
F0
102
{ACAD_REACTORS
330
EF
102
}
330
EF
100
AcDbVisualStyle
  2
Flat
 70
     0
177
     3
291
     1
 70
    58
 90
        2
176
     1
 90
        1
176
     1
 90
        1
176
     1
 90
        2
176
     1
 40
0.6
176
     1
 40
30.0
176
     1
 62
     7
420
 16777215
176
     1
 90
        0
176
     1
 90
        0
176
     1
 62
     7
176
     1
 62
   257
176
     1
 90
        1
176
     1
 90
        1
176
     1
 40
1.0
176
     1
 90
        8
176
     1
 62
     7
176
     1
 40
1.0
176
     1
 90
        1
176
     1
 90
        6
176
     1
 90
        2
176
     1
 62
     7
176
     1
 90
        5
176
     1
 90
        0
176
     1
 90
        0
176
     1
290
     0
176
     1
 90
       13
176
     1
 40
0.0
176
     1
 90
        0
176
     1
290
     0
176
     1
290
     1
176
     1
290
     1
176
     1
290
     0
176
     1
290
     0
176
     1
290
     0
176
     1
290
     0
176
     1
290
     0
176
     1
290
     0
176
     1
 90
       50
176
     1
 40
0.0
176
     1
 40
1.0
176
     1
 90
        0
176
     1
 62
    18
420
        0
176
     1
 90
       50
176
     1
 90
        3
176
     1
 62
     5
420
      255
176
     1
290
     0
176
     1
 90
       50
176
     1
 90
       50
176
     1
 90
       50
176
     1
290
     0
176
     1
 90
       50
176
     1
 62
   256
176
     0
 40
1.0
176
     0
 90
        2
176
     1
  1
strokes_ogs.tif
176
     1
290
     0
176
     1
 40
1.0
176
     1
 40
1.0
176
     1
  0
VISUALSTYLE
  5
F1
102
{ACAD_REACTORS
330
EF
102
}
330
EF
100
AcDbVisualStyle
  2
FlatWithEdges
 70
     1
177
     3
291
     1
 70
    58
 90
        2
176
     1
 90
        1
176
     1
 90
        1
176
     1
 90
        2
176
     1
 40
0.6
176
     1
 40
30.0
176
     1
 62
     7
420
 16777215
176
     1
 90
        1
176
     1
 90
        0
176
     1
 62
     7
176
     1
 62
   257
176
     1
 90
        1
176
     1
 90
        1
176
     1
 40
1.0
176
     1
 90
        0
176
     1
 62
   257
176
     1
 40
1.0
176
     1
 90
        1
176
     1
 90
        6
176
     1
 90
        2
176
     1
 62
     7
176
     1
 90
        5
176
     1
 90
        0
176
     1
 90
        0
176
     1
290
     0
176
     1
 90
       13
176
     1
 40
0.0
176
     1
 90
        0
176
     1
290
     0
176
     1
290
     1
176
     1
290
     1
176
     1
290
     0
176
     1
290
     0
176
     1
290
     0
176
     1
290
     0
176
     1
290
     0
176
     1
290
     0
176
     1
 90
       50
176
     1
 40
0.0
176
     1
 40
1.0
176
     1
 90
        0
176
     1
 62
    18
420
        0
176
     1
 90
       50
176
     1
 90
        3
176
     1
 62
     5
420
      255
176
     1
290
     0
176
     1
 90
       50
176
     1
 90
       50
176
     1
 90
       50
176
     1
290
     0
176
     1
 90
       50
176
     1
 62
   256
176
     0
 40
1.0
176
     0
 90
        2
176
     1
  1
strokes_ogs.tif
176
     1
290
     0
176
     1
 40
1.0
176
     1
 40
1.0
176
     1
  0
VISUALSTYLE
  5
F2
102
{ACAD_REACTORS
330
EF
102
}
330
EF
100
AcDbVisualStyle
  2
Gouraud
 70
     2
177
     3
291
     1
 70
    58
 90
        2
176
     1
 90
        2
176
     1
 90
        1
176
     1
 90
        2
176
     1
 40
0.6
176
     1
 40
30.0
176
     1
 62
     7
420
 16777215
176
     1
 90
        0
176
     1
 90
        0
176
     1
 62
     7
176
     1
 62
   257
176
     1
 90
        1
176
     1
 90
        1
176
     1
 40
1.0
176
     1
 90
        0
176
     1
 62
     7
176
     1
 40
1.0
176
     1
 90
        1
176
     1
 90
        6
176
     1
 90
        2
176
     1
 62
     7
176
     1
 90
        5
176
     1
 90
        0
176
     1
 90
        0
176
     1
290
     0
176
     1
 90
       13
176
     1
 40
0.0
176
     1
 90
        0
176
     1
290
     0
176
     1
290
     1
176
     1
290
     1
176
     1
290
     0
176
     1
290
     0
176
     1
290
     0
176
     1
290
     0
176
     1
290
     0
176
     1
290
     0
176
     1
 90
       50
176
     1
 40
0.0
176
     1
 40
1.0
176
     1
 90
        0
176
     1
 62
    18
420
        0
176
     1
 90
       50
176
     1
 90
        3
176
     1
 62
     5
420
      255
176
     1
290
     0
176
     1
 90
       50
176
     1
 90
       50
176
     1
 90
       50
176
     1
290
     0
176
     1
 90
       50
176
     1
 62
   256
176
     0
 40
1.0
176
     0
 90
        2
176
     1
  1
strokes_ogs.tif
176
     1
290
     0
176
     1
 40
1.0
176
     1
 40
1.0
176
     1
  0
VISUALSTYLE
  5
F3
102
{ACAD_REACTORS
330
EF
102
}
330
EF
100
AcDbVisualStyle
  2
GouraudWithEdges
 70
     3
177
     3
291
     1
 70
    58
 90
        2
176
     1
 90
        2
176
     1
 90
        1
176
     1
 90
        2
176
     1
 40
0.6
176
     1
 40
30.0
176
     1
 62
     7
420
 16777215
176
     1
 90
        1
176
     1
 90
        0
176
     1
 62
     7
176
     1
 62
   257
176
     1
 90
        1
176
     1
 90
        1
176
     1
 40
1.0
176
     1
 90
        0
176
     1
 62
   257
176
     1
 40
1.0
176
     1
 90
        1
176
     1
 90
        6
176
     1
 90
        2
176
     1
 62
     7
176
     1
 90
        5
176
     1
 90
        0
176
     1
 90
        0
176
     1
290
     0
176
     1
 90
       13
176
     1
 40
0.0
176
     1
 90
        0
176
     1
290
     0
176
     1
290
     1
176
     1
290
     1
176
     1
290
     0
176
     1
290
     0
176
     1
290
     0
176
     1
290
     0
176
     1
290
     0
176
     1
290
     0
176
     1
 90
       50
176
     1
 40
0.0
176
     1
 40
1.0
176
     1
 90
        0
176
     1
 62
    18
420
        0
176
     1
 90
       50
176
     1
 90
        3
176
     1
 62
     5
420
      255
176
     1
290
     0
176
     1
 90
       50
176
     1
 90
       50
176
     1
 90
       50
176
     1
290
     0
176
     1
 90
       50
176
     1
 62
   256
176
     0
 40
1.0
176
     0
 90
        2
176
     1
  1
strokes_ogs.tif
176
     1
290
     0
176
     1
 40
1.0
176
     1
 40
1.0
176
     1
  0
VISUALSTYLE
  5
F7
102
{ACAD_REACTORS
330
EF
102
}
330
EF
100
AcDbVisualStyle
  2
Hidden
 70
     6
177
     3
291
     0
 70
    58
 90
        1
176
     1
 90
        2
176
     1
 90
        2
176
     1
 90
        0
176
     1
 40
0.6
176
     1
 40
30.0
176
     1
 62
     7
420
 16777215
176
     1
 90
        2
176
     1
 90
        2
176
     1
 62
     7
176
     1
 62
   257
176
     1
 90
        2
176
     1
 90
        1
176
     1
 40
40.0
176
     1
 90
        0
176
     1
 62
   257
176
     1
 40
1.0
176
     1
 90
        1
176
     1
 90
        6
176
     1
 90
        2
176
     1
 62
     7
176
     1
 90
        3
176
     1
 90
        0
176
     1
 90
        0
176
     1
290
     0
176
     1
 90
        1
176
     1
 40
0.0
176
     1
 90
        0
176
     1
290
     0
176
     1
290
     1
176
     1
290
     1
176
     1
290
     0
176
     1
290
     0
176
     1
290
     0
176
     1
290
     0
176
     1
290
     0
176
     1
290
     0
176
     1
 90
       50
176
     1
 40
0.0
176
     1
 40
1.0
176
     1
 90
        0
176
     1
 62
    18
420
        0
176
     1
 90
       50
176
     1
 90
        3
176
     1
 62
     5
420
      255
176
     1
290
     0
176
     1
 90
       50
176
     1
 90
       50
176
     1
 90
       50
176
     1
290
     0
176
     1
 90
       50
176
     1
 62
   256
176
     0
 40
1.0
176
     0
 90
        2
176
     1
  1
strokes_ogs.tif
176
     1
290
     0
176
     1
 40
1.0
176
     1
 40
1.0
176
     1
  0
VISUALSTYLE
  5
1E4
102
{ACAD_REACTORS
330
EF
102
}
330
EF
100
AcDbVisualStyle
  2
JitterOff
 70
    20
177
     3
291
     1
 70
    58
 90
        2
176
     0
 90
        2
176
     0
 90
        0
176
     0
 90
        0
176
     0
 40
0.6
176
     0
 40
30.0
176
     0
 62
     7
420
 16777215
176
     0
 90
        1
176
     0
 90
        4
176
     0
 62
     7
176
     0
 62
   257
176
     0
 90
        1
176
     0
 90
        1
176
     0
 40
1.0
176
     0
 90
       10
176
     2
 62
     7
176
     0
 40
1.0
176
     0
 90
        1
176
     0
 90
        6
176
     0
 90
        2
176
     0
 62
     7
176
     0
 90
        5
176
     0
 90
        0
176
     0
 90
        0
176
     0
290
     0
176
     0
 90
        1
176
     0
 40
0.0
176
     0
 90
        0
176
     0
290
     0
176
     1
290
     1
176
     1
290
     1
176
     1
290
     0
176
     1
290
     0
176
     1
290
     0
176
     1
290
     0
176
     1
290
     0
176
     1
290
     0
176
     1
 90
       50
176
     1
 40
0.0
176
     1
 40
1.0
176
     1
 90
        0
176
     1
 62
    18
420
        0
176
     1
 90
       50
176
     1
 90
        3
176
     1
 62
     5
420
      255
176
     1
290
     0
176
     1
 90
       50
176
     1
 90
       50
176
     1
 90
       50
176
     1
290
     0
176
     1
 90
       50
176
     1
 62
   256
176
     0
 40
1.0
176
     0
 90
        2
176
     1
  1
strokes_ogs.tif
176
     1
290
     0
176
     1
 40
1.0
176
     1
 40
1.0
176
     1
  0
VISUALSTYLE
  5
FD
102
{ACAD_REACTORS
330
EF
102
}
330
EF
100
AcDbVisualStyle
  2
Linepattern
 70
    14
177
     3
291
     1
 70
    58
 90
        2
176
     1
 90
        2
176
     1
 90
        1
176
     1
 90
        0
176
     1
 40
0.6
176
     1
 40
30.0
176
     1
 62
     7
420
 16777215
176
     1
 90
        1
176
     1
 90
        4
176
     1
 62
     7
176
     1
 62
   257
176
     1
 90
        7
176
     1
 90
        7
176
     1
 40
1.0
176
     1
 90
        8
176
     1
 62
     7
176
     1
 40
1.0
176
     1
 90
        1
176
     1
 90
        6
176
     1
 90
        2
176
     1
 62
     7
176
     1
 90
        5
176
     1
 90
        0
176
     1
 90
        0
176
     1
290
     0
176
     1
 90
        1
176
     1
 40
0.0
176
     1
 90
        0
176
     1
290
     0
176
     1
290
     1
176
     1
290
     1
176
     1
290
     0
176
     1
290
     0
176
     1
290
     0
176
     1
290
     0
176
     1
290
     0
176
     1
290
     0
176
     1
 90
       50
176
     1
 40
0.0
176
     1
 40
1.0
176
     1
 90
        0
176
     1
 62
    18
420
        0
176
     1
 90
       50
176
     1
 90
        3
176
     1
 62
     5
420
      255
176
     1
290
     0
176
     1
 90
       50
176
     1
 90
       50
176
     1
 90
       50
176
     1
290
     0
176
     1
 90
       50
176
     1
 62
   256
176
     0
 40
1.0
176
     0
 90
        2
176
     1
  1
strokes_ogs.tif
176
     1
290
     0
176
     1
 40
1.0
176
     1
 40
1.0
176
     1
  0
VISUALSTYLE
  5
1E5
102
{ACAD_REACTORS
330
EF
102
}
330
EF
100
AcDbVisualStyle
  2
OverhangOff
 70
    21
177
     3
291
     1
 70
    58
 90
        2
176
     0
 90
        2
176
     0
 90
        0
176
     0
 90
        0
176
     0
 40
0.6
176
     0
 40
30.0
176
     0
 62
     7
420
 16777215
176
     0
 90
        1
176
     0
 90
        4
176
     0
 62
     7
176
     0
 62
   257
176
     0
 90
        1
176
     0
 90
        1
176
     0
 40
1.0
176
     0
 90
        9
176
     2
 62
     7
176
     0
 40
1.0
176
     0
 90
        1
176
     0
 90
        6
176
     0
 90
        2
176
     0
 62
     7
176
     0
 90
        5
176
     0
 90
        0
176
     0
 90
        0
176
     0
290
     0
176
     0
 90
        1
176
     0
 40
0.0
176
     0
 90
        0
176
     0
290
     0
176
     1
290
     1
176
     1
290
     1
176
     1
290
     0
176
     1
290
     0
176
     1
290
     0
176
     1
290
     0
176
     1
290
     0
176
     1
290
     0
176
     1
 90
       50
176
     1
 40
0.0
176
     1
 40
1.0
176
     1
 90
        0
176
     1
 62
    18
420
        0
176
     1
 90
       50
176
     1
 90
        3
176
     1
 62
     5
420
      255
176
     1
290
     0
176
     1
 90
       50
176
     1
 90
       50
176
     1
 90
       50
176
     1
290
     0
176
     1
 90
       50
176
     1
 62
   256
176
     0
 40
1.0
176
     0
 90
        2
176
     1
  1
strokes_ogs.tif
176
     1
290
     0
176
     1
 40
1.0
176
     1
 40
1.0
176
     1
  0
VISUALSTYLE
  5
F9
102
{ACAD_REACTORS
330
EF
102
}
330
EF
100
AcDbVisualStyle
  2
Realistic
 70
     8
177
     3
291
     0
 70
    58
 90
        2
176
     1
 90
        3
176
     1
 90
        0
176
     1
 90
        2
176
     1
 40
0.6
176
     1
 40
30.0
176
     1
 62
     7
420
 16777215
176
     1
 90
        0
176
     1
 90
        0
176
     1
 62
     7
176
     1
 62
   257
176
     1
 90
        1
176
     1
 90
        1
176
     1
 40
1.0
176
     1
 90
        8
176
     1
 62
   257
176
     1
 40
1.0
176
     1
 90
        1
176
     1
 90
        6
176
     1
 90
        2
176
     1
 62
     7
176
     1
 90
        3
176
     1
 90
        0
176
     1
 90
        0
176
     1
290
     0
176
     1
 90
       13
176
     1
 40
0.0
176
     1
 90
        0
176
     1
290
     0
176
     1
290
     1
176
     1
290
     1
176
     1
290
     0
176
     1
290
     0
176
     1
290
     0
176
     1
290
     0
176
     1
290
     0
176
     1
290
     0
176
     1
 90
       50
176
     1
 40
0.0
176
     1
 40
1.0
176
     1
 90
        0
176
     1
 62
    18
420
        0
176
     1
 90
       50
176
     1
 90
        3
176
     1
 62
     5
420
      255
176
     1
290
     0
176
     1
 90
       50
176
     1
 90
       50
176
     1
 90
       50
176
     1
290
     0
176
     1
 90
       50
176
     1
 62
   256
176
     0
 40
1.0
176
     0
 90
        2
176
     1
  1
strokes_ogs.tif
176
     1
290
     0
176
     1
 40
1.0
176
     1
 40
1.0
176
     1
  0
VISUALSTYLE
  5
1F3
102
{ACAD_REACTORS
330
EF
102
}
330
EF
100
AcDbVisualStyle
  2
Shaded
 70
    27
177
     3
291
     0
 70
    58
 90
        2
176
     1
 90
        2
176
     1
 90
        1
176
     1
 90
        2
176
     1
 40
0.6
176
     1
 40
30.0
176
     1
 62
     7
420
 16777215
176
     1
 90
        0
176
     1
 90
        4
176
     1
 62
     7
176
     1
 62
   257
176
     1
 90
        1
176
     1
 90
        1
176
     1
 40
1.0
176
     1
 90
        8
176
     1
 62
   257
176
     1
 40
1.0
176
     1
 90
        1
176
     1
 90
        6
176
     1
 90
        2
176
     1
 62
     8
420
  7895160
176
     1
 90
        3
176
     1
 90
        0
176
     1
 90
        0
176
     1
290
     0
176
     1
 90
        5
176
     1
 40
0.0
176
     1
 90
        0
176
     1
290
     0
176
     1
290
     1
176
     1
290
     1
176
     1
290
     0
176
     1
290
     0
176
     1
290
     0
176
     1
290
     0
176
     1
290
     0
176
     1
290
     0
176
     1
 90
       50
176
     1
 40
0.0
176
     1
 40
1.0
176
     1
 90
        0
176
     1
 62
    18
420
        0
176
     1
 90
       50
176
     1
 90
        3
176
     1
 62
     5
420
      255
176
     1
290
     0
176
     1
 90
       50
176
     1
 90
       50
176
     1
 90
       50
176
     1
290
     0
176
     1
 90
       50
176
     1
 62
   256
176
     0
 40
1.0
176
     0
 90
        2
176
     1
  1
strokes_ogs.tif
176
     1
290
     0
176
     1
 40
1.0
176
     1
 40
1.0
176
     1
  0
VISUALSTYLE
  5
1F2
102
{ACAD_REACTORS
330
EF
102
}
330
EF
100
AcDbVisualStyle
  2
Shaded with edges
 70
    26
177
     3
291
     0
 70
    58
 90
        2
176
     1
 90
        2
176
     1
 90
        1
176
     1
 90
        2
176
     1
 40
0.6
176
     1
 40
30.0
176
     1
 62
     7
420
 16777215
176
     1
 90
        1
176
     1
 90
        2
176
     1
 62
     7
176
     1
 62
   257
176
     1
 90
        2
176
     1
 90
        1
176
     1
 40
1.0
176
     1
 90
        8
176
     1
 62
   257
176
     1
 40
1.0
176
     1
 90
        1
176
     1
 90
        6
176
     1
 90
        2
176
     1
 62
     7
176
     1
 90
        3
176
     1
 90
        0
176
     1
 90
        0
176
     1
290
     0
176
     1
 90
        5
176
     1
 40
0.0
176
     1
 90
        0
176
     1
290
     0
176
     1
290
     1
176
     1
290
     1
176
     1
290
     0
176
     1
290
     0
176
     1
290
     0
176
     1
290
     0
176
     1
290
     0
176
     1
290
     0
176
     1
 90
       50
176
     1
 40
0.0
176
     1
 40
1.0
176
     1
 90
        0
176
     1
 62
    18
420
        0
176
     1
 90
       50
176
     1
 90
        3
176
     1
 62
     5
420
      255
176
     1
290
     0
176
     1
 90
       50
176
     1
 90
       50
176
     1
 90
       50
176
     1
290
     0
176
     1
 90
       50
176
     1
 62
   256
176
     0
 40
1.0
176
     0
 90
        2
176
     1
  1
strokes_ogs.tif
176
     1
290
     0
176
     1
 40
1.0
176
     1
 40
1.0
176
     1
  0
VISUALSTYLE
  5
1EF
102
{ACAD_REACTORS
330
EF
102
}
330
EF
100
AcDbVisualStyle
  2
Shades of Gray
 70
    23
177
     3
291
     0
 70
    58
 90
        2
176
     1
 90
        2
176
     1
 90
        3
176
     1
 90
        0
176
     1
 40
0.6
176
     1
 40
30.0
176
     1
 62
     7
420
 16777215
176
     1
 90
        2
176
     1
 90
        2
176
     1
 62
     7
176
     1
 62
     7
176
     1
 90
        1
176
     1
 90
        1
176
     1
 40
40.0
176
     1
 90
        8
176
     1
 62
     7
176
     1
 40
1.0
176
     1
 90
        1
176
     1
 90
        6
176
     1
 90
        2
176
     1
 62
     7
176
     1
 90
        3
176
     1
 90
        0
176
     1
 90
        0
176
     1
290
     0
176
     1
 90
        1
176
     1
 40
0.0
176
     1
 90
        0
176
     1
290
     0
176
     1
290
     1
176
     1
290
     1
176
     1
290
     0
176
     1
290
     0
176
     1
290
     0
176
     1
290
     0
176
     1
290
     0
176
     1
290
     0
176
     1
 90
       50
176
     1
 40
0.0
176
     1
 40
1.0
176
     1
 90
        0
176
     1
 62
    18
420
        0
176
     1
 90
       50
176
     1
 90
        3
176
     1
 62
     5
420
      255
176
     1
290
     0
176
     1
 90
       50
176
     1
 90
       50
176
     1
 90
       50
176
     1
290
     0
176
     1
 90
       50
176
     1
 62
   256
176
     0
 40
1.0
176
     0
 90
        2
176
     1
  1
strokes_ogs.tif
176
     1
290
     0
176
     1
 40
1.0
176
     1
 40
1.0
176
     1
  0
VISUALSTYLE
  5
1F0
102
{ACAD_REACTORS
330
EF
102
}
330
EF
100
AcDbVisualStyle
  2
Sketchy
 70
    24
177
     3
291
     0
 70
    58
 90
        1
176
     1
 90
        2
176
     1
 90
        2
176
     1
 90
        0
176
     1
 40
0.6
176
     1
 40
30.0
176
     1
 62
     7
420
 16777215
176
     1
 90
        2
176
     1
 90
        2
176
     1
 62
     7
176
     1
 62
     7
176
     1
 90
        1
176
     1
 90
        1
176
     1
 40
40.0
176
     1
 90
       11
176
     1
 62
     7
176
     1
 40
1.0
176
     1
 90
        1
176
     1
 90
        6
176
     1
 90
        2
176
     1
 62
     7
176
     1
 90
        6
176
     1
 90
        0
176
     1
 90
        0
176
     1
290
     0
176
     1
 90
        1
176
     1
 40
0.0
176
     1
 90
        0
176
     1
290
     0
176
     1
290
     1
176
     1
290
     1
176
     1
290
     0
176
     1
290
     0
176
     1
290
     0
176
     1
290
     0
176
     1
290
     0
176
     1
290
     0
176
     1
 90
       50
176
     1
 40
0.0
176
     1
 40
1.0
176
     1
 90
        0
176
     1
 62
    18
420
        0
176
     1
 90
       50
176
     1
 90
        3
176
     1
 62
     5
420
      255
176
     1
290
     0
176
     1
 90
       50
176
     1
 90
       50
176
     1
 90
       50
176
     1
290
     0
176
     1
 90
       50
176
     1
 62
   256
176
     0
 40
1.0
176
     0
 90
        2
176
     1
  1
strokes_ogs.tif
176
     1
290
     0
176
     1
 40
1.0
176
     1
 40
1.0
176
     1
  0
VISUALSTYLE
  5
FC
102
{ACAD_REACTORS
330
EF
102
}
330
EF
100
AcDbVisualStyle
  2
Thicken
 70
    13
177
     3
291
     1
 70
    58
 90
        2
176
     1
 90
        2
176
     1
 90
        1
176
     1
 90
        0
176
     1
 40
0.6
176
     1
 40
30.0
176
     1
 62
     7
420
 16777215
176
     1
 90
        1
176
     1
 90
        4
176
     1
 62
     7
176
     1
 62
   257
176
     1
 90
        1
176
     1
 90
        1
176
     1
 40
1.0
176
     1
 90
       12
176
     1
 62
     7
176
     1
 40
1.0
176
     1
 90
        1
176
     1
 90
        6
176
     1
 90
        2
176
     1
 62
     7
176
     1
 90
        5
176
     1
 90
        0
176
     1
 90
        0
176
     1
290
     0
176
     1
 90
        1
176
     1
 40
0.0
176
     1
 90
        0
176
     1
290
     0
176
     1
290
     1
176
     1
290
     1
176
     1
290
     0
176
     1
290
     0
176
     1
290
     0
176
     1
290
     0
176
     1
290
     0
176
     1
290
     0
176
     1
 90
       50
176
     1
 40
0.0
176
     1
 40
1.0
176
     1
 90
        0
176
     1
 62
    18
420
        0
176
     1
 90
       50
176
     1
 90
        3
176
     1
 62
     5
420
      255
176
     1
290
     0
176
     1
 90
       50
176
     1
 90
       50
176
     1
 90
       50
176
     1
290
     0
176
     1
 90
       50
176
     1
 62
   256
176
     0
 40
1.0
176
     0
 90
        2
176
     1
  1
strokes_ogs.tif
176
     1
290
     0
176
     1
 40
1.0
176
     1
 40
1.0
176
     1
  0
VISUALSTYLE
  5
F6
102
{ACAD_REACTORS
330
EF
102
}
330
EF
100
AcDbVisualStyle
  2
Wireframe
 70
     5
177
     3
291
     0
 70
    58
 90
        0
176
     1
 90
        2
176
     1
 90
        0
176
     1
 90
        0
176
     1
 40
0.6
176
     1
 40
30.0
176
     1
 62
     7
420
 16777215
176
     1
 90
        1
176
     1
 90
        4
176
     1
 62
     7
176
     1
 62
   257
176
     1
 90
        1
176
     1
 90
        1
176
     1
 40
1.0
176
     1
 90
        0
176
     1
 62
   257
176
     1
 40
1.0
176
     1
 90
        1
176
     1
 90
        6
176
     1
 90
        2
176
     1
 62
     7
176
     1
 90
        3
176
     1
 90
        0
176
     1
 90
        0
176
     1
290
     0
176
     1
 90
        1
176
     1
 40
0.0
176
     1
 90
        0
176
     1
290
     0
176
     1
290
     1
176
     1
290
     1
176
     1
290
     0
176
     1
290
     0
176
     1
290
     0
176
     1
290
     0
176
     1
290
     0
176
     1
290
     0
176
     1
 90
       50
176
     1
 40
0.0
176
     1
 40
1.0
176
     1
 90
        0
176
     1
 62
    18
420
        0
176
     1
 90
       50
176
     1
 90
        3
176
     1
 62
     5
420
      255
176
     1
290
     0
176
     1
 90
       50
176
     1
 90
       50
176
     1
 90
       50
176
     1
290
     0
176
     1
 90
       50
176
     1
 62
   256
176
     0
 40
1.0
176
     0
 90
        2
176
     1
  1
strokes_ogs.tif
176
     1
290
     0
176
     1
 40
1.0
176
     1
 40
1.0
176
     1
  0
VISUALSTYLE
  5
1F1
102
{ACAD_REACTORS
330
EF
102
}
330
EF
100
AcDbVisualStyle
  2
X-Ray
 70
    25
177
     3
291
     0
 70
    58
 90
        2
176
     1
 90
        2
176
     1
 90
        1
176
     1
 90
        1
176
     1
 40
0.5
176
     1
 40
30.0
176
     1
 62
     7
420
 16777215
176
     1
 90
        1
176
     1
 90
        0
176
     1
 62
     7
176
     1
 62
   257
176
     1
 90
        1
176
     1
 90
        1
176
     1
 40
1.0
176
     1
 90
        8
176
     1
 62
     7
176
     1
 40
1.0
176
     1
 90
        1
176
     1
 90
        6
176
     1
 90
        2
176
     1
 62
     7
176
     1
 90
        3
176
     1
 90
        0
176
     1
 90
        0
176
     1
290
     0
176
     1
 90
       13
176
     1
 40
0.0
176
     1
 90
        0
176
     1
290
     0
176
     1
290
     1
176
     1
290
     1
176
     1
290
     0
176
     1
290
     0
176
     1
290
     0
176
     1
290
     0
176
     1
290
     0
176
     1
290
     0
176
     1
 90
       50
176
     1
 40
0.0
176
     1
 40
1.0
176
     1
 90
        0
176
     1
 62
    18
420
        0
176
     1
 90
       50
176
     1
 90
        3
176
     1
 62
     5
420
      255
176
     1
290
     0
176
     1
 90
       50
176
     1
 90
       50
176
     1
 90
       50
176
     1
290
     0
176
     1
 90
       50
176
     1
 62
   256
176
     0
 40
1.0
176
     0
 90
        2
176
     1
  1
strokes_ogs.tif
176
     1
290
     0
176
     1
 40
1.0
176
     1
 40
1.0
176
     1
  0
DICTIONARYVAR
  5
146
102
{ACAD_REACTORS
330
5E
102
}
330
5E
100
DictionaryVariables
280
     0
  1
1:1
  0
DICTIONARYVAR
  5
259
102
{ACAD_REACTORS
330
5E
102
}
330
5E
100
DictionaryVariables
280
     0
  1
3.500000
  0
DICTIONARYVAR
  5
25A
102
{ACAD_REACTORS
330
5E
102
}
330
5E
100
DictionaryVariables
280
     0
  1
acadiso.lin
  0
DICTIONARYVAR
  5
145
102
{ACAD_REACTORS
330
5E
102
}
330
5E
100
DictionaryVariables
280
     0
  1
STANDARD
  0
DICTIONARYVAR
  5
84
102
{ACAD_REACTORS
330
5E
102
}
330
5E
100
DictionaryVariables
280
     0
  1
STANDARD
  0
DICTIONARYVAR
  5
227
102
{ACAD_REACTORS
330
5E
102
}
330
5E
100
DictionaryVariables
280
     0
  1
Metric50
  0
DICTIONARYVAR
  5
228
102
{ACAD_REACTORS
330
5E
102
}
330
5E
100
DictionaryVariables
280
     0
  1
Metric50
  0
DICTIONARYVAR
  5
5F
102
{ACAD_REACTORS
330
5E
102
}
330
5E
100
DictionaryVariables
280
     0
  1
2
  0
DICTIONARYVAR
  5
63
102
{ACAD_REACTORS
330
5E
102
}
330
5E
100
DictionaryVariables
280
     0
  1
1
  0
DICTIONARYVAR
  5
1AE
102
{ACAD_REACTORS
330
5E
102
}
330
5E
100
DictionaryVariables
280
     0
  1
0
  0
DICTIONARYVAR
  5
1AF
102
{ACAD_REACTORS
330
5E
102
}
330
5E
100
DictionaryVariables
280
     0
  1
0
  0
DICTIONARY
  5
205
330
22
100
AcDbDictionary
280
     1
281
     1
  0
DICTIONARY
  5
1F9
330
ED
100
AcDbDictionary
280
     1
281
     1
  3
FBXASSET
360
1FA
  0
DICTIONARY
  5
1F7
330
EC
100
AcDbDictionary
280
     1
281
     1
  3
FBXASSET
360
1F8
  0
DICTIONARY
  5
173
330
EE
100
AcDbDictionary
280
     1
281
     1
  3
BUMPTILE
360
175
  3
DIFFUSETILE
360
174
  3
FBXASSET
360
1FB
  3
OPACITYTILE
360
176
  3
REFLECTIONTILE
360
177
  0
DICTIONARY
  5
162
330
7F
100
AcDbDictionary
280
     1
281
     1
  3
ACAD_ROUNDTRIP_2008_TABLESTYLE_CELLSTYLEMAP
360
6B6
  0
XRECORD
  5
1FA
102
{ACAD_REACTORS
330
1F9
102
}
330
1F9
100
AcDbXrecord
280
     1
 70
     1
 90
429727718
  1
D62C5603-E3A1-4AEA-B7FB-FE5D8D0755AF
310
504B03040A0000080000CC70623B3DEE336E79000000790000001B0000006175746F6465736B2D64657369676E2D7061636B6167652E786D6C3C3F786D6C2076657273696F6E3D22312E302220656E636F64696E673D227574662D3822203F3E3C666F726D6174733E3C666F726D61743E687474703A2F2F736368656D612E
310
6175746F6465736B2E636F6D2F64657369676E2D7061636B6167652F323030393C2F666F726D61743E3C2F666F726D6174733E504B0304140006080800CC70623BD486FD9CA0000000F4000000130000005B436F6E74656E745F54797065735D2E786D6C7D8EC10E82300C865F65E91D8A1E8C310C0EEA1BF002731658846E
310
D98AC1B77784ABF1D8FE5FBFBF75BBCE937A534CCEB38643598122B6FEE978D0B0485F9C41B54DDD7D022595594E1A469170414C76A4D9A4D207E29CF43ECE46F218070CC6BECC4078ACAA135ACF422C856C0E68EA1BF5669944DDD7BCDE7B1F8E415D77AECB980613C2E4AC91FC167A2B244592486606FC29C8FD7F045B9A
310
EF7053A7E60B504B0304140006080800CC70623B853B8169EB0000007C01000008000000636F72652E786D6C8D90416EC3201045AF62CDB6C206821CC7C244919D9CA01740401C94182C03558F5F9C3852BBEB6A467FFE9B197D7EFC9E1EC5975982F5AE035262288C535E5B377690E21535501C055FBC8FBF6C503839990E
310
5619041F179FE64D52DE45E362569DD7661365082642A11EB9E920A89B99642953CC8E702F67A9EE7234257977194EC9EAE275C4EABCCF5EAD5940D4AC6F0E35A568B8F43562CD7046CD199FD07E60174276A7BE677B5EADB0E0D14EEFFB6A31321A0D82627C4084204C3F096B71DD52F6819B16635EADF63F509AF53FA164
310
5DDCD1EDDD17164090FCC8732078B56691CB33A85CD7DCC40F504B0304140006080800CC70623B55019EA25F0000007C00000007000000636E782E786D6C4DCB3B0E80201045D1AD90E915ED2CF8AC45050C11660C8261F98AB1B07AC9C97D42D718D865D3E909258CFD00CCE24AC6E326A164D74DC0B4128928FF32603847
310
2BA13128B1252AC747C6BAB984FC68F0B87FE8960A5C09FE86CFB69FBA01504B0304140006080800CC70623BDBABAAF470010000D40300000C0000006662782F636F72652E786D6CC553D16E823014FD95A6AF4B694182CC941A83FA05FB810A9511A125A5257EFE2E82712ECEB8A7F100CD39F7F69E734AF9FADC366850B6
310
AF8DCE7018308C942E4C59EB2AC3DE1D498AD15A706B8CFB56869196ADCAF00863C12B6B7C374385D14E6907A836A59A41D9F7CA615434B0C8705F7CAA5606D23BA8E84F41278B93AC54100640439DE0BDB320004D43C63716C7C399D30917DCFBBA9CD9BA8469F5B156168B24CED3F7248AC8769F27244EB73B92EED8862C
310
B7F13E0C179B3C8F979C8ECD82BBBABDAA2BAC924E9558448CBD9330242CFA08E3154B5651FCC6D215639C8EE5774DBE2B5F6CF2B5768B68963BB5F5588420E442FC700B1139D4CB01F450C1E918227C2E09DF070D8140C84E1E9AAB8F1340832A9CB13130A5F1376A908D57309505ECF2A0DF179C4E9D30F5B239B87E3823
310
7A79C6F31DE1A8A5AEC08474B03C7837EAE4938639B44E5932B833D2C6B6B279CDC613877FA26EE21F4A2A4C63EC7F29A2F301D1F9F7A0E37D145F504B0304140006080800CC70623B9C113CC27E0000009D0000000B0000006662782F636E782E786D6C4DCCDF0A83201C86E15B91DFB94BFB330DD428C8FB886521330DA7
310
6397BF1A1DECE883878F57749FCDA1B7892F1BBC047A23808C7F84D9FA55424E0BE6803A256208E9EF06C84F9B91703228B1C690F78B66B34CD9A5439DF5CF0BFBF65E35BCA1B8D6A5C6F540381E886698B5741C695F9503EBA150A2F8958E3DC3EA0B504B0304140006080800CC70623B7DF2F77C2A010000120200003100
310
00006662782F41393633353835312D344632462D344230382D423046372D3739314545314133324237412F636F72652E786D6C8D51DB8EC22014FC15C2939B0D2DB4B45643319AE817EC0F6041255A68B86CFCFC856D4D76DF7CE190393373060EDB3DC707F856CE6B6B7A480A0C81328395DA5C7B18C3057510EC3873D686
310
3F34088C18550F330C39BB3A1BA7051AAC09CA84841A2BD5020AEF55806078A44B0FFD7053A328440C89E1EFC52486BBB8AA8214A99D789CF9E05200300FC927E4FB4D5B375D43103D5527440FB843077C5AA3F5861C8F645F5787F59E95B390B318B55CE45AA638FAA2957BD7248B390B7A7CC51F9C124149C82B8C378810
310
84AB2F42B7B8DD56F413775B8C5999E9FF4471926F8AA236A1AE96B8B3CC434E5839373893369E1FAF30EA395917409EB7F26AF8801C171837A4A6AC9C89E9F9C9B1A58BA30FD6A5EF5DDDCF894B9AD9B6A59C957943A9FCAE2FD5BC4DFE03504B0304140006080800CC70623BAD7543B64E01000033030000300000006662
310
782F41393633353835312D344632462D344230382D423046372D3739314545314133324237412F636E782E786D6CD593CD6EC32010845F0571AD6CE3D48AD20813A9873E410FBD12D82434182C7EAAE6EDBB2424CD25871E7B41D6EC30B3FA84F9E67BB2E40B4234DE8DB46F1925E094D7C6ED479AD3AE5951B2113C789FEE
310
6C943839C1488B4C05DF079FE72A69D8C96C13AAD6B8631503449F83828872B949AC57D26200B826A308D316B4064D6E46FCDA41C05550DC9E483A00797BFD207EFB092A45DE9514C1BBD22178396BD39D891265658C238DEA00936C654E5E433CB65A26D9F6EDB5EBC14EBF49A45CB856E66048291F6939A9A81BB5C89177
310
38143CA680F4AA299D66A042CEB3354A2684DC9D8D178FE0D9B8B41CAAD720F880EE7EF93C0C18769E099ECC04D5A102C8049A8A05632F4DDF376CF1DE0F6BB65C2F8627B65A33C6BB62177CEBBDAD973006829F89F22E814B54F4BC2BE347F8AA8F681390B50FA73F804400B5F542E796F19FF974E7F78DB802FE05E20750
310
4B0304140006080800CC70623BE75B7789680500003C100000340000006662782F41393633353835312D344632462D344230382D423046372D3739314545314133324237412F6F626A656374732E786D6CAD575B8F9B3818FD2B887D06C22499CB8AA1CA655245D5B455A356FB305264C061D8018C6C3393D95FBFC7600890
310
A4CD5EF210B0B1BFEBF98E3F7B1FF6596ABC522E1296DF9BAE3D320D9A872C4AF2F8DE2CE5CEBA358D0FBEC719939D65A691938CDE9B6ADAF4BD98B3B2D05311DD91329583D9D5FC0F438434A7A611A644887B5384CF34233629258BA878B12322891DEFF6B66BD70BFB62634E8AE781D082709A4B588AF91C528CDA28B73F
310
1C998EEF39EABBEFA97FBD6A7C7E9553F9D3D79FE442923C3C523610337627CB87ABE99D359D4CC6D6E4FACAB5E6ABF9D2726FC6A3C5F56271377BB88362213924694B38DD99FE47C48627A1E7D49F5A8BB5E1A74C0A599ED3B0F21F1E56366B89112D681E218F0915D0D6F17AD41FBA2A369DCF6335D62ABBD39779D5DDD1
310
11D4D8DE3CBB96B2E04FB8202E41051754A1AA8E8F76B4C6DFE810B580B1547F4B84911149794252234D024EF8BBE963A95AE27B3D310A9D5C215C7960FAEE415ED75694C6AFB17BCACA5D99A60A9AA65F217B0BFC53292ACB92BF283FAD0D3621576592CB5BED907C2FA8E9DF794E35E97BEA31BED21FEB401ABB94C44839
310
DCACBF0E1C5DA8DA5B2F4DFFD32AD86F543D9E565E7056502E157C00AD2671CD534549AB752FCA9CDA00677A313F04E51B22FF19E57B300579E3C97EB29F682D92935CEC18CF901B7B54FD8C51F362B56FC72FE0B3C1EAE335EDCCBF5AEC39ADB17DC238973F804BA5E6F6BFE7AF1FB32E523BE9F3BD571418E3631DCA4D48
310
5250CF639223210A9446CA30052EDF057BD35F8329C1ECD84552BF0DC8D18BE7BCE23BFE6BD960AB4A7DE79923A103BEBD80F911CBAA2C60DB19B01CF164A5583B772EE6D3FFA56666CBCDA74DC97724A48F9A58967497E489C4D979006FD7A05E227A1EBDD0F737C623387A9C844D3709995625106D157315F8B8392CD4E0
310
A0B9A720C4BE9829CEF37EA1E13111214D53925356365ADA634861B52519DD27A00AEB808EAF0628E6F435519D446F45CF2C9CF5214F0A15B2F6D06B79DA3EE3CBF7F56780D2F4E7EF73A0F5E5B02A38D07DC852C6B7C1FBB6664213E0C39E3EBA7FF4E1AD23EA2829407C85E586727488B751B2DB9502BC7B228A3FD68B6E
310
A65A22397E690AA8D158D7E404EC8CDA235CC3B7D1898680131CEC2CDF2638C65196279577750F15884AEE19F94199155B92B13297978469D4F8D358DF0AEF7631E28DC8F0D9F437D5D39A83B2231A1D52D543813A824EF8D44BCFF2FA6A31BD1E8DAD87F1CCB526B3879935BF59CDADD5C37479BB1CDD4CA7B3556B516589
310
EF352754B706114D9C885EC9131DE6EFEB43D99AFE2391C2F958179413D7CFEF6B1B6DB1E7600F00DE6E5C67454A339A4BA2E0FBA85ED26F045D454F463DBFCE484C2F90F2E5E3666003662ED8F755951A7D1BECD5B30B550B2785C8E7320B7292A4838DDA71BBC863ED7613CAF659337A3354231D4FF4A182A54904C2898C
310
98B28C4AD0CE056CCF332A80986E571EE9DBC305BB5FEB7E509220A58D25CF042D712A806AC0AD0C657FDEF80D2D9CEAA2EE4D1C76F60BFE74219A06527D6F82DF6412526107381E55E353090704D085B52408A8913C4ED159D79BDA71BB4BC506F4831350EB6F975CD22D69BF7AC49B91A2C0A9DDA3D5CA36AD20FC478E37
310
E61844E2352865EBCB61A275A65283CAAA9DD27703B4102F5AF51EF5F573B75CBB5AD38BC845F7A49F82A0966A49C2E3EA5EA0ECD326CD965F1DB402C6FA8B51A4658C5C5E2EC9E214602E55810345408596591009A82E7E7FFACA19EEA299B14A0081A705CB3296EBC14CDF658DCD336EA6D1136881AAEB87B81AB9EE53D5
310
F5EB8BC8362082DA24122F98680A4E7930C01A0079749CEA14382A0783E5EBA5A10F8C098456A03D6A4AEB6BB881E2513747552A5DB22C7EDAF83BD5528081A365F7FF06504B0304140006080000CC70623B000000000000000000000000350000006662782F41393633353835312D344632462D344230382D423046372D37
310
39314545314133324237412F76657274696365732E62696E504B0304140006080800CC70623BF270F1330600000004000000360000006662782F41393633353835312D344632462D344230382D423046372D3739314545314133324237412F747269616E676C65732E62696E636660600000504B0304140006080000CC7062
310
3B000000000000000000000000370000006662782F41393633353835312D344632462D344230382D423046372D3739314545314133324237412F617474726962757465732E62696E504B0304140006080800CC70623B08DA0BD19000000041010000360000006662782F41393633353835312D344632462D344230382D4230
310
46372D3739314545314133324237412F6469726563746F72792E786D6C858F410AC3201045AF22B36F53E9A60B35CBEEBAE80D244E44489C6234F4F835464A48035D0DF398FF9F8AF63D0E6CC63039F212F8F9020C7D47C6792B21C5FE7403D62A1188E2E60C98D7234A5830286103A55745067B9D86B8A3CF9C7F90C11DE6
310
07FB144396D7B6A82D282E9A152AD114D5EF2CB866EEE831B8EEA07A7BB5A8D7D61A2BAAEB7FD5F70921FF497D00504B0304140006080800CC70623BEDD1DC58FD000000A00100003B0000006662782F41393633353835312D344632462D344230382D423046372D3739314545314133324237412F7265736F75726365732F
310
636F72652E786D6C8D504B6E833010BD0A9A6D65B00922041947112427E8052C33A156828DFCA97AFC9A40A576D7CDCCE87D344F8F9FBFE667F689CE6B6B3A6039850C8DB2A336530731DC4903D95970676DF82583CCC8193B5861107C72362E3BA4AC096842428D1D7107A5F7182053CF7474E0D507CE32973124857FE48B
310
540F3961CEF244279DE03EB81420DB9EAC1384436FA353E879B1B182C7A8C75DA3C7F453DF353A1075D537A7BA6464B8F535A99AE14A9A2BBD90E350DD183B5CFABE3AF262350B1EF4FC9351399401471025A527C218A1E53BAB5A5AB765F5469B96525EACF23FA6B88CFF34456DC2A1DCE36E360F82A5202F42F062ED2BAD
310
579969AFDD8A6F504B010214000A0000080000CC70623B3DEE336E79000000790000001B00000000000000000000000000000000006175746F6465736B2D64657369676E2D7061636B6167652E786D6C504B01021400140006080800CC70623BD486FD9CA0000000F40000001300000000000000000000000000B20000005B
310
436F6E74656E745F54797065735D2E786D6C504B01021400140006080800CC70623B853B8169EB0000007C010000080000000000000000000000000083010000636F72652E786D6C504B01021400140006080800CC70623B55019EA25F0000007C000000070000000000000000000000000094020000636E782E786D6C504B
310
01021400140006080800CC70623BDBABAAF470010000D40300000C00000000000000000000000000180300006662782F636F72652E786D6C504B01021400140006080800CC70623B9C113CC27E0000009D0000000B00000000000000000000000000B20400006662782F636E782E786D6C504B01021400140006080800CC70
310
623B7DF2F77C2A010000120200003100000000000000000000000000590500006662782F41393633353835312D344632462D344230382D423046372D3739314545314133324237412F636F72652E786D6C504B01021400140006080800CC70623BAD7543B64E010000330300003000000000000000000000000000D2060000
310
6662782F41393633353835312D344632462D344230382D423046372D3739314545314133324237412F636E782E786D6C504B01021400140006080800CC70623BE75B7789680500003C10000034000000000000000000000000006E0800006662782F41393633353835312D344632462D344230382D423046372D3739314545
310
314133324237412F6F626A656374732E786D6C504B01021400140006080000CC70623B0000000000000000000000003500000000000000000000000000280E00006662782F41393633353835312D344632462D344230382D423046372D3739314545314133324237412F76657274696365732E62696E504B01021400140006
310
080800CC70623BF270F133060000000400000036000000000000000000000000007B0E00006662782F41393633353835312D344632462D344230382D423046372D3739314545314133324237412F747269616E676C65732E62696E504B01021400140006080000CC70623B0000000000000000000000003700000000000000
310
000000000000D50E00006662782F41393633353835312D344632462D344230382D423046372D3739314545314133324237412F617474726962757465732E62696E504B01021400140006080800CC70623B08DA0BD1900000004101000036000000000000000000000000002A0F00006662782F41393633353835312D344632
310
462D344230382D423046372D3739314545314133324237412F6469726563746F72792E786D6C504B01021400140006080800CC70623BEDD1DC58FD000000A00100003B000000000000000000000000000E1000006662782F41393633353835312D344632462D344230382D423046372D3739314545314133324237412F7265
310
736F75726365732F636F72652E786D6C504B0506000000000E000E0080040000641100000000
  0
XRECORD
  5
1F8
102
{ACAD_REACTORS
330
1F7
102
}
330
1F7
100
AcDbXrecord
280
     1
 70
     1
 90
429727718
  1
30362254-06B7-45E0-A893-8CFA70E3D6BC
310
504B03040A0000080000CC70623B3DEE336E79000000790000001B0000006175746F6465736B2D64657369676E2D7061636B6167652E786D6C3C3F786D6C2076657273696F6E3D22312E302220656E636F64696E673D227574662D3822203F3E3C666F726D6174733E3C666F726D61743E687474703A2F2F736368656D612E
310
6175746F6465736B2E636F6D2F64657369676E2D7061636B6167652F323030393C2F666F726D61743E3C2F666F726D6174733E504B0304140006080800CC70623BD486FD9CA0000000F4000000130000005B436F6E74656E745F54797065735D2E786D6C7D8EC10E82300C865F65E91D8A1E8C310C0EEA1BF002731658846E
310
D98AC1B77784ABF1D8FE5FBFBF75BBCE937A534CCEB38643598122B6FEE978D0B0485F9C41B54DDD7D022595594E1A469170414C76A4D9A4D207E29CF43ECE46F218070CC6BECC4078ACAA135ACF422C856C0E68EA1BF5669944DDD7BCDE7B1F8E415D77AECB980613C2E4AC91FC167A2B244592486606FC29C8FD7F045B9A
310
EF7053A7E60B504B0304140006080800CC70623B1EC5D7A3EB0000007C01000008000000636F72652E786D6C8D90416EC3201045AF82665B6103C6756C6122AB4D4ED00B204C5C94182C03558F5F9C3852BBEB6A467FFE9B197D71FC9E6FE8CBACC17AD7032D0820E3B41FAD9B7A48F1820F808E52ACDEC75F36404ECDA687
310
4D0629A6D5A76597B477D1B89855E747B38B2A041301E95B6E7A08FAD3CCAA50296647B8168BD2573599823EBB0CA76447F43862C7BCCF5EAC59410E4DDD9C7973C2755553CCCFA4C603E3040F1565ED3B1FDE4E432BCA0D9622DAF9795FAF464533826484B498524CD807E51D79ED187F21878E10516EF63F505AC67F42C9
310
BA58B1FDDD071640D2FCC87D2045B96591CB3DA85CB7DCE40F504B0304140006080800CC70623B55019EA25F0000007C00000007000000636E782E786D6C4DCB3B0E80201045D1AD90E915ED2CF8AC45050C11660C8261F98AB1B07AC9C97D42D718D865D3E909258CFD00CCE24AC6E326A164D74DC0B4128928FF32603847
310
2BA13128B1252AC747C6BAB984FC68F0B87FE8960A5C09FE86CFB69FBA01504B0304140006080800CC70623B8C9102E971010000D40300000C0000006662782F636F72652E786D6CC5535B6E833010BC8AE5DF0A6C08340F1947A84D4ED00B38C6A128602363A31CBFCB234A53A551FA553EC09AD9F5CE8C31DB9E9B1AF5CA
310
7695D1198E428A91D2D214952E33ECDD315861B4E5CC1AE3BE9561A445A3323CC098B3D21ADFCE9034DA29ED00D5A6503328BA4E398C640D8B0C77F253352214DE4145770A5B214FA2546114020D759C75CE8200340D19DE981F0F6746269C33EFAB6266AB02A655C74A59CCF365BADC27CB5D902ED22848F6340DF238A141
310
BE88E2F57B92BFEDF23523433367AE6A2EEAA455C2A902F398D2751045018D3FA264435F3771F242571B4A1919CA6F9A7C5B3CD9E42BED16F12C776AEB308F40C848FC700B1139D4891EF410CEC810227CC6846F8386402064270EF5C5C709A05E49676C024C61FC95EA45ED154CA5211D1FF4FB8291A913A68E9B83EBBB33
310
E2A7673CDE118E5AE8124C0807CB8377834E366998436B950D7A7746DAD846D4CFD978E0F04FD455FC5D49D2D4C6FE9722321F10997F0F32DC47FE05504B0304140006080800CC70623BFFEA85907E0000009D0000000B0000006662782F636E782E786D6C4DCCD10A83201886E15B91FFDC95D95A811AB6F23E625948A6C3
310
E9D8E5AF46073BFAE0E1E365ED67B3E8ADC3CB78C7815C7240DA3DFC64DCC221C519D7805AC182F7F1EF06C88D9BE6703008B6049F9E274D7A1E938DBB5AE3D6131B2589BA0D3D965551E0B2EA732C9B9A624AAEB41E3A557677029960D9AFB4EF11165F504B0304140006080800CC70623B4FEEA4082C0100001202000031
310
0000006662782F39464131463745442D413632322D343644302D413938332D3331353338454246344243312F636F72652E786D6C8D515B6EC32010BC0AE2AB55850DD871ED0813254D72825EC00192A2C460F1A872FC42ED48ED5F7E00CDCECCCEB26C731F6FE05B39AFADE921293004CA082BB5B9F43086336A21D870E6AC
310
0D7F68109861543DCC30E4ECE26C9C164858139409093556AA051CBC570102714B8F1E7AF1A5C6A11862480C7F2DA6415C878B2A4891CA89C7990F2E050073937C42DE1DB7E4F87ED8A36D4329AA9B3D46DBAEAD504556557BD81DEBDD0761E52CE42C462D17B996298E3E6BE59E35C962CE821E1FF18553435012728A7187
310
0841987E927A8D9B35ADDF70BBC6989599FE4F1427F9A4286A132ABAC49D651EF234CD5CE04CDA78BA3DC2A8FB645D00B9DF8B57E215725C60BCA2A463E54C4CE327C7A65E1C7DB02E7DEFCBF594B864C5CA6CDBD49C957943E9FA5D5FBAF336F90F504B0304140006080800CC70623BAD7543B64E01000033030000300000
310
006662782F39464131463745442D413632322D343644302D413938332D3331353338454246344243312F636E782E786D6CD593CD6EC32010845F0571AD6CE3D48AD20813A9873E410FBD12D82434182C7EAAE6EDBB2424CD25871E7B41D6EC30B3FA84F9E67BB2E40B4234DE8DB46F1925E094D7C6ED479AD3AE5951B2113C
310
789FEE6C943839C1488B4C05DF079FE72A69D8C96C13AAD6B8631503449F83828872B949AC57D26200B826A308D316B4064D6E46FCDA41C05550DC9E483A00797BFD207EFB092A45DE9514C1BBD22178396BD39D891265658C238DEA00936C654E5E433CB65A26D9F6EDB5EBC14EBF49A45CB856E66048291F6939A9A81BB5
310
C8917738143CA680F4AA299D66A042CEB3354A2684DC9D8D178FE0D9B8B41CAAD720F880EE7EF93C0C18769E099ECC04D5A102C8049A8A05632F4DDF376CF1DE0F6BB65C2F8627B65A33C6BB62177CEBBDAD973006829F89F22E814B54F4BC2BE347F8AA8F681390B50FA73F804400B5F542E796F19FF974E7F78DB802FE05
310
E207504B0304140006080800CC70623B16AB87BA640500003C100000340000006662782F39464131463745442D413632322D343644302D413938332D3331353338454246344243312F6F626A656374732E786D6CAD575B6FA33818FD2B887DE6924B3BED8A326A92B68A663B534DD4D13E548A0C38942D60649B369D5FBFC7
310
600890A493BDE42160637FD7F31D7FF63E6FB3D478A55C242CBF3247B66B1A340F5994E4F19559CA8D75611A9F7D8F33263BCB4C232719BD32D5B4E97B316765A1A722BA21652A07B3B7B33F0D11D29C9A46981221AE4C113ED38CD8A4942CA2E2C58E882476BCD9DA23BB5ED8171B73523C0F841684D35CC252CCE79062D4
310
468DFA43D7747CCF51DF7D4FFDEB5593E3AB9CCA9FBEFE241792E4E19EB28198C968BAB8199F5D5A67D3E9C49A9E8F47D6EC76B6B0469F26EEFC7C3EBFBCBEB98462213924694B38DD98FE1D62C393D073EA4FADC5DAF04326852CCF6958F90F0F2B9BB5C48816348F90C7840A68EB78EDF68723159BCEE7891A6B95DDE9D3
310
BCEAEEE8086A6C6F9E5D4B59F0175C10A7A0820BAA5055C7473B5AE3CFDD452D602CD5DF12616444529E90D448938013FE6EFA58AA96F85E4F8C42275708571E98FE6827AF6B2B4AE3D7D83D64E5A64C53054DD3AF90BD06FEA9149565C94FCA0F6B834DC85599E4F2423B24DF0B6AFA979E534DFA9E7A4CC6FA631D486393
310
921829879BF5D781A373557BCB85E97FB90DB62B558F8795179C15944B051F40AB495CF35451D26A4727654E6D8033BD98EF82F21D91FF8AF2DD9982BCF1643BDD4EB516C9492E368C67C88DED563FC36D5EACF66DFF057C3658BDBFA69DF9578B3DA735B64F18C7F20770A9D45CFCF7FCF563D6456A277DBEF78A02637CA2
310
43B90A490AEAB94F72244481D24819A6C0E59B606BFA4B3025981DBB48EAB701D97BF19C577CC77F2D1B6C55A9EF3C732474C0B727303F625995056C3B02963D9EAC146BE78EC5FCEC7FA999EBC5EACBAAE41B12D27B4D2C0BBA49F244E2ECDC81B76B502F113D8F5EE8FB1BE3111CDD4FC2AA9B844CAB1288B68AB90A7CDC
310
1C166AB0D3DC5310625FCC14E779BFD0709F8890A629C9292B1B2DED31A4B0DA928CEE135085754027E3018A397D4D5427D15BD1330B677DC8934285AC3DF45A9EB68FF8F2B8FC0A509AFEECFD0FF2DE25CC6047F7214B195F07EFEB9A094D800F7BFAE8FED187B78EA8A3A400F115961BCAD1215E47C966530AF0EE8128FE
310
58CEBB996A8964FFA529A046635D9353B0336A8F700DDF46271A024E70B0B37C9DE01847591E54DED53D54202AB947E4076556AC49C6CA5C9E1226B7F1A7B1BE15DEED62C41B91E1B3E9AFAAA735036547343A925075041DF0A9979E893B391F8FCFA6967B3EFB644DCF6E5CEBFAE272625DCC6FAF3FB93793C5F90CE1EF57
310
407342756B10D1C489E8953CD1617E5CEECAD6F4EF8914CE5D5D504E5C3F1F9736DA62CFC11E00BCDDB8CC8A9466349744C1F75EBDA4DF09BA8A9E8C7A7E9991989E20E5DBDD6A6003664ED8F7A04A8DBE0DF6EAD9B9AA858342E47399053949D2C146EDB85DE4B176BB0965FBAC19BD19AA918E27FA50C1D22402E144464C
310
59462568E704B6E71915404CB72B8FF4EDE184DDAF753F284990D2C6926782963815403548A70C657FDEF80D2D9CEAA2AE4C1C76F60BFE74219A06527D6582DF6412526107381E55E353090704D085B52408D0933C4ED159D79BDA71BB4BC506F4831350EB6F979CD22D69BF7AC49B91A2C0A9DDA3D5CA36AD20FC478E37E6
310
1844E2352865EBCB6EA275A652E3836BE04EFB400BF1A2556F515F1FBB35B2AB35BD889C744FFA1004B5544B121E57F70215746DD2F5E2C1412B602CBF19455AC6C8E5E9922C4E01E65215385004546899059180EAFCF7A707CE7017CD8CDB0410789AB32C63B91E5CEBBBACB17AC6CD347A022D5075FD106377347AAABA7E
310
7D11590744509B44E205134DC1290F06580320F78E537D3D73540E06CB970B431F185308AD40BBD794D6D77003C5A36E8EAA54BA64597CD8F83BD552A080A365F7FF06504B0304140006080000CC70623B000000000000000000000000350000006662782F39464131463745442D413632322D343644302D413938332D3331
310
353338454246344243312F76657274696365732E62696E504B0304140006080800CC70623BF270F1330600000004000000360000006662782F39464131463745442D413632322D343644302D413938332D3331353338454246344243312F747269616E676C65732E62696E636660600000504B0304140006080000CC70623B
310
000000000000000000000000370000006662782F39464131463745442D413632322D343644302D413938332D3331353338454246344243312F617474726962757465732E62696E504B0304140006080800CC70623B08DA0BD19000000041010000360000006662782F39464131463745442D413632322D343644302D413938
310
332D3331353338454246344243312F6469726563746F72792E786D6C858F410AC3201045AF22B36F53E9A60B35CBEEBAE80D244E44489C6234F4F835464A48035D0DF398FF9F8AF63D0E6CC63039F212F8F9020C7D47C6792B21C5FE7403D62A1188E2E60C98D7234A5830286103A55745067B9D86B8A3CF9C7F90C11DE607
310
FB144396D7B6A82D282E9A152AD114D5EF2CB866EEE831B8EEA07A7BB5A8D7D61A2BAAEB7FD5F70921FF497D00504B0304140006080800CC70623B0D6EF93BFE000000A00100003B0000006662782F39464131463745442D413632322D343644302D413938332D3331353338454246344243312F7265736F75726365732F63
310
6F72652E786D6C8D50596E833010BD0A9ADFCA60B334011947A8694ED00B586642AC041B79A97AFC9A40A5F6AF3F33A3B7689E1E3F7DCD8FEC139DD7D6F4C0720A191A65476DA61E62B892236427C19DB5E1970C322367EC618541F0C9D9B8EC90B226A009093576C41D94DE63804C3DD2D18357379C652E63480A7FCF17A9
310
EE72C29CE5894E3AC17D702940B63D59270887DE46A7D0F36263058F518FBB468FE9A7BE6A7420864373B8D4873369AA8691FA421B3294352543C5CAF65C0F6FEF43CB8BD52C78D0F34F46E550061C419494B6843142CB0F5677F4B52BEB177AEC28E5C52AFF638ACBF84F53D42654E51E77B379102C05791282176B5F693D
310
CB4C7BED567C03504B010214000A0000080000CC70623B3DEE336E79000000790000001B00000000000000000000000000000000006175746F6465736B2D64657369676E2D7061636B6167652E786D6C504B01021400140006080800CC70623BD486FD9CA0000000F40000001300000000000000000000000000B20000005B
310
436F6E74656E745F54797065735D2E786D6C504B01021400140006080800CC70623B1EC5D7A3EB0000007C010000080000000000000000000000000083010000636F72652E786D6C504B01021400140006080800CC70623B55019EA25F0000007C000000070000000000000000000000000094020000636E782E786D6C504B
310
01021400140006080800CC70623B8C9102E971010000D40300000C00000000000000000000000000180300006662782F636F72652E786D6C504B01021400140006080800CC70623BFFEA85907E0000009D0000000B00000000000000000000000000B30400006662782F636E782E786D6C504B01021400140006080800CC70
310
623B4FEEA4082C0100001202000031000000000000000000000000005A0500006662782F39464131463745442D413632322D343644302D413938332D3331353338454246344243312F636F72652E786D6C504B01021400140006080800CC70623BAD7543B64E010000330300003000000000000000000000000000D5060000
310
6662782F39464131463745442D413632322D343644302D413938332D3331353338454246344243312F636E782E786D6C504B01021400140006080800CC70623B16AB87BA640500003C1000003400000000000000000000000000710800006662782F39464131463745442D413632322D343644302D413938332D3331353338
310
454246344243312F6F626A656374732E786D6C504B01021400140006080000CC70623B0000000000000000000000003500000000000000000000000000270E00006662782F39464131463745442D413632322D343644302D413938332D3331353338454246344243312F76657274696365732E62696E504B01021400140006
310
080800CC70623BF270F133060000000400000036000000000000000000000000007A0E00006662782F39464131463745442D413632322D343644302D413938332D3331353338454246344243312F747269616E676C65732E62696E504B01021400140006080000CC70623B0000000000000000000000003700000000000000
310
000000000000D40E00006662782F39464131463745442D413632322D343644302D413938332D3331353338454246344243312F617474726962757465732E62696E504B01021400140006080800CC70623B08DA0BD190000000410100003600000000000000000000000000290F00006662782F39464131463745442D413632
310
322D343644302D413938332D3331353338454246344243312F6469726563746F72792E786D6C504B01021400140006080800CC70623B0D6EF93BFE000000A00100003B000000000000000000000000000D1000006662782F39464131463745442D413632322D343644302D413938332D3331353338454246344243312F7265
310
736F75726365732F636F72652E786D6C504B0506000000000E000E0080040000641100000000
  0
XRECORD
  5
175
102
{ACAD_REACTORS
330
173
102
}
330
173
100
AcDbXrecord
280
     1
270
     1
271
     1
  0
XRECORD
  5
174
102
{ACAD_REACTORS
330
173
102
}
330
173
100
AcDbXrecord
280
     1
270
     1
271
     1
  0
XRECORD
  5
1FB
102
{ACAD_REACTORS
330
173
102
}
330
173
100
AcDbXrecord
280
     1
 70
     0
 90
1673772943
  1
ECE7A1D2-D628-4531-984C-D00F80459256
310
504B03040A0000080000CC70623B3DEE336E79000000790000001B0000006175746F6465736B2D64657369676E2D7061636B6167652E786D6C3C3F786D6C2076657273696F6E3D22312E302220656E636F64696E673D227574662D3822203F3E3C666F726D6174733E3C666F726D61743E687474703A2F2F736368656D612E
310
6175746F6465736B2E636F6D2F64657369676E2D7061636B6167652F323030393C2F666F726D61743E3C2F666F726D6174733E504B0304140006080800CC70623BD486FD9CA0000000F4000000130000005B436F6E74656E745F54797065735D2E786D6C7D8EC10E82300C865F65E91D8A1E8C310C0EEA1BF002731658846E
310
D98AC1B77784ABF1D8FE5FBFBF75BBCE937A534CCEB38643598122B6FEE978D0B0485F9C41B54DDD7D022595594E1A469170414C76A4D9A4D207E29CF43ECE46F218070CC6BECC4078ACAA135ACF422C856C0E68EA1BF5669944DDD7BCDE7B1F8E415D77AECB980613C2E4AC91FC167A2B244592486606FC29C8FD7F045B9A
310
EF7053A7E60B504B0304140006080800CC70623BD9DDAED0EC0000007C01000008000000636F72652E786D6C8D90416EC3201045AF82665B61836D9CD8C2444DD39CA01740405C94182C03558F5F9C3852BBEB6A467FFE9B197D7EF89E6EE8CB2CC17A37002D0820E394D7D68D03A478C17B4007C117EFE32F1B20272733C0
310
2A83E0E3E2D3BC49CABB685CCCAAF3DA6CA20CC14440EA969B0182FA34932C648AD911AEC52CD5558EA6A0CF2EC329598D1E47ACCEFBECC59A050463A7EA5833865FEBDD0E37353BE3EE8DBDE3F6786A48D375FBF6CC78B9C282473B3DEFABC5C86834888A900E538A49F5419B9EB47DD5BC907D4F082F57FB1F28CDFA9F50
310
B22ED6D5F6EE030B20687EE43E10BC5CB3C8E51E54AE6B6EE207504B0304140006080800CC70623B55019EA25F0000007C00000007000000636E782E786D6C4DCB3B0E80201045D1AD90E915ED2CF8AC45050C11660C8261F98AB1B07AC9C97D42D718D865D3E909258CFD00CCE24AC6E326A164D74DC0B4128928FF326038
310
472BA13128B1252AC747C6BAB984FC68F0B87FE8960A5C09FE86CFB69FBA01504B0304140006080800CC70623BA24EB22D72010000D40300000C0000006662782F636F72652E786D6CC5535B6E833010BC8AE5DF0A6C5E49888CA3A6694ED00B38E05014B091B1518EDFE511A5A9D228FD2A1F60CDEC7A67C6986DCE4D8D7A
310
69BA4AAB0C073EC548AA5C17952A33ECECD15B61B4E1CC686DBF9561A44423333CC098B3D268D7CE50AE9595CA02AA74216750749DB418E5352C32DCE59FB211BE70162ABA93DF8AFC244AE9073ED050C759670D0840D390E18DF9F1706664C23973AE2A66B62A605A75ACA4C13C4976E1364A12EF355A2EBD384AF65EFA96
310
BC7B8BED2EA6719AAE16FB8491A199335B351775B991C2CA02F390D2D40B028F861F41BCA68B7518BFD0D59A524686F29B26D7164F36B94AD9289CE54E6D1DE6010819891F6E21228B3AD1831EC219194284CF98F06DD01008846CC5A1BEF83801D4CBDC6A1303536877A57A513B0953A94FC707FDBE6064EA84A9E3E6E0FA
310
EE8CF0E9198F7784A316AA0413C2C2F2E0ECA0934D1AE6D05A69BCDE9E91D2A611F573361E38FC1375157F5752AE6B6DFE4B11990F88CCBF0719EE23FF02504B0304140006080800CC70623B408A7D3B7C0000009D0000000B0000006662782F636E782E786D6C4DCCD10A83201886E15B91FFDC552A92A0064DBC8F581632
310
D3703A76F9ABD1C18E3E78F878E5F0D9027ABBFCF2292AE86E2D20171F69F6715550CB827B40839639A5F2770314A7CD293819B45C73AAFB45B35BA61ACAA1C1C7E7855C58C15BC331339661262CC762340413D68D77DA5B42298546CBE6573AF60CEB2F504B0304140006080800CC70623B449FB9BD290100001202000031
310
0000006662782F36394639363044362D344446342D343946362D394244322D3234314243333846323333332F636F72652E786D6C8D515B6EC32010BC0AE22B55850D98B871848994463E412FE002495162B07854397EA176A4F62F3F2C9A9D991D587EB84F37F0AD7D30CEF6905418026DA553C65E7A98E219ED203808EE9D
310
8B7F6810D871D23D2C3014FCE25D9A57483A1BB58D19B54EE9151C43D0110279CB971E06F9A5A7B11A53CC8C70ADE6515EC78BAE4895DB992778883E0700CB907242D17643D7E2538BD869608875438BBAE38922CAC8F1BDD90DB4691A5E2F42C153326A951B95E398B3D1FE599322163C9AE9115F7A3D46ADA0A018778810
310
84E907617BDCEE297BC5BB3DC6BC2EF47FA234AB2745C9D8D8D035EE220B50105E2F0DC1954B9FB747187D9F9D8FA0CCDB042D5FA0C015C65B42DF78BD10F3F3B363CB56C7109DCFDFBBB97E662ED92EB62D13BC2E1BCAE5777DB9966D8A1F504B0304140006080800CC70623BAD7543B64E01000033030000300000006662
310
782F36394639363044362D344446342D343946362D394244322D3234314243333846323333332F636E782E786D6CD593CD6EC32010845F0571AD6CE3D48AD20813A9873E410FBD12D82434182C7EAAE6EDBB2424CD25871E7B41D6EC30B3FA84F9E67BB2E40B4234DE8DB46F1925E094D7C6ED479AD3AE5951B2113C789FEE
310
6C943839C1488B4C05DF079FE72A69D8C96C13AAD6B8631503449F83828872B949AC57D26200B826A308D316B4064D6E46FCDA41C05550DC9E483A00797BFD207EFB092A45DE9514C1BBD22178396BD39D891265658C238DEA00936C654E5E433CB65A26D9F6EDB5EBC14EBF49A45CB856E66048291F6939A9A81BB5C89177
310
38143CA680F4AA299D66A042CEB3354A2684DC9D8D178FE0D9B8B41CAAD720F880EE7EF93C0C18769E099ECC04D5A102C8049A8A05632F4DDF376CF1DE0F6BB65C2F8627B65A33C6BB62177CEBBDAD973006829F89F22E814B54F4BC2BE347F8AA8F681390B50FA73F804400B5F542E796F19FF974E7F78DB802FE05E20750
310
4B0304140006080800CC70623B8D05915C650500003B100000340000006662782F36394639363044362D344446342D343946362D394244322D3234314243333846323333332F6F626A656374732E786D6CAD575B6FA33814FE2B887D06429276DA1565D4266D158D3A339A6846FB502932E050B66023DB74D2FDF5FB190C01
310
9276B2973C046C8ECFF53B17071F77456EBD502133CEAE6CDF9DD81665314F32965ED995DA3A17B6F5310C04E7AA47665B8C14F4CAD6DB7618A48257A5D94AE89654B91AEDDEDDFC61C998326A5B714EA4BCB265FC440BE2924AF184CA6737218AB8E976E7FA6E4338649B0A523E8D98964450A6A029F619B8588D52FE7039
310
B1BD30F0F4F730D0FF866AF6369557DB33949F31A9088B0F848DD8CCFCF9F2767A76E99CCDE733677E3EF59D9BBB9BA5E37F984D16E78BC5E5F5ED25044B25C0C96822E8D60EEFE11B91C581D77CEA34368A1F5329E68CD1B8B61F16D63A1B8E092D294B10C78C4A48EB593D192E7DED9BDEE7995E1B91FDEDD3ACEA9FE831
310
6A756F9F7D4D79F4274C90A7A04248AA51D5F8C718DAE06FB2F75AC4796EBE65D22A88A22223B995679120E2D50E41AA49C260C046A35368846B0BECD0DFF3EBEB8AD4F835768F69B9ADF25C43D30E6B646F807FAA64AD59F61715C7A54127C4AACA98BA3006A9D792DAE165E0D59B61A01FB3A9F9D838D2DAE62445C86166
310
F37564E842E7DE6A69879FEEA2DD5AE7E371E1A5E025154AC307D06A03D73EB5978C58FFA4C8E9033066E0F3BD53BEC1F39F91BE7B55103791EDE6BBB991A2046172CB4581D8B893FA674DDA17A77B3B7C413D1B511FD2743BFF8A38F03A658705E3ADF8015C3A3417FF3D7E439FF591DA0B5F18BC20C1B8981957AE6392A3
310
F43C640C01D1A0B4728E2DD4F26DB4B3C3152A252A3B4E913CEC1C72F012782FF88EFF8637AA552DBEF76408E8A8DE9E50F9E1CB3A2DA0DB1B6039A893B56063DC5B3E3FFB5F72E67AB9FEB4AEC496C4F4C1149625DD662C53E89D7BF0F6151A046260D1337DFDC94502430F83B0EE07A130A224BCAD7DAE1D9FB6CD422FF6
310
920702629C4BB9AE79C12F243C6432A6794E18E5552BA56B431AAB5D91317302B2B071E86C3A42B1A02F999E24061403B5D0EB639195DA655DD3EBEAB4FB862DDF579F014AD0E73C22F99E28DA57FB98E75C6CA2D74D53086D600F4786E0FE3144B771A8A7B900F03594DB8A633CBC49B2EDB69228BB479CF863B5E807AAAB
310
23872F6DFEB4129B949CA33823F58830E86D65621E10047D9DB34D862E8EAC3C2ABC2F7B2C40D67CDFE01F5545B92105AF983AC54D93D69E56FB8E797F88913F898A9FEC705D3F9D1B54EC8426FB500D40A03BD0119B06E1B95DDC7EB8F6975367793EBD70E66733DFB9BC982F9CE564727731999F5D4ECFCE3B8D6A4DC2A0
310
6D50FD148437D110834A64C6CDDF57FBACB5C307A2A477DFE4939736CFEF2B175371E0E10CF0DD1D5C15654E0BCA14D1E87DD02FF93782A162C0A3D95F1524A52770F972BF1EE9809D13CE7DD599467F8ECE9ADD85CE85A34CD45355448C64F9E8A031DC2D596ACC6E5DD93D9B82DE2EF5CAF81363A8E47996A0DE24564A79
310
4115AACE09C55E14540231FDA13C319787134EBF34E3A022514E5B4D9E0826E25C02D5805B15ABE1BEF51B26383D445DD9E875EE33FE4C22DA16427D65A3BCA92CA6D28DD01DF5DC53330704308475351050232CCD31583787BA75774AFB06E5070DD0C8EF484E19968C5D83BA5B90B244D31E54D55A372320FE4786B7EA58
310
44E135AA5467CB7EA333A61683CC6A8C3257034C10CF46F40EF9F5BE59BE5BD30C3C72D235E95D10345C1D45445A5F0BB47E46A5EBE5570F9380B5FA629579952296A773720405982B9DE04011506178964401AA8BDF1FBF0A8EAB6861DD6580C0E38217056766716DAEB2D6FA0917D3E4116581EADB879C4E7CFFB11EFACD
310
3D641311495D92C8676CB409A72D18610D803CE8A626049E8EC1887CB5B44CC39883690DDA8399B4B9855B481E7D71D4A9D22F96E5BB73BF5793020C02137BF837504B0304140006080000CC70623B000000000000000000000000350000006662782F36394639363044362D344446342D343946362D394244322D32343142
310
43333846323333332F76657274696365732E62696E504B0304140006080800CC70623BF270F1330600000004000000360000006662782F36394639363044362D344446342D343946362D394244322D3234314243333846323333332F747269616E676C65732E62696E636660600000504B0304140006080000CC70623B0000
310
00000000000000000000370000006662782F36394639363044362D344446342D343946362D394244322D3234314243333846323333332F617474726962757465732E62696E504B0304140006080800CC70623B08DA0BD19000000041010000360000006662782F36394639363044362D344446342D343946362D394244322D
310
3234314243333846323333332F6469726563746F72792E786D6C858F410AC3201045AF22B36F53E9A60B35CBEEBAE80D244E44489C6234F4F835464A48035D0DF398FF9F8AF63D0E6CC63039F212F8F9020C7D47C6792B21C5FE7403D62A1188E2E60C98D7234A5830286103A55745067B9D86B8A3CF9C7F90C11DE607FB14
310
4396D7B6A82D282E9A152AD114D5EF2CB866EEE831B8EEA07A7BB5A8D7D61A2BAAEB7FD5F70921FF497D00504B0304140006080800CC70623BCA768048FE000000A00100003B0000006662782F36394639363044362D344446342D343946362D394244322D3234314243333846323333332F7265736F75726365732F636F72
310
652E786D6C8D50596E833010BD0A9ADFCA60D600328E9AA639412F609909B1126CE4A5EAF16B0295DABFFECC8CDEA2797AECF8353F924FB44E193D409E5248504B332A3D0D10FC95B4901C39B3C6F85F3248B49871801506CE266BC2B243D2688FDA47549B11775038871E12F988C7004EDE7016A9083E2ADC3D5D84BC8B09
310
D33C8D74D471E6BC8D0192EDC93A815B742658898E651BCB59086ADC356A8C3FD555A1055ED7E7E254D615792D0F075295F585746FF53B694EE78A565DD736979A65AB9933AFE69F8CD2A2F038022F28ED489E135A7CE4554F9BBEA85E68DB53CAB255FEC71496F19FA6A0B42F8B3DEE6673C0F318E4497096AD7DC5F52C33
310
EEB55BFE0D504B010214000A0000080000CC70623B3DEE336E79000000790000001B00000000000000000000000000000000006175746F6465736B2D64657369676E2D7061636B6167652E786D6C504B01021400140006080800CC70623BD486FD9CA0000000F40000001300000000000000000000000000B20000005B436F
310
6E74656E745F54797065735D2E786D6C504B01021400140006080800CC70623BD9DDAED0EC0000007C010000080000000000000000000000000083010000636F72652E786D6C504B01021400140006080800CC70623B55019EA25F0000007C000000070000000000000000000000000095020000636E782E786D6C504B0102
310
1400140006080800CC70623BA24EB22D72010000D40300000C00000000000000000000000000190300006662782F636F72652E786D6C504B01021400140006080800CC70623B408A7D3B7C0000009D0000000B00000000000000000000000000B50400006662782F636E782E786D6C504B01021400140006080800CC70623B
310
449FB9BD290100001202000031000000000000000000000000005A0500006662782F36394639363044362D344446342D343946362D394244322D3234314243333846323333332F636F72652E786D6C504B01021400140006080800CC70623BAD7543B64E010000330300003000000000000000000000000000D20600006662
310
782F36394639363044362D344446342D343946362D394244322D3234314243333846323333332F636E782E786D6C504B01021400140006080800CC70623B8D05915C650500003B10000034000000000000000000000000006E0800006662782F36394639363044362D344446342D343946362D394244322D32343142433338
310
46323333332F6F626A656374732E786D6C504B01021400140006080000CC70623B0000000000000000000000003500000000000000000000000000250E00006662782F36394639363044362D344446342D343946362D394244322D3234314243333846323333332F76657274696365732E62696E504B010214001400060808
310
00CC70623BF270F13306000000040000003600000000000000000000000000780E00006662782F36394639363044362D344446342D343946362D394244322D3234314243333846323333332F747269616E676C65732E62696E504B01021400140006080000CC70623B00000000000000000000000037000000000000000000
310
00000000D20E00006662782F36394639363044362D344446342D343946362D394244322D3234314243333846323333332F617474726962757465732E62696E504B01021400140006080800CC70623B08DA0BD190000000410100003600000000000000000000000000270F00006662782F36394639363044362D344446342D
310
343946362D394244322D3234314243333846323333332F6469726563746F72792E786D6C504B01021400140006080800CC70623BCA768048FE000000A00100003B000000000000000000000000000B1000006662782F36394639363044362D344446342D343946362D394244322D3234314243333846323333332F7265736F
310
75726365732F636F72652E786D6C504B0506000000000E000E0080040000621100000000
  0
XRECORD
  5
176
102
{ACAD_REACTORS
330
173
102
}
330
173
100
AcDbXrecord
280
     1
270
     1
271
     1
  0
XRECORD
  5
177
102
{ACAD_REACTORS
330
173
102
}
330
173
100
AcDbXrecord
280
     1
270
     1
271
     1
  0
CELLSTYLEMAP
  5
6B6
102
{ACAD_REACTORS
330
162
102
}
330
162
100
AcDbCellStyleMap
 90
        3
300
CELLSTYLE
  1
TABLEFORMAT_BEGIN
 90
        5
170
     1
 91
        0
 92
    32768
 62
   257
 93
        1
300
CONTENTFORMAT
  1
CONTENTFORMAT_BEGIN
 90
        0
 91
        0
 92
      512
 93
        0
300

 40
0.0
140
1.0
 94
        5
 62
     0
340
11
144
6.0
309
CONTENTFORMAT_END
171
     1
301
MARGIN
  1
CELLMARGIN_BEGIN
 40
1.5
 40
1.5
 40
1.5
 40
1.5
 40
4.5
 40
4.5
309
CELLMARGIN_END
 94
        6
 95
        1
302
GRIDFORMAT
  1
GRIDFORMAT_BEGIN
 90
        0
 91
        1
 62
     0
 92
       -2
340
14
 93
        0
 40
1.125
309
GRIDFORMAT_END
 95
        2
302
GRIDFORMAT
  1
GRIDFORMAT_BEGIN
 90
        0
 91
        1
 62
     0
 92
       -2
340
14
 93
        0
 40
1.125
309
GRIDFORMAT_END
 95
        4
302
GRIDFORMAT
  1
GRIDFORMAT_BEGIN
 90
        0
 91
        1
 62
     0
 92
       -2
340
14
 93
        0
 40
1.125
309
GRIDFORMAT_END
 95
        8
302
GRIDFORMAT
  1
GRIDFORMAT_BEGIN
 90
        0
 91
        1
 62
     0
 92
       -2
340
14
 93
        0
 40
1.125
309
GRIDFORMAT_END
 95
       16
302
GRIDFORMAT
  1
GRIDFORMAT_BEGIN
 90
        0
 91
        1
 62
     0
 92
       -2
340
14
 93
        0
 40
1.125
309
GRIDFORMAT_END
 95
       32
302
GRIDFORMAT
  1
GRIDFORMAT_BEGIN
 90
        0
 91
        1
 62
     0
 92
       -2
340
14
 93
        0
 40
1.125
309
GRIDFORMAT_END
309
TABLEFORMAT_END
  1
CELLSTYLE_BEGIN
 90
        1
 91
        1
300
_TITLE
309
CELLSTYLE_END
300
CELLSTYLE
  1
TABLEFORMAT_BEGIN
 90
        5
170
     1
 91
        0
 92
        0
 62
   257
 93
        1
300
CONTENTFORMAT
  1
CONTENTFORMAT_BEGIN
 90
        0
 91
        0
 92
      512
 93
        0
300

 40
0.0
140
1.0
 94
        5
 62
     0
340
11
144
4.5
309
CONTENTFORMAT_END
171
     1
301
MARGIN
  1
CELLMARGIN_BEGIN
 40
1.5
 40
1.5
 40
1.5
 40
1.5
 40
4.5
 40
4.5
309
CELLMARGIN_END
 94
        6
 95
        1
302
GRIDFORMAT
  1
GRIDFORMAT_BEGIN
 90
        0
 91
        1
 62
     0
 92
       -2
340
14
 93
        0
 40
1.125
309
GRIDFORMAT_END
 95
        2
302
GRIDFORMAT
  1
GRIDFORMAT_BEGIN
 90
        0
 91
        1
 62
     0
 92
       -2
340
14
 93
        0
 40
1.125
309
GRIDFORMAT_END
 95
        4
302
GRIDFORMAT
  1
GRIDFORMAT_BEGIN
 90
        0
 91
        1
 62
     0
 92
       -2
340
14
 93
        0
 40
1.125
309
GRIDFORMAT_END
 95
        8
302
GRIDFORMAT
  1
GRIDFORMAT_BEGIN
 90
        0
 91
        1
 62
     0
 92
       -2
340
14
 93
        0
 40
1.125
309
GRIDFORMAT_END
 95
       16
302
GRIDFORMAT
  1
GRIDFORMAT_BEGIN
 90
        0
 91
        1
 62
     0
 92
       -2
340
14
 93
        0
 40
1.125
309
GRIDFORMAT_END
 95
       32
302
GRIDFORMAT
  1
GRIDFORMAT_BEGIN
 90
        0
 91
        1
 62
     0
 92
       -2
340
14
 93
        0
 40
1.125
309
GRIDFORMAT_END
309
TABLEFORMAT_END
  1
CELLSTYLE_BEGIN
 90
        2
 91
        1
300
_HEADER
309
CELLSTYLE_END
300
CELLSTYLE
  1
TABLEFORMAT_BEGIN
 90
        5
170
     1
 91
        0
 92
        0
 62
   257
 93
        1
300
CONTENTFORMAT
  1
CONTENTFORMAT_BEGIN
 90
        0
 91
        0
 92
      512
 93
        0
300

 40
0.0
140
1.0
 94
        2
 62
     0
340
11
144
4.5
309
CONTENTFORMAT_END
171
     1
301
MARGIN
  1
CELLMARGIN_BEGIN
 40
1.5
 40
1.5
 40
1.5
 40
1.5
 40
4.5
 40
4.5
309
CELLMARGIN_END
 94
        6
 95
        1
302
GRIDFORMAT
  1
GRIDFORMAT_BEGIN
 90
        0
 91
        1
 62
     0
 92
       -2
340
14
 93
        0
 40
1.125
309
GRIDFORMAT_END
 95
        2
302
GRIDFORMAT
  1
GRIDFORMAT_BEGIN
 90
        0
 91
        1
 62
     0
 92
       -2
340
14
 93
        0
 40
1.125
309
GRIDFORMAT_END
 95
        4
302
GRIDFORMAT
  1
GRIDFORMAT_BEGIN
 90
        0
 91
        1
 62
     0
 92
       -2
340
14
 93
        0
 40
1.125
309
GRIDFORMAT_END
 95
        8
302
GRIDFORMAT
  1
GRIDFORMAT_BEGIN
 90
        0
 91
        1
 62
     0
 92
       -2
340
14
 93
        0
 40
1.125
309
GRIDFORMAT_END
 95
       16
302
GRIDFORMAT
  1
GRIDFORMAT_BEGIN
 90
        0
 91
        1
 62
     0
 92
       -2
340
14
 93
        0
 40
1.125
309
GRIDFORMAT_END
 95
       32
302
GRIDFORMAT
  1
GRIDFORMAT_BEGIN
 90
        0
 91
        1
 62
     0
 92
       -2
340
14
 93
        0
 40
1.125
309
GRIDFORMAT_END
309
TABLEFORMAT_END
  1
CELLSTYLE_BEGIN
 90
        3
 91
        2
300
_DATA
309
CELLSTYLE_END
  0
ENDSEC
  0
SECTION
  2
ACDSDATA
 70
     2
 71
     8
  0
ACDSSCHEMA
 90
        0
  1
AcDb_Thumbnail_Schema
  2
AcDbDs::ID
280
    10
 91
        8
  2
Thumbnail_Data
280
    15
 91
        0
101
ACDSRECORD
 95
        0
 90
        1
  2
AcDbDs::TreatedAsObjectData
280
     1
291
     1
101
ACDSRECORD
 95
        0
 90
        2
  2
AcDbDs::Legacy
280
     1
291
     1
101
ACDSRECORD
  1
AcDbDs::ID
 90
        3
  2
AcDs:Indexable
280
     1
291
     1
101
ACDSRECORD
  1
AcDbDs::ID
 90
        4
  2
AcDbDs::HandleAttribute
280
     7
282
     1
  0
ACDSSCHEMA
 90
        1
  1
AcDbDs::TreatedAsObjectDataSchema
  2
AcDbDs::TreatedAsObjectData
280
     1
 91
        0
  0
ACDSSCHEMA
 90
        2
  1
AcDbDs::LegacySchema
  2
AcDbDs::Legacy
280
     1
 91
        0
  0
ACDSSCHEMA
 90
        3
  1
AcDbDs::IndexedPropertySchema
  2
AcDs:Indexable
280
     1
 91
        0
  0
ACDSSCHEMA
 90
        4
  1
AcDbDs::HandleAttributeSchema
  2
AcDbDs::HandleAttribute
280
     7
 91
        1
284
     1
  0
ACDSRECORD
 90
        0
  2
AcDbDs::ID
280
    10
320
22
  2
Thumbnail_Data
280
    15
 94
      896
310
89504E470D0A1A0A0000000D49484452000001000000009108030000001BE1960600000300504C5445212830FFFFFF2128300000000000000000000000000000000000000000000000000000330000660000990000CC0000FF0033000033330033660033990033CC0033FF0066000066330066660066990066CC0066FF0099
310
000099330099660099990099CC0099FF00CC0000CC3300CC6600CC9900CCCC00CCFF00FF0000FF3300FF6600FF9900FFCC00FFFF3300003300333300663300993300CC3300FF3333003333333333663333993333CC3333FF3366003366333366663366993366CC3366FF3399003399333399663399993399CC3399FF33CC00
310
33CC3333CC6633CC9933CCCC33CCFF33FF0033FF3333FF6633FF9933FFCC33FFFF6600006600336600666600996600CC6600FF6633006633336633666633996633CC6633FF6666006666336666666666996666CC6666FF6699006699336699666699996699CC6699FF66CC0066CC3366CC6666CC9966CCCC66CCFF66FF0066
310
FF3366FF6666FF9966FFCC66FFFF9900009900339900669900999900CC9900FF9933009933339933669933999933CC9933FF9966009966339966669966999966CC9966FF9999009999339999669999999999CC9999FF99CC0099CC3399CC6699CC9999CCCC99CCFF99FF0099FF3399FF6699FF9999FFCC99FFFFCC0000CC00
310
33CC0066CC0099CC00CCCC00FFCC3300CC3333CC3366CC3399CC33CCCC33FFCC6600CC6633CC6666CC6699CC66CCCC66FFCC9900CC9933CC9966CC9999CC99CCCC99FFCCCC00CCCC33CCCC66CCCC99CCCCCCCCCCFFCCFF00CCFF33CCFF66CCFF99CCFFCCCCFFFFFF0000FF0033FF0066FF0099FF00CCFF00FFFF3300FF3333
310
FF3366FF3399FF33CCFF33FFFF6600FF6633FF6666FF6699FF66CCFF66FFFF9900FF9933FF9966FF9999FF99CCFF99FFFFCC00FFCC33FFCC66FFCC99FFCCCCFFCCFFFFFF00FFFF33FFFF66FFFF99FFFFCCFFFFFF0000000D0D0D1A1A1A2828283535354343435050505D5D5D6B6B6B787878868686939393A1A1A1AEAEAEBB
310
BBBBC9C9C9D6D6D6E4E4E4F1F1F1FFFFFF0000000000000000000000000000000000000000000000000000000000002E4550F10000003B4944415478DAEDC13101000000C2A0F54F6D0B2FA0000000000000000000000000000000000000000000000000000000000000000000000000CE06919100016C9A5B1B0000000049
310
454E44AE426082
  0
ENDSEC
  0
EOF
