  0
SECTION
  2
HEADER
  9
$ACADVER
  1
AC1032
  9
$ACADMAINTVER
 90
      250
  9
$DWGCODEPAGE
  3
ANSI_932
  9
$LASTSAVEDBY
  1
dsp199
  9
$REQUIREDVERSIONS
160
                 0
  9
$INSBASE
 10
0.0
 20
0.0
 30
0.0
  9
$EXTMIN
 10
111.7991579843926
 20
74.19385738968776
 30
-0.0000000000000033
  9
$EXTMAX
 10
161.6527335242353
 20
122.260962523703
 30
0.0000000000018191
  9
$LIMMIN
 10
0.0
 20
0.0
  9
$LIMMAX
 10
12.0
 20
9.0
  9
$ORTHOMODE
 70
     0
  9
$REGENMODE
 70
     1
  9
$FILLMODE
 70
     1
  9
$QTEXTMODE
 70
     0
  9
$MIRRTEXT
 70
     0
  9
$LTSCALE
 40
1.0
  9
$ATTMODE
 70
     1
  9
$TEXTSIZE
 40
2.5
  9
$TRACEWID
 40
1.0
  9
$TEXTSTYLE
  7
Standard
  9
$CLAYER
  8
0
  9
$CELTYPE
  6
ByLayer
  9
$CECOLOR
 62
   256
  9
$CELTSCALE
 40
1.0
  9
$DISPSILH
 70
     0
  9
$DIMSCALE
 40
1.0
  9
$DIMASZ
 40
2.5
  9
$DIMEXO
 40
0.625
  9
$DIMDLI
 40
3.75
  9
$DIMRND
 40
0.0
  9
$DIMDLE
 40
0.0
  9
$DIMEXE
 40
1.25
  9
$DIMTP
 40
0.0
  9
$DIMTM
 40
0.0
  9
$DIMTXT
 40
2.5
  9
$DIMCEN
 40
2.5
  9
$DIMTSZ
 40
0.0
  9
$DIMTOL
 70
     0
  9
$DIMLIM
 70
     0
  9
$DIMTIH
 70
     0
  9
$DIMTOH
 70
     0
  9
$DIMSE1
 70
     0
  9
$DIMSE2
 70
     0
  9
$DIMTAD
 70
     1
  9
$DIMZIN
 70
     8
  9
$DIMBLK
  1

  9
$DIMASO
 70
     1
  9
$DIMSHO
 70
     1
  9
$DIMPOST
  1

  9
$DIMAPOST
  1

  9
$DIMALT
 70
     0
  9
$DIMALTD
 70
     3
  9
$DIMALTF
 40
0.03937007874016
  9
$DIMLFAC
 40
1.0
  9
$DIMTOFL
 70
     1
  9
$DIMTVP
 40
0.0
  9
$DIMTIX
 70
     0
  9
$DIMSOXD
 70
     0
  9
$DIMSAH
 70
     0
  9
$DIMBLK1
  1

  9
$DIMBLK2
  1

  9
$DIMSTYLE
  2
ISO-25
  9
$DIMCLRD
 70
     0
  9
$DIMCLRE
 70
     0
  9
$DIMCLRT
 70
     0
  9
$DIMTFAC
 40
1.0
  9
$DIMGAP
 40
0.625
  9
$DIMJUST
 70
     0
  9
$DIMSD1
 70
     0
  9
$DIMSD2
 70
     0
  9
$DIMTOLJ
 70
     0
  9
$DIMTZIN
 70
     8
  9
$DIMALTZ
 70
     0
  9
$DIMALTTZ
 70
     0
  9
$DIMUPT
 70
     0
  9
$DIMDEC
 70
     2
  9
$DIMTDEC
 70
     2
  9
$DIMALTU
 70
     2
  9
$DIMALTTD
 70
     3
  9
$DIMTXSTY
  7
Standard
  9
$DIMAUNIT
 70
     0
  9
$DIMADEC
 70
     0
  9
$DIMALTRND
 40
0.0
  9
$DIMAZIN
 70
     0
  9
$DIMDSEP
 70
    44
  9
$DIMATFIT
 70
     3
  9
$DIMFRAC
 70
     0
  9
$DIMLDRBLK
  1

  9
$DIMLUNIT
 70
     2
  9
$DIMLWD
 70
    -2
  9
$DIMLWE
 70
    -2
  9
$DIMTMOVE
 70
     0
  9
$DIMFXL
 40
1.0
  9
$DIMFXLON
 70
     0
  9
$DIMJOGANG
 40
0.7853981633974483
  9
$DIMTFILL
 70
     0
  9
$DIMTFILLCLR
 70
     0
  9
$DIMARCSYM
 70
     0
  9
$DIMLTYPE
  6

  9
$DIMLTEX1
  6

  9
$DIMLTEX2
  6

  9
$DIMTXTDIRECTION
 70
     0
  9
$LUNITS
 70
     2
  9
$LUPREC
 70
     4
  9
$SKETCHINC
 40
1.0
  9
$FILLETRAD
 40
0.0
  9
$AUNITS
 70
     0
  9
$AUPREC
 70
     0
  9
$MENU
  1
.
  9
$ELEVATION
 40
0.0
  9
$PELEVATION
 40
0.0
  9
$THICKNESS
 40
0.0
  9
$LIMCHECK
 70
     0
  9
$CHAMFERA
 40
0.0
  9
$CHAMFERB
 40
0.0
  9
$CHAMFERC
 40
0.0
  9
$CHAMFERD
 40
0.0
  9
$SKPOLY
 70
     0
  9
$TDCREATE
 40
2460388.382997685
  9
$TDUCREATE
 40
2460388.007997685
  9
$TDUPDATE
 40
2460388.383796296
  9
$TDUUPDATE
 40
2460388.008796297
  9
$TDINDWG
 40
0.0007754630
  9
$TDUSRTIMER
 40
0.0007754630
  9
$USRTIMER
 70
     1
  9
$ANGBASE
 50
0.0
  9
$ANGDIR
 70
     0
  9
$PDMODE
 70
     0
  9
$PDSIZE
 40
0.0
  9
$PLINEWID
 40
0.0
  9
$SPLFRAME
 70
     0
  9
$SPLINETYPE
 70
     6
  9
$SPLINESEGS
 70
     8
  9
$HANDSEED
  5
49D
  9
$SURFTAB1
 70
     6
  9
$SURFTAB2
 70
     6
  9
$SURFTYPE
 70
     6
  9
$SURFU
 70
     6
  9
$SURFV
 70
     6
  9
$UCSBASE
  2

  9
$UCSNAME
  2

  9
$UCSORG
 10
0.0
 20
0.0
 30
0.0
  9
$UCSXDIR
 10
1.0
 20
0.0
 30
0.0
  9
$UCSYDIR
 10
0.0
 20
1.0
 30
0.0
  9
$UCSORTHOREF
  2

  9
$UCSORTHOVIEW
 70
     0
  9
$UCSORGTOP
 10
0.0
 20
0.0
 30
0.0
  9
$UCSORGBOTTOM
 10
0.0
 20
0.0
 30
0.0
  9
$UCSORGLEFT
 10
0.0
 20
0.0
 30
0.0
  9
$UCSORGRIGHT
 10
0.0
 20
0.0
 30
0.0
  9
$UCSORGFRONT
 10
0.0
 20
0.0
 30
0.0
  9
$UCSORGBACK
 10
0.0
 20
0.0
 30
0.0
  9
$PUCSBASE
  2

  9
$PUCSNAME
  2

  9
$PUCSORG
 10
0.0
 20
0.0
 30
0.0
  9
$PUCSXDIR
 10
1.0
 20
0.0
 30
0.0
  9
$PUCSYDIR
 10
0.0
 20
1.0
 30
0.0
  9
$PUCSORTHOREF
  2

  9
$PUCSORTHOVIEW
 70
     0
  9
$PUCSORGTOP
 10
0.0
 20
0.0
 30
0.0
  9
$PUCSORGBOTTOM
 10
0.0
 20
0.0
 30
0.0
  9
$PUCSORGLEFT
 10
0.0
 20
0.0
 30
0.0
  9
$PUCSORGRIGHT
 10
0.0
 20
0.0
 30
0.0
  9
$PUCSORGFRONT
 10
0.0
 20
0.0
 30
0.0
  9
$PUCSORGBACK
 10
0.0
 20
0.0
 30
0.0
  9
$USERI1
 70
     0
  9
$USERI2
 70
     0
  9
$USERI3
 70
     0
  9
$USERI4
 70
     0
  9
$USERI5
 70
     0
  9
$USERR1
 40
0.0
  9
$USERR2
 40
0.0
  9
$USERR3
 40
0.0
  9
$USERR4
 40
0.0
  9
$USERR5
 40
0.0
  9
$WORLDVIEW
 70
     1
  9
$SHADEDGE
 70
     3
  9
$SHADEDIF
 70
    70
  9
$TILEMODE
 70
     1
  9
$MAXACTVP
 70
    64
  9
$PINSBASE
 10
0.0
 20
0.0
 30
0.0
  9
$PLIMCHECK
 70
     0
  9
$PEXTMIN
 10
1.000000000000000E+20
 20
1.000000000000000E+20
 30
1.000000000000000E+20
  9
$PEXTMAX
 10
-1.000000000000000E+20
 20
-1.000000000000000E+20
 30
-1.000000000000000E+20
  9
$PLIMMIN
 10
0.0
 20
0.0
  9
$PLIMMAX
 10
12.0
 20
9.0
  9
$UNITMODE
 70
     0
  9
$VISRETAIN
 70
     1
  9
$PLINEGEN
 70
     0
  9
$PSLTSCALE
 70
     1
  9
$TREEDEPTH
 70
  3020
  9
$CMLSTYLE
  2
Standard
  9
$CMLJUST
 70
     0
  9
$CMLSCALE
 40
20.0
  9
$PROXYGRAPHICS
 70
     1
  9
$MEASUREMENT
 70
     1
  9
$CELWEIGHT
370
    -1
  9
$ENDCAPS
280
     0
  9
$JOINSTYLE
280
     0
  9
$LWDISPLAY
290
     0
  9
$INSUNITS
 70
     4
  9
$HYPERLINKBASE
  1

  9
$STYLESHEET
  1

  9
$XEDIT
290
     1
  9
$CEPSNTYPE
380
     0
  9
$PSTYLEMODE
290
     1
  9
$FINGERPRINTGUID
  2
{244AC54B-C989-6641-AE82-9CFC1E40AF48}
  9
$VERSIONGUID
  2
{D47C5D8B-DBC8-1449-B53C-1EFB3C610850}
  9
$EXTNAMES
290
     1
  9
$PSVPSCALE
 40
0.0
  9
$OLESTARTUP
290
     0
  9
$SORTENTS
280
   127
  9
$INDEXCTL
280
     0
  9
$HIDETEXT
280
     1
  9
$XCLIPFRAME
280
     2
  9
$HALOGAP
280
     0
  9
$OBSCOLOR
 70
   257
  9
$OBSLTYPE
280
     0
  9
$INTERSECTIONDISPLAY
280
     0
  9
$INTERSECTIONCOLOR
 70
   257
  9
$DIMASSOC
280
     2
  9
$PROJECTNAME
  1

  9
$CAMERADISPLAY
290
     0
  9
$LENSLENGTH
 40
50.0
  9
$CAMERAHEIGHT
 40
0.0
  9
$STEPSPERSEC
 40
2.0
  9
$STEPSIZE
 40
6.0
  9
$3DDWFPREC
 40
2.0
  9
$PSOLWIDTH
 40
5.0
  9
$PSOLHEIGHT
 40
80.0
  9
$LOFTANG1
 40
1.570796326794896
  9
$LOFTANG2
 40
1.570796326794896
  9
$LOFTMAG1
 40
0.0
  9
$LOFTMAG2
 40
0.0
  9
$LOFTPARAM
 70
     7
  9
$LOFTNORMALS
280
     1
  9
$LATITUDE
 40
37.795
  9
$LONGITUDE
 40
-122.394
  9
$NORTHDIRECTION
 40
0.0
  9
$TIMEZONE
 70
 -8000
  9
$LIGHTGLYPHDISPLAY
280
     1
  9
$TILEMODELIGHTSYNCH
280
     1
  9
$CMATERIAL
347
11
  9
$SOLIDHIST
280
     0
  9
$SHOWHIST
280
     1
  9
$DWFFRAME
280
     2
  9
$DGNFRAME
280
     0
  9
$REALWORLDSCALE
290
     1
  9
$INTERFERECOLOR
 62
     1
  9
$INTERFEREOBJVS
345
33
  9
$INTERFEREVPVS
346
30
  9
$CSHADOW
280
     0
  9
$SHADOWPLANELOCATION
 40
0.0
  0
ENDSEC
  0
SECTION
  2
CLASSES
  0
CLASS
  1
ACDBDICTIONARYWDFLT
  2
AcDbDictionaryWithDefault
  3
ObjectDBX Classes
 90
        0
 91
        1
280
     0
281
     0
  0
CLASS
  1
MATERIAL
  2
AcDbMaterial
  3
ObjectDBX Classes
 90
     1153
 91
        3
280
     0
281
     0
  0
CLASS
  1
VISUALSTYLE
  2
AcDbVisualStyle
  3
ObjectDBX Classes
 90
     4095
 91
       24
280
     0
281
     0
  0
CLASS
  1
SCALE
  2
AcDbScale
  3
ObjectDBX Classes
 90
     1153
 91
       17
280
     0
281
     0
  0
CLASS
  1
TABLESTYLE
  2
AcDbTableStyle
  3
ObjectDBX Classes
 90
     4095
 91
        1
280
     0
281
     0
  0
CLASS
  1
MLEADERSTYLE
  2
AcDbMLeaderStyle
  3
ACDB_MLEADERSTYLE_CLASS
 90
     4095
 91
        1
280
     0
281
     0
  0
CLASS
  1
ACDBSECTIONVIEWSTYLE
  2
AcDbSectionViewStyle
  3
ObjectDBX Classes
 90
     1025
 91
        2
280
     0
281
     0
  0
CLASS
  1
ACDBDETAILVIEWSTYLE
  2
AcDbDetailViewStyle
  3
ObjectDBX Classes
 90
     1025
 91
        2
280
     0
281
     0
  0
CLASS
  1
SORTENTSTABLE
  2
AcDbSortentsTable
  3
ObjectDBX Classes
 90
        0
 91
        1
280
     0
281
     0
  0
CLASS
  1
DICTIONARYVAR
  2
AcDbDictionaryVar
  3
ObjectDBX Classes
 90
        0
 91
        7
280
     0
281
     0
  0
CLASS
  1
RAPIDRTRENDERSETTINGS
  2
AcDbRapidRTRenderSettings
  3
ObjectDBX Classes
 90
     1024
 91
        7
280
     0
281
     0
  0
CLASS
  1
CELLSTYLEMAP
  2
AcDbCellStyleMap
  3
ObjectDBX Classes
 90
     1152
 91
        1
280
     0
281
     0
  0
ENDSEC
  0
SECTION
  2
TABLES
  0
TABLE
  2
VPORT
  5
8
330
0
100
AcDbSymbolTable
 70
     1
  0
VPORT
  5
57
330
8
100
AcDbSymbolTableRecord
100
AcDbViewportTableRecord
  2
*Active
 70
     0
 10
0.0
 20
0.0
 11
1.0
 21
1.0
 12
136.1266437982231
 22
91.65145869898271
 13
0.0
 23
0.0
 14
10.0
 24
10.0
 15
10.0
 25
10.0
 16
0.0
 26
0.0
 36
1.0
 17
0.0
 27
0.0
 37
0.0
 40
77.4625528034138
 41
2.36509900990099
 42
50.0
 43
0.0
 44
0.0
 50
0.0
 51
0.0
 71
     0
 72
  1000
 73
     1
 74
     1
 75
     0
 76
     0
 77
     0
 78
     0
281
     0
 65
     1
110
0.0
120
0.0
130
0.0
111
1.0
121
0.0
131
0.0
112
0.0
122
1.0
132
0.0
 79
     0
146
0.0
348
2F
 60
     3
 61
     5
292
     1
282
     1
141
0.0
142
0.0
 63
   250
421
  3355443
1001
ACAD_NAV_VCDISPLAY
1070
     3
  0
ENDTAB
  0
TABLE
  2
LTYPE
  5
5
330
0
100
AcDbSymbolTable
 70
     1
  0
LTYPE
  5
5B
330
5
100
AcDbSymbolTableRecord
100
AcDbLinetypeTableRecord
  2
ByBlock
 70
     0
  3

 72
    65
 73
     0
 40
0.0
  0
LTYPE
  5
5C
330
5
100
AcDbSymbolTableRecord
100
AcDbLinetypeTableRecord
  2
ByLayer
 70
     0
  3

 72
    65
 73
     0
 40
0.0
  0
LTYPE
  5
5D
330
5
100
AcDbSymbolTableRecord
100
AcDbLinetypeTableRecord
  2
Continuous
 70
     0
  3
Solid line
 72
    65
 73
     0
 40
0.0
  0
ENDTAB
  0
TABLE
  2
LAYER
  5
2
330
0
100
AcDbSymbolTable
 70
     3
  0
LAYER
  5
54
330
2
100
AcDbSymbolTableRecord
100
AcDbLayerTableRecord
  2
0
 70
     0
 62
     7
  6
Continuous
370
    -3
390
F
347
21
348
0
1001
AcAecLayerStandard
1000

1000

  0
LAYER
  5
84
330
2
100
AcDbSymbolTableRecord
100
AcDbLayerTableRecord
  2
MD_可視
 70
     0
 62
     7
  6
Continuous
370
    50
390
F
347
21
348
0
  0
LAYER
  5
8D
330
2
100
AcDbSymbolTableRecord
100
AcDbLayerTableRecord
  2
MD_狭い可視
 70
     0
 62
     7
  6
Continuous
370
    35
390
F
347
21
348
0
  0
ENDTAB
  0
TABLE
  2
STYLE
  5
3
330
0
100
AcDbSymbolTable
 70
     2
  0
STYLE
  5
55
330
3
100
AcDbSymbolTableRecord
100
AcDbTextStyleTableRecord
  2
Standard
 70
     0
 40
0.0
 41
1.0
 50
0.0
 71
     0
 42
2.5
  3
arial.ttf
  4

1001
ACAD
1000
Arial
1071
       34
  0
STYLE
  5
5A
330
3
100
AcDbSymbolTableRecord
100
AcDbTextStyleTableRecord
  2
Annotative
 70
     0
 40
0.0
 41
1.0
 50
0.0
 71
     0
 42
0.2
  3
txt
  4

1001
AcadAnnotative
1000
AnnotativeData
1002
{
1070
     1
1070
     1
1002
}
  0
ENDTAB
  0
TABLE
  2
VIEW
  5
6
330
0
100
AcDbSymbolTable
 70
     0
  0
ENDTAB
  0
TABLE
  2
UCS
  5
7
330
0
100
AcDbSymbolTable
 70
     0
  0
ENDTAB
  0
TABLE
  2
APPID
  5
9
330
0
100
AcDbSymbolTable
 70
     7
  0
APPID
  5
56
330
9
100
AcDbSymbolTableRecord
100
AcDbRegAppTableRecord
  2
ACAD
 70
     0
  0
APPID
  5
5E
330
9
100
AcDbSymbolTableRecord
100
AcDbRegAppTableRecord
  2
AcadAnnotative
 70
     0
  0
APPID
  5
78
330
9
100
AcDbSymbolTableRecord
100
AcDbRegAppTableRecord
  2
ACAD_PSEXT
 70
     0
  0
APPID
  5
7A
330
9
100
AcDbSymbolTableRecord
100
AcDbRegAppTableRecord
  2
ACAD_DSTYLE_DIMJAG
 70
     0
  0
APPID
  5
7B
330
9
100
AcDbSymbolTableRecord
100
AcDbRegAppTableRecord
  2
ACAD_DSTYLE_DIMTALN
 70
     0
  0
APPID
  5
47F
330
9
100
AcDbSymbolTableRecord
100
AcDbRegAppTableRecord
  2
AcAecLayerStandard
 70
     0
  0
APPID
  5
499
330
9
100
AcDbSymbolTableRecord
100
AcDbRegAppTableRecord
  2
ACAD_NAV_VCDISPLAY
 70
     0
  0
ENDTAB
  0
TABLE
  2
DIMSTYLE
  5
A
330
0
100
AcDbSymbolTable
 70
     3
100
AcDbDimStyleTable
 71
     1
340
7C
  0
DIMSTYLE
105
58
330
A
100
AcDbSymbolTableRecord
100
AcDbDimStyleTableRecord
  2
Standard
 70
     0
340
55
  0
DIMSTYLE
105
59
330
A
100
AcDbSymbolTableRecord
100
AcDbDimStyleTableRecord
  2
Annotative
 70
     0
 40
0.0
 41
2.5
 42
0.625
 43
3.75
 44
1.25
 73
     0
 74
     0
 77
     1
 78
     8
140
2.5
141
2.5
143
0.03937007874016
147
0.625
171
     3
172
     1
271
     2
272
     2
274
     3
278
    44
283
     0
284
     8
340
55
1001
AcadAnnotative
1000
AnnotativeData
1002
{
1070
     1
1070
     1
1002
}
  0
DIMSTYLE
105
7C
330
A
100
AcDbSymbolTableRecord
100
AcDbDimStyleTableRecord
  2
ISO-25
 70
     0
 41
2.5
 42
0.625
 43
3.75
 44
1.25
 73
     0
 74
     0
 77
     1
 78
     8
140
2.5
141
2.5
143
0.03937007874016
147
0.625
171
     3
172
     1
271
     2
272
     2
274
     3
278
    44
283
     0
284
     8
340
55
  0
ENDTAB
  0
TABLE
  2
BLOCK_RECORD
  5
1
330
0
100
AcDbSymbolTable
 70
     4
  0
BLOCK_RECORD
  5
70
102
{ACAD_XDICTIONARY
360
7D
102
}
330
1
100
AcDbSymbolTableRecord
100
AcDbBlockTableRecord
  2
*Model_Space
340
73
 70
     0
280
     1
281
     0
  0
BLOCK_RECORD
  5
6C
330
1
100
AcDbSymbolTableRecord
100
AcDbBlockTableRecord
  2
*Paper_Space
340
6F
 70
     0
280
     1
281
     0
  0
BLOCK_RECORD
  5
74
330
1
100
AcDbSymbolTableRecord
100
AcDbBlockTableRecord
  2
*Paper_Space0
340
77
 70
     0
280
     1
281
     0
  0
BLOCK_RECORD
  5
81
330
1
100
AcDbSymbolTableRecord
100
AcDbBlockTableRecord
  2
CustomObjectsInViewport4_0
340
0
102
{BLKREFS
331
7F
102
}
 70
     0
280
     1
281
     0
  0
BLOCK_RECORD
  5
2E7
330
1
100
AcDbSymbolTableRecord
100
AcDbBlockTableRecord
  2
CustomObjectsInViewport6_0
340
0
102
{BLKREFS
331
2E5
102
}
 70
     0
280
     1
281
     0
  0
BLOCK_RECORD
  5
403
330
1
100
AcDbSymbolTableRecord
100
AcDbBlockTableRecord
  2
CustomObjectsInViewport8_0
340
0
102
{BLKREFS
331
401
102
}
 70
     0
280
     1
281
     0
  0
ENDTAB
  0
ENDSEC
  0
SECTION
  2
BLOCKS
  0
BLOCK
  5
71
330
70
100
AcDbEntity
  8
0
100
AcDbBlockBegin
  2
*Model_Space
 70
     0
 10
0.0
 20
0.0
 30
0.0
  3
*Model_Space
  1

  0
ENDBLK
  5
72
330
70
100
AcDbEntity
  8
0
100
AcDbBlockEnd
  0
BLOCK
  5
6D
330
6C
100
AcDbEntity
 67
     1
  8
0
100
AcDbBlockBegin
  2
*Paper_Space
 70
     0
 10
0.0
 20
0.0
 30
0.0
  3
*Paper_Space
  1

  0
ENDBLK
  5
6E
330
6C
100
AcDbEntity
 67
     1
  8
0
100
AcDbBlockEnd
  0
BLOCK
  5
75
330
74
100
AcDbEntity
 67
     1
  8
0
100
AcDbBlockBegin
  2
*Paper_Space0
 70
     0
 10
0.0
 20
0.0
 30
0.0
  3
*Paper_Space0
  1

  0
ENDBLK
  5
76
330
74
100
AcDbEntity
 67
     1
  8
0
100
AcDbBlockEnd
  0
BLOCK
  5
82
330
81
100
AcDbEntity
  8
0
100
AcDbBlockBegin
  2
CustomObjectsInViewport4_0
 70
     0
 10
0.0
 20
0.0
 30
0.0
  3
CustomObjectsInViewport4_0
  1

  0
LINE
  5
83
330
81
100
AcDbEntity
  8
MD_可視
100
AcDbLine
 10
113.5341579843927
 20
77.79373068024324
 30
0.000000000001819
 11
114.5541579843927
 21
77.79373068024324
 31
0.000000000001819
210
-1.0
220
-0.0000000000000002
230
0.0
  0
LINE
  5
85
330
81
100
AcDbEntity
  8
MD_可視
100
AcDbLine
 10
114.5541579843927
 20
77.79373068024324
 30
0.000000000001819
 11
115.5741579843927
 21
77.79373068024324
 31
0.000000000001819
210
-1.0
220
-0.0000000000000002
230
0.0
  0
LINE
  5
86
330
81
100
AcDbEntity
  8
MD_可視
100
AcDbLine
 10
115.5741579843927
 20
77.79373068024324
 30
0.000000000001819
 11
116.5941579843926
 21
77.79373068024324
 31
0.000000000001819
210
-1.0
220
-0.0000000000000002
230
0.0
  0
LINE
  5
87
330
81
100
AcDbEntity
  8
MD_可視
100
AcDbLine
 10
116.5941579843926
 20
77.79373068024324
 30
0.000000000001819
 11
117.6141579843926
 21
77.79373068024324
 31
0.000000000001819
210
-1.0
220
-0.0000000000000002
230
0.0
  0
LINE
  5
88
330
81
100
AcDbEntity
  8
MD_可視
100
AcDbLine
 10
117.6141579843926
 20
77.79373068024324
 30
0.000000000001819
 11
118.6341579843926
 21
77.79373068024324
 31
0.000000000001819
210
-1.0
220
-0.0000000000000002
230
0.0
  0
LINE
  5
89
330
81
100
AcDbEntity
  8
MD_可視
100
AcDbLine
 10
118.6341579843926
 20
77.79373068024324
 30
0.000000000001819
 11
119.6541579843927
 21
77.79373068024324
 31
0.000000000001819
210
-1.0
220
-0.0000000000000002
230
0.0
  0
LINE
  5
8A
330
81
100
AcDbEntity
  8
MD_可視
100
AcDbLine
 10
119.6541579843927
 20
77.79373068024324
 30
0.000000000001819
 11
120.6741579843926
 21
77.79373068024324
 31
0.000000000001819
210
-1.0
220
-0.0000000000000002
230
0.0
  0
LINE
  5
8B
330
81
100
AcDbEntity
  8
MD_可視
100
AcDbLine
 10
120.6741579843926
 20
77.79373068024324
 30
0.000000000001819
 11
121.6941579843926
 21
77.79373068024324
 31
0.000000000001819
210
-1.0
220
-0.0000000000000002
230
0.0
  0
LINE
  5
8C
330
81
100
AcDbEntity
  8
MD_狭い可視
100
AcDbLine
 10
121.6941579843926
 20
76.243730680706
 30
0.000000000001819
 11
121.6941579843926
 21
77.79373068024324
 31
0.000000000001819
210
-1.0
220
-0.0000000000000002
230
0.0
  0
LINE
  5
8E
330
81
100
AcDbEntity
  8
MD_狭い可視
100
AcDbLine
 10
121.6941579843926
 20
76.243730680706
 30
0.000000000001819
 11
123.1891579843926
 21
76.24373068109526
 31
0.000000000001819
210
-1.0
220
-0.0000000000000002
230
0.0
  0
LINE
  5
8F
330
81
100
AcDbEntity
  8
MD_狭い可視
100
AcDbLine
 10
123.1891579843926
 20
80.54373068024323
 30
0.000000000001819
 11
123.1891579843926
 21
76.24373068109526
 31
0.000000000001819
210
-1.0
220
-0.0000000000000002
230
0.0
  0
LINE
  5
90
330
81
100
AcDbEntity
  8
MD_可視
100
AcDbLine
 10
122.1441579843927
 20
80.54373068024323
 30
0.000000000001819
 11
123.1891579843926
 21
80.54373068024323
 31
0.000000000001819
210
-1.0
220
-0.0000000000000002
230
0.0
  0
LINE
  5
91
330
81
100
AcDbEntity
  8
MD_可視
100
AcDbLine
 10
122.1441579843927
 20
78.92373068024244
 30
0.000000000001819
 11
113.1441579843927
 21
78.92373068024244
 31
0.000000000001819
210
-1.0
220
-0.0000000000000002
230
0.0
  0
LINE
  5
92
330
81
100
AcDbEntity
  8
MD_可視
100
AcDbLine
 10
113.1441579843927
 20
80.54373068024323
 30
0.000000000001819
 11
112.0991579843926
 21
80.54373068024323
 31
0.000000000001819
210
-1.0
220
-0.0000000000000002
230
0.0
  0
LINE
  5
93
330
81
100
AcDbEntity
  8
MD_狭い可視
100
AcDbLine
 10
112.0991579843926
 20
76.24373068066962
 30
0.000000000001819
 11
112.0991579843926
 21
80.54373068024323
 31
0.000000000001819
210
-1.0
220
-0.0000000000000002
230
0.0
  0
LINE
  5
94
330
81
100
AcDbEntity
  8
MD_狭い可視
100
AcDbLine
 10
112.0991579843926
 20
76.24373068066962
 30
0.000000000001819
 11
113.5341579843927
 21
76.24373068116256
 31
0.000000000001819
210
-1.0
220
-0.0000000000000002
230
0.0
  0
LINE
  5
95
330
81
100
AcDbEntity
  8
MD_狭い可視
100
AcDbLine
 10
113.5341579843927
 20
76.24373068116256
 30
0.000000000001819
 11
113.5341579843927
 21
77.79373068024324
 31
0.000000000001819
210
-1.0
220
-0.0000000000000002
230
0.0
  0
LINE
  5
96
330
81
100
AcDbEntity
  8
MD_可視
100
AcDbLine
 10
114.2341579843927
 20
77.79373068024324
 30
0.000000000001819
 11
114.2341579843927
 21
77.25090274477224
 31
0.000000000001819
210
-1.0
220
-0.0000000000000002
230
0.0
  0
LINE
  5
97
330
81
100
AcDbEntity
  8
MD_可視
100
AcDbLine
 10
113.9141579843927
 20
77.25090274477224
 30
0.000000000001819
 11
113.9141579843927
 21
77.79373068024324
 31
0.000000000001819
210
-1.0
220
-0.0000000000000002
230
0.0
  0
LINE
  5
98
330
81
100
AcDbEntity
  8
MD_可視
100
AcDbLine
 10
112.8941579843927
 20
80.54373068024323
 30
0.000000000001819
 11
112.8941579843927
 21
81.30373068024345
 31
0.000000000001819
210
-1.0
220
-0.0000000000000002
230
0.0
  0
LINE
  5
99
330
81
100
AcDbEntity
  8
MD_可視
100
AcDbLine
 10
122.2441579843926
 20
81.30373068024345
 30
0.000000000001819
 11
120.6941579843926
 21
81.30373068024345
 31
0.000000000001819
210
-1.0
220
-0.0000000000000002
230
0.0
  0
LINE
  5
9A
330
81
100
AcDbEntity
  8
MD_可視
100
AcDbLine
 10
114.5941579843926
 20
81.30373068024345
 30
0.000000000001819
 11
112.8941579843927
 21
81.30373068024345
 31
0.000000000001819
210
-1.0
220
-0.0000000000000002
230
0.0
  0
LINE
  5
9B
330
81
100
AcDbEntity
  8
MD_可視
100
AcDbLine
 10
123.1891579843926
 20
74.34373068024251
 30
0.000000000001819
 11
112.0991579843926
 21
74.34373068024251
 31
0.000000000001819
210
-1.0
220
-0.0000000000000002
230
0.0
  0
ARC
  5
9C
330
81
100
AcDbEntity
  8
MD_可視
100
AcDbCircle
 10
-123.1891579843926
 20
74.64373068024361
 30
-0.0000000000018024
 40
0.3
210
0.0
220
0.0000000000000002
230
-1.0
100
AcDbArc
 50
180.0
 51
270.0
  0
LINE
  5
9D
330
81
100
AcDbEntity
  8
MD_狭い可視
100
AcDbLine
 10
123.1891579843926
 20
74.64373068024361
 30
0.000000000001819
 11
123.4891579843927
 21
74.64373068024361
 31
0.000000000001819
210
-1.0
220
-0.0000000000000002
230
0.0
  0
LINE
  5
9E
330
81
100
AcDbEntity
  8
MD_狭い可視
100
AcDbLine
 10
123.1891579843926
 20
74.64373068024361
 30
0.000000000001819
 11
123.1891579843926
 21
74.34373068024433
 31
0.000000000001819
210
-1.0
220
-0.0000000000000002
230
0.0
  0
LINE
  5
9F
330
81
100
AcDbEntity
  8
MD_狭い可視
100
AcDbLine
 10
123.1891579843926
 20
74.64373068024361
 30
0.000000000001819
 11
112.0991579843926
 21
74.64373068024361
 31
0.000000000001819
210
-1.0
220
-0.0000000000000002
230
0.0
  0
LINE
  5
A0
330
81
100
AcDbEntity
  8
MD_狭い可視
100
AcDbLine
 10
112.0991579843926
 20
74.64373068024361
 30
0.000000000001819
 11
112.0991579843926
 21
74.34373068024433
 31
0.000000000001819
210
-1.0
220
-0.0000000000000002
230
0.0
  0
LINE
  5
A1
330
81
100
AcDbEntity
  8
MD_狭い可視
100
AcDbLine
 10
111.7991579843927
 20
74.64373068024361
 30
0.000000000001819
 11
112.0991579843926
 21
74.64373068024361
 31
0.000000000001819
210
-1.0
220
-0.0000000000000002
230
0.0
  0
ARC
  5
A2
330
81
100
AcDbEntity
  8
MD_可視
100
AcDbCircle
 10
-112.0991579843926
 20
74.64373068024361
 30
-0.0000000000018024
 40
0.3
210
0.0
220
0.0000000000000002
230
-1.0
100
AcDbArc
 50
270.0
 51
0.0
  0
LINE
  5
A3
330
81
100
AcDbEntity
  8
MD_狭い可視
100
AcDbLine
 10
112.0991579843926
 20
74.64373068024361
 30
0.000000000001819
 11
112.0991579843926
 21
75.74373068024215
 31
0.000000000001819
210
-1.0
220
-0.0000000000000002
230
0.0
  0
LINE
  5
A4
330
81
100
AcDbEntity
  8
MD_可視
100
AcDbLine
 10
111.7991579843927
 20
74.64373068024361
 30
0.000000000001819
 11
111.7991579843927
 21
76.04373068024324
 31
0.000000000001819
210
-1.0
220
-0.0000000000000002
230
0.0
  0
LINE
  5
A5
330
81
100
AcDbEntity
  8
MD_狭い可視
100
AcDbLine
 10
123.1891579843926
 20
75.74373068024215
 30
0.000000000001819
 11
123.1891579843926
 21
74.64373068024361
 31
0.000000000001819
210
-1.0
220
-0.0000000000000002
230
0.0
  0
LINE
  5
A6
330
81
100
AcDbEntity
  8
MD_可視
100
AcDbLine
 10
121.6941579843926
 20
75.74373068024215
 30
0.000000000001819
 11
121.3488904648217
 21
75.74373068024215
 31
0.000000000001819
210
-1.0
220
-0.0000000000000002
230
0.0
  0
LINE
  5
A7
330
81
100
AcDbEntity
  8
MD_可視
100
AcDbLine
 10
120.9988904648217
 20
75.74373068024215
 30
0.000000000001819
 11
120.3288904648217
 21
75.74373068024215
 31
0.000000000001819
210
-1.0
220
-0.0000000000000002
230
0.0
  0
LINE
  5
A8
330
81
100
AcDbEntity
  8
MD_可視
100
AcDbLine
 10
119.9788904648217
 20
75.74373068024215
 30
0.000000000001819
 11
119.3088904648216
 21
75.74373068024215
 31
0.000000000001819
210
-1.0
220
-0.0000000000000002
230
0.0
  0
LINE
  5
A9
330
81
100
AcDbEntity
  8
MD_可視
100
AcDbLine
 10
118.9588904648217
 20
75.74373068024215
 30
0.000000000001819
 11
118.2888904648216
 21
75.74373068024215
 31
0.000000000001819
210
-1.0
220
-0.0000000000000002
230
0.0
  0
LINE
  5
AA
330
81
100
AcDbEntity
  8
MD_可視
100
AcDbLine
 10
117.9388904648217
 20
75.74373068024215
 30
0.000000000001819
 11
117.2688904648216
 21
75.74373068024215
 31
0.000000000001819
210
-1.0
220
-0.0000000000000002
230
0.0
  0
LINE
  5
AB
330
81
100
AcDbEntity
  8
MD_可視
100
AcDbLine
 10
116.9188904648216
 20
75.74373068024215
 30
0.000000000001819
 11
116.2488904648217
 21
75.74373068024215
 31
0.000000000001819
210
-1.0
220
-0.0000000000000002
230
0.0
  0
LINE
  5
AC
330
81
100
AcDbEntity
  8
MD_可視
100
AcDbLine
 10
115.8988904648216
 20
75.74373068024215
 30
0.000000000001819
 11
115.2288904648216
 21
75.74373068024215
 31
0.000000000001819
210
-1.0
220
-0.0000000000000002
230
0.0
  0
LINE
  5
AD
330
81
100
AcDbEntity
  8
MD_可視
100
AcDbLine
 10
114.8788904648217
 20
75.74373068024215
 30
0.000000000001819
 11
114.2088904648216
 21
75.74373068024215
 31
0.000000000001819
210
-1.0
220
-0.0000000000000002
230
0.0
  0
LINE
  5
AE
330
81
100
AcDbEntity
  8
MD_可視
100
AcDbLine
 10
113.8588904648217
 20
75.74373068024215
 30
0.000000000001819
 11
113.5341579843927
 21
75.74373068024215
 31
0.000000000001819
210
-1.0
220
-0.0000000000000002
230
0.0
  0
LINE
  5
AF
330
81
100
AcDbEntity
  8
MD_可視
100
AcDbLine
 10
112.0991579843926
 20
75.74373068024215
 30
0.000000000001819
 11
113.5341579843927
 21
75.74373068024215
 31
0.000000000001819
210
-1.0
220
-0.0000000000000002
230
0.0
  0
LINE
  5
B0
330
81
100
AcDbEntity
  8
MD_可視
100
AcDbLine
 10
121.6941579843926
 20
75.74373068024215
 30
0.000000000001819
 11
123.1891579843926
 21
75.74373068024215
 31
0.000000000001819
210
-1.0
220
-0.0000000000000002
230
0.0
  0
LINE
  5
B1
330
81
100
AcDbEntity
  8
MD_可視
100
AcDbLine
 10
121.5041579843926
 20
76.30373068024346
 30
0.000000000001819
 11
121.3488904648217
 21
76.30373068024346
 31
0.000000000001819
210
-1.0
220
-0.0000000000000002
230
0.0
  0
LINE
  5
B2
330
81
100
AcDbEntity
  8
MD_可視
100
AcDbLine
 10
120.9988904648217
 20
76.30373068024346
 30
0.000000000001819
 11
120.8641579843926
 21
76.30373068024346
 31
0.000000000001819
210
-1.0
220
-0.0000000000000002
230
0.0
  0
LINE
  5
B3
330
81
100
AcDbEntity
  8
MD_可視
100
AcDbLine
 10
120.4841579843927
 20
76.30373068024346
 30
0.000000000001819
 11
120.3288904648217
 21
76.30373068024346
 31
0.000000000001819
210
-1.0
220
-0.0000000000000002
230
0.0
  0
LINE
  5
B4
330
81
100
AcDbEntity
  8
MD_可視
100
AcDbLine
 10
119.9788904648217
 20
76.30373068024346
 30
0.000000000001819
 11
119.8441579843926
 21
76.30373068024346
 31
0.000000000001819
210
-1.0
220
-0.0000000000000002
230
0.0
  0
LINE
  5
B5
330
81
100
AcDbEntity
  8
MD_可視
100
AcDbLine
 10
119.4641579843927
 20
76.30373068024346
 30
0.000000000001819
 11
119.3088904648216
 21
76.30373068024346
 31
0.000000000001819
210
-1.0
220
-0.0000000000000002
230
0.0
  0
LINE
  5
B6
330
81
100
AcDbEntity
  8
MD_可視
100
AcDbLine
 10
118.9588904648217
 20
76.30373068024346
 30
0.000000000001819
 11
118.8241579843927
 21
76.30373068024346
 31
0.000000000001819
210
-1.0
220
-0.0000000000000002
230
0.0
  0
LINE
  5
B7
330
81
100
AcDbEntity
  8
MD_可視
100
AcDbLine
 10
118.4441579843926
 20
76.30373068024346
 30
0.000000000001819
 11
118.2888904648216
 21
76.30373068024346
 31
0.000000000001819
210
-1.0
220
-0.0000000000000002
230
0.0
  0
LINE
  5
B8
330
81
100
AcDbEntity
  8
MD_可視
100
AcDbLine
 10
117.9388904648217
 20
76.30373068024346
 30
0.000000000001819
 11
117.8041579843926
 21
76.30373068024346
 31
0.000000000001819
210
-1.0
220
-0.0000000000000002
230
0.0
  0
LINE
  5
B9
330
81
100
AcDbEntity
  8
MD_可視
100
AcDbLine
 10
117.4241579843926
 20
76.30373068024346
 30
0.000000000001819
 11
117.2688904648216
 21
76.30373068024346
 31
0.000000000001819
210
-1.0
220
-0.0000000000000002
230
0.0
  0
LINE
  5
BA
330
81
100
AcDbEntity
  8
MD_可視
100
AcDbLine
 10
116.9188904648216
 20
76.30373068024346
 30
0.000000000001819
 11
116.7841579843927
 21
76.30373068024346
 31
0.000000000001819
210
-1.0
220
-0.0000000000000002
230
0.0
  0
LINE
  5
BB
330
81
100
AcDbEntity
  8
MD_可視
100
AcDbLine
 10
116.4041579843926
 20
76.30373068024346
 30
0.000000000001819
 11
116.2488904648217
 21
76.30373068024346
 31
0.000000000001819
210
-1.0
220
-0.0000000000000002
230
0.0
  0
LINE
  5
BC
330
81
100
AcDbEntity
  8
MD_可視
100
AcDbLine
 10
115.8988904648216
 20
76.30373068024346
 30
0.000000000001819
 11
115.7641579843927
 21
76.30373068024346
 31
0.000000000001819
210
-1.0
220
-0.0000000000000002
230
0.0
  0
LINE
  5
BD
330
81
100
AcDbEntity
  8
MD_可視
100
AcDbLine
 10
115.3841579843926
 20
76.30373068024346
 30
0.000000000001819
 11
115.2288904648216
 21
76.30373068024346
 31
0.000000000001819
210
-1.0
220
-0.0000000000000002
230
0.0
  0
LINE
  5
BE
330
81
100
AcDbEntity
  8
MD_可視
100
AcDbLine
 10
114.8788904648217
 20
76.30373068024346
 30
0.000000000001819
 11
114.7441579843927
 21
76.30373068024346
 31
0.000000000001819
210
-1.0
220
-0.0000000000000002
230
0.0
  0
LINE
  5
BF
330
81
100
AcDbEntity
  8
MD_可視
100
AcDbLine
 10
114.3641579843927
 20
76.30373068024346
 30
0.000000000001819
 11
114.2088904648216
 21
76.30373068024346
 31
0.000000000001819
210
-1.0
220
-0.0000000000000002
230
0.0
  0
LINE
  5
C0
330
81
100
AcDbEntity
  8
MD_可視
100
AcDbLine
 10
113.8588904648217
 20
76.30373068024346
 30
0.000000000001819
 11
113.7241579843927
 21
76.30373068024346
 31
0.000000000001819
210
-1.0
220
-0.0000000000000002
230
0.0
  0
LINE
  5
C1
330
81
100
AcDbEntity
  8
MD_可視
100
AcDbLine
 10
121.5041579843926
 20
76.24373068024215
 30
0.000000000001819
 11
121.5041579843926
 21
75.93373068024266
 31
0.000000000001819
210
-1.0
220
-0.0000000000000002
230
0.0
  0
LINE
  5
C2
330
81
100
AcDbEntity
  8
MD_可視
100
AcDbLine
 10
121.5041579843926
 20
76.24373068024215
 30
0.000000000001819
 11
121.5041579843926
 21
77.79373068024324
 31
0.000000000001819
210
-1.0
220
-0.0000000000000002
230
0.0
  0
LINE
  5
C3
330
81
100
AcDbEntity
  8
MD_狭い可視
100
AcDbLine
 10
114.7441579843927
 20
76.50373068024236
 30
0.000000000001819
 11
114.8788904648217
 21
76.50373068024236
 31
0.000000000001819
210
-1.0
220
-0.0000000000000002
230
0.0
  0
LINE
  5
C4
330
81
100
AcDbEntity
  8
MD_狭い可視
100
AcDbLine
 10
115.2288904648216
 20
76.50373068024236
 30
0.000000000001819
 11
115.3841579843926
 21
76.50373068024236
 31
0.000000000001819
210
-1.0
220
-0.0000000000000002
230
0.0
  0
LINE
  5
C5
330
81
100
AcDbEntity
  8
MD_狭い可視
100
AcDbLine
 10
119.8441579843926
 20
76.50373068024236
 30
0.000000000001819
 11
119.9788904648217
 21
76.50373068024236
 31
0.000000000001819
210
-1.0
220
-0.0000000000000002
230
0.0
  0
LINE
  5
C6
330
81
100
AcDbEntity
  8
MD_狭い可視
100
AcDbLine
 10
120.3288904648217
 20
76.50373068024236
 30
0.000000000001819
 11
120.4841579843927
 21
76.50373068024236
 31
0.000000000001819
210
-1.0
220
-0.0000000000000002
230
0.0
  0
LINE
  5
C7
330
81
100
AcDbEntity
  8
MD_狭い可視
100
AcDbLine
 10
117.8041579843926
 20
76.50373068024236
 30
0.000000000001819
 11
117.9388904648217
 21
76.50373068024236
 31
0.000000000001819
210
-1.0
220
-0.0000000000000002
230
0.0
  0
LINE
  5
C8
330
81
100
AcDbEntity
  8
MD_狭い可視
100
AcDbLine
 10
118.2888904648216
 20
76.50373068024236
 30
0.000000000001819
 11
118.4441579843926
 21
76.50373068024236
 31
0.000000000001819
210
-1.0
220
-0.0000000000000002
230
0.0
  0
LINE
  5
C9
330
81
100
AcDbEntity
  8
MD_狭い可視
100
AcDbLine
 10
116.7841579843927
 20
76.50373068024236
 30
0.000000000001819
 11
116.9188904648216
 21
76.50373068024236
 31
0.000000000001819
210
-1.0
220
-0.0000000000000002
230
0.0
  0
LINE
  5
CA
330
81
100
AcDbEntity
  8
MD_狭い可視
100
AcDbLine
 10
117.2688904648216
 20
76.50373068024236
 30
0.000000000001819
 11
117.4241579843926
 21
76.50373068024236
 31
0.000000000001819
210
-1.0
220
-0.0000000000000002
230
0.0
  0
LINE
  5
CB
330
81
100
AcDbEntity
  8
MD_狭い可視
100
AcDbLine
 10
115.7641579843927
 20
76.50373068024236
 30
0.000000000001819
 11
115.8988904648216
 21
76.50373068024236
 31
0.000000000001819
210
-1.0
220
-0.0000000000000002
230
0.0
  0
LINE
  5
CC
330
81
100
AcDbEntity
  8
MD_狭い可視
100
AcDbLine
 10
116.2488904648217
 20
76.50373068024236
 30
0.000000000001819
 11
116.4041579843926
 21
76.50373068024236
 31
0.000000000001819
210
-1.0
220
-0.0000000000000002
230
0.0
  0
LINE
  5
CD
330
81
100
AcDbEntity
  8
MD_狭い可視
100
AcDbLine
 10
118.8241579843927
 20
76.50373068024236
 30
0.000000000001819
 11
118.9588904648217
 21
76.50373068024236
 31
0.000000000001819
210
-1.0
220
-0.0000000000000002
230
0.0
  0
LINE
  5
CE
330
81
100
AcDbEntity
  8
MD_狭い可視
100
AcDbLine
 10
119.3088904648216
 20
76.50373068024236
 30
0.000000000001819
 11
119.4641579843927
 21
76.50373068024236
 31
0.000000000001819
210
-1.0
220
-0.0000000000000002
230
0.0
  0
LINE
  5
CF
330
81
100
AcDbEntity
  8
MD_狭い可視
100
AcDbLine
 10
120.8641579843926
 20
76.50373068024236
 30
0.000000000001819
 11
120.9988904648217
 21
76.50373068024236
 31
0.000000000001819
210
-1.0
220
-0.0000000000000002
230
0.0
  0
LINE
  5
D0
330
81
100
AcDbEntity
  8
MD_狭い可視
100
AcDbLine
 10
121.3488904648217
 20
76.50373068024236
 30
0.000000000001819
 11
121.5041579843926
 21
76.50373068024236
 31
0.000000000001819
210
-1.0
220
-0.0000000000000002
230
0.0
  0
LINE
  5
D1
330
81
100
AcDbEntity
  8
MD_狭い可視
100
AcDbLine
 10
113.7241579843927
 20
76.50373068024236
 30
0.000000000001819
 11
113.8588904648217
 21
76.50373068024236
 31
0.000000000001819
210
-1.0
220
-0.0000000000000002
230
0.0
  0
LINE
  5
D2
330
81
100
AcDbEntity
  8
MD_狭い可視
100
AcDbLine
 10
114.2088904648216
 20
76.50373068024236
 30
0.000000000001819
 11
114.3641579843927
 21
76.50373068024236
 31
0.000000000001819
210
-1.0
220
-0.0000000000000002
230
0.0
  0
LINE
  5
D3
330
81
100
AcDbEntity
  8
MD_可視
100
AcDbLine
 10
114.7441579843927
 20
76.24373068024215
 30
0.000000000001819
 11
114.7441579843927
 21
77.79373068024324
 31
0.000000000001819
210
-1.0
220
-0.0000000000000002
230
0.0
  0
LINE
  5
D4
330
81
100
AcDbEntity
  8
MD_可視
100
AcDbLine
 10
114.7441579843927
 20
76.24373068024215
 30
0.000000000001819
 11
114.7441579843927
 21
75.93373068024266
 31
0.000000000001819
210
-1.0
220
-0.0000000000000002
230
0.0
  0
LINE
  5
D5
330
81
100
AcDbEntity
  8
MD_可視
100
AcDbLine
 10
114.7441579843927
 20
76.72888203507682
 30
0.000000000001819
 11
114.9341579843927
 21
77.25090274477224
 31
0.000000000001819
210
-1.0
220
-0.0000000000000002
230
0.0
  0
LINE
  5
D6
330
81
100
AcDbEntity
  8
MD_可視
100
AcDbLine
 10
114.9341579843927
 20
77.25090274477224
 30
0.000000000001819
 11
114.9341579843927
 21
77.79373068024324
 31
0.000000000001819
210
-1.0
220
-0.0000000000000002
230
0.0
  0
LINE
  5
D7
330
81
100
AcDbEntity
  8
MD_可視
100
AcDbLine
 10
115.2541579843926
 20
77.79373068024324
 30
0.000000000001819
 11
115.2541579843926
 21
77.25090274477224
 31
0.000000000001819
210
-1.0
220
-0.0000000000000002
230
0.0
  0
LINE
  5
D8
330
81
100
AcDbEntity
  8
MD_可視
100
AcDbLine
 10
115.2541579843926
 20
77.25090274477224
 30
0.000000000001819
 11
115.3841579843926
 21
76.89373068024361
 31
0.000000000001819
210
-1.0
220
-0.0000000000000002
230
0.0
  0
LINE
  5
D9
330
81
100
AcDbEntity
  8
MD_可視
100
AcDbLine
 10
115.3841579843926
 20
76.24373068024215
 30
0.000000000001819
 11
115.3841579843926
 21
75.93373068024266
 31
0.000000000001819
210
-1.0
220
-0.0000000000000002
230
0.0
  0
LINE
  5
DA
330
81
100
AcDbEntity
  8
MD_可視
100
AcDbLine
 10
115.3841579843926
 20
76.24373068024215
 30
0.000000000001819
 11
115.3841579843926
 21
77.79373068024324
 31
0.000000000001819
210
-1.0
220
-0.0000000000000002
230
0.0
  0
ARC
  5
DB
330
81
100
AcDbEntity
  8
MD_可視
100
AcDbCircle
 10
115.5741579843927
 20
75.93373068024266
 30
0.000000000001819
 40
0.1900000000000001
100
AcDbArc
 50
180.0
 51
0.0
  0
LINE
  5
DC
330
81
100
AcDbEntity
  8
MD_可視
100
AcDbLine
 10
115.7641579843927
 20
76.24373068024215
 30
0.000000000001819
 11
115.7641579843927
 21
77.79373068024324
 31
0.000000000001819
210
-1.0
220
-0.0000000000000002
230
0.0
  0
LINE
  5
DD
330
81
100
AcDbEntity
  8
MD_可視
100
AcDbLine
 10
115.7641579843927
 20
76.24373068024215
 30
0.000000000001819
 11
115.7641579843927
 21
75.93373068024266
 31
0.000000000001819
210
-1.0
220
-0.0000000000000002
230
0.0
  0
LINE
  5
DE
330
81
100
AcDbEntity
  8
MD_可視
100
AcDbLine
 10
115.7641579843927
 20
76.72888203507682
 30
0.000000000001819
 11
115.9541579843927
 21
77.25090274477224
 31
0.000000000001819
210
-1.0
220
-0.0000000000000002
230
0.0
  0
LINE
  5
DF
330
81
100
AcDbEntity
  8
MD_可視
100
AcDbLine
 10
115.9541579843927
 20
77.25090274477224
 30
0.000000000001819
 11
115.9541579843927
 21
77.79373068024324
 31
0.000000000001819
210
-1.0
220
-0.0000000000000002
230
0.0
  0
LINE
  5
E0
330
81
100
AcDbEntity
  8
MD_可視
100
AcDbLine
 10
116.2741579843926
 20
77.79373068024324
 30
0.000000000001819
 11
116.2741579843926
 21
77.25090274477224
 31
0.000000000001819
210
-1.0
220
-0.0000000000000002
230
0.0
  0
LINE
  5
E1
330
81
100
AcDbEntity
  8
MD_可視
100
AcDbLine
 10
116.2741579843926
 20
77.25090274477224
 30
0.000000000001819
 11
116.4041579843926
 21
76.89373068024361
 31
0.000000000001819
210
-1.0
220
-0.0000000000000002
230
0.0
  0
LINE
  5
E2
330
81
100
AcDbEntity
  8
MD_可視
100
AcDbLine
 10
116.4041579843926
 20
76.24373068024215
 30
0.000000000001819
 11
116.4041579843926
 21
75.93373068024266
 31
0.000000000001819
210
-1.0
220
-0.0000000000000002
230
0.0
  0
LINE
  5
E3
330
81
100
AcDbEntity
  8
MD_可視
100
AcDbLine
 10
116.4041579843926
 20
76.24373068024215
 30
0.000000000001819
 11
116.4041579843926
 21
77.79373068024324
 31
0.000000000001819
210
-1.0
220
-0.0000000000000002
230
0.0
  0
ARC
  5
E4
330
81
100
AcDbEntity
  8
MD_可視
100
AcDbCircle
 10
116.5941579843926
 20
75.93373068024266
 30
0.000000000001819
 40
0.1900000000000001
100
AcDbArc
 50
180.0
 51
0.0
  0
LINE
  5
E5
330
81
100
AcDbEntity
  8
MD_可視
100
AcDbLine
 10
116.7841579843927
 20
76.24373068024215
 30
0.000000000001819
 11
116.7841579843927
 21
77.79373068024324
 31
0.000000000001819
210
-1.0
220
-0.0000000000000002
230
0.0
  0
LINE
  5
E6
330
81
100
AcDbEntity
  8
MD_可視
100
AcDbLine
 10
116.7841579843927
 20
76.24373068024215
 30
0.000000000001819
 11
116.7841579843927
 21
75.93373068024266
 31
0.000000000001819
210
-1.0
220
-0.0000000000000002
230
0.0
  0
LINE
  5
E7
330
81
100
AcDbEntity
  8
MD_可視
100
AcDbLine
 10
116.7841579843927
 20
76.72888203507682
 30
0.000000000001819
 11
116.9741579843927
 21
77.25090274477224
 31
0.000000000001819
210
-1.0
220
-0.0000000000000002
230
0.0
  0
LINE
  5
E8
330
81
100
AcDbEntity
  8
MD_可視
100
AcDbLine
 10
116.9741579843927
 20
77.25090274477224
 30
0.000000000001819
 11
116.9741579843927
 21
77.79373068024324
 31
0.000000000001819
210
-1.0
220
-0.0000000000000002
230
0.0
  0
LINE
  5
E9
330
81
100
AcDbEntity
  8
MD_可視
100
AcDbLine
 10
117.2941579843927
 20
77.79373068024324
 30
0.000000000001819
 11
117.2941579843927
 21
77.25090274477224
 31
0.000000000001819
210
-1.0
220
-0.0000000000000002
230
0.0
  0
LINE
  5
EA
330
81
100
AcDbEntity
  8
MD_可視
100
AcDbLine
 10
117.2941579843927
 20
77.25090274477224
 30
0.000000000001819
 11
117.4241579843926
 21
76.89373068024361
 31
0.000000000001819
210
-1.0
220
-0.0000000000000002
230
0.0
  0
LINE
  5
EB
330
81
100
AcDbEntity
  8
MD_可視
100
AcDbLine
 10
117.4241579843926
 20
76.24373068024215
 30
0.000000000001819
 11
117.4241579843926
 21
75.93373068024266
 31
0.000000000001819
210
-1.0
220
-0.0000000000000002
230
0.0
  0
LINE
  5
EC
330
81
100
AcDbEntity
  8
MD_可視
100
AcDbLine
 10
117.4241579843926
 20
76.24373068024215
 30
0.000000000001819
 11
117.4241579843926
 21
77.79373068024324
 31
0.000000000001819
210
-1.0
220
-0.0000000000000002
230
0.0
  0
ARC
  5
ED
330
81
100
AcDbEntity
  8
MD_可視
100
AcDbCircle
 10
117.6141579843926
 20
75.93373068024266
 30
0.000000000001819
 40
0.1900000000000001
100
AcDbArc
 50
180.0
 51
0.0
  0
LINE
  5
EE
330
81
100
AcDbEntity
  8
MD_可視
100
AcDbLine
 10
117.8041579843926
 20
76.24373068024215
 30
0.000000000001819
 11
117.8041579843926
 21
77.79373068024324
 31
0.000000000001819
210
-1.0
220
-0.0000000000000002
230
0.0
  0
LINE
  5
EF
330
81
100
AcDbEntity
  8
MD_可視
100
AcDbLine
 10
117.8041579843926
 20
76.24373068024215
 30
0.000000000001819
 11
117.8041579843926
 21
75.93373068024266
 31
0.000000000001819
210
-1.0
220
-0.0000000000000002
230
0.0
  0
LINE
  5
F0
330
81
100
AcDbEntity
  8
MD_可視
100
AcDbLine
 10
117.8041579843926
 20
76.72888203507682
 30
0.000000000001819
 11
117.9941579843927
 21
77.25090274477224
 31
0.000000000001819
210
-1.0
220
-0.0000000000000002
230
0.0
  0
LINE
  5
F1
330
81
100
AcDbEntity
  8
MD_可視
100
AcDbLine
 10
117.9941579843927
 20
77.25090274477224
 30
0.000000000001819
 11
117.9941579843927
 21
77.79373068024324
 31
0.000000000001819
210
-1.0
220
-0.0000000000000002
230
0.0
  0
LINE
  5
F2
330
81
100
AcDbEntity
  8
MD_可視
100
AcDbLine
 10
118.3141579843927
 20
77.79373068024324
 30
0.000000000001819
 11
118.3141579843927
 21
77.25090274477224
 31
0.000000000001819
210
-1.0
220
-0.0000000000000002
230
0.0
  0
LINE
  5
F3
330
81
100
AcDbEntity
  8
MD_可視
100
AcDbLine
 10
118.3141579843927
 20
77.25090274477224
 30
0.000000000001819
 11
118.4441579843926
 21
76.89373068024361
 31
0.000000000001819
210
-1.0
220
-0.0000000000000002
230
0.0
  0
LINE
  5
F4
330
81
100
AcDbEntity
  8
MD_可視
100
AcDbLine
 10
118.4441579843926
 20
76.24373068024215
 30
0.000000000001819
 11
118.4441579843926
 21
75.93373068024266
 31
0.000000000001819
210
-1.0
220
-0.0000000000000002
230
0.0
  0
LINE
  5
F5
330
81
100
AcDbEntity
  8
MD_可視
100
AcDbLine
 10
118.4441579843926
 20
76.24373068024215
 30
0.000000000001819
 11
118.4441579843926
 21
77.79373068024324
 31
0.000000000001819
210
-1.0
220
-0.0000000000000002
230
0.0
  0
ARC
  5
F6
330
81
100
AcDbEntity
  8
MD_可視
100
AcDbCircle
 10
118.6341579843926
 20
75.93373068024266
 30
0.000000000001819
 40
0.1900000000000001
100
AcDbArc
 50
180.0
 51
0.0
  0
LINE
  5
F7
330
81
100
AcDbEntity
  8
MD_可視
100
AcDbLine
 10
118.8241579843927
 20
76.24373068024215
 30
0.000000000001819
 11
118.8241579843927
 21
77.79373068024324
 31
0.000000000001819
210
-1.0
220
-0.0000000000000002
230
0.0
  0
LINE
  5
F8
330
81
100
AcDbEntity
  8
MD_可視
100
AcDbLine
 10
118.8241579843927
 20
76.24373068024215
 30
0.000000000001819
 11
118.8241579843927
 21
75.93373068024266
 31
0.000000000001819
210
-1.0
220
-0.0000000000000002
230
0.0
  0
LINE
  5
F9
330
81
100
AcDbEntity
  8
MD_可視
100
AcDbLine
 10
118.8241579843927
 20
76.72888203507682
 30
0.000000000001819
 11
119.0141579843926
 21
77.25090274477224
 31
0.000000000001819
210
-1.0
220
-0.0000000000000002
230
0.0
  0
LINE
  5
FA
330
81
100
AcDbEntity
  8
MD_可視
100
AcDbLine
 10
119.0141579843926
 20
77.25090274477224
 30
0.000000000001819
 11
119.0141579843926
 21
77.79373068024324
 31
0.000000000001819
210
-1.0
220
-0.0000000000000002
230
0.0
  0
LINE
  5
FB
330
81
100
AcDbEntity
  8
MD_可視
100
AcDbLine
 10
119.3341579843927
 20
77.79373068024324
 30
0.000000000001819
 11
119.3341579843927
 21
77.25090274477224
 31
0.000000000001819
210
-1.0
220
-0.0000000000000002
230
0.0
  0
LINE
  5
FC
330
81
100
AcDbEntity
  8
MD_可視
100
AcDbLine
 10
119.3341579843927
 20
77.25090274477224
 30
0.000000000001819
 11
119.4641579843927
 21
76.89373068024361
 31
0.000000000001819
210
-1.0
220
-0.0000000000000002
230
0.0
  0
LINE
  5
FD
330
81
100
AcDbEntity
  8
MD_可視
100
AcDbLine
 10
119.4641579843927
 20
76.24373068024215
 30
0.000000000001819
 11
119.4641579843927
 21
75.93373068024266
 31
0.000000000001819
210
-1.0
220
-0.0000000000000002
230
0.0
  0
LINE
  5
FE
330
81
100
AcDbEntity
  8
MD_可視
100
AcDbLine
 10
119.4641579843927
 20
76.24373068024215
 30
0.000000000001819
 11
119.4641579843927
 21
77.79373068024324
 31
0.000000000001819
210
-1.0
220
-0.0000000000000002
230
0.0
  0
ARC
  5
FF
330
81
100
AcDbEntity
  8
MD_可視
100
AcDbCircle
 10
119.6541579843927
 20
75.93373068024266
 30
0.000000000001819
 40
0.1900000000000001
100
AcDbArc
 50
180.0
 51
0.0
  0
LINE
  5
100
330
81
100
AcDbEntity
  8
MD_可視
100
AcDbLine
 10
119.8441579843926
 20
76.24373068024215
 30
0.000000000001819
 11
119.8441579843926
 21
77.79373068024324
 31
0.000000000001819
210
-1.0
220
-0.0000000000000002
230
0.0
  0
LINE
  5
101
330
81
100
AcDbEntity
  8
MD_可視
100
AcDbLine
 10
119.8441579843926
 20
76.24373068024215
 30
0.000000000001819
 11
119.8441579843926
 21
75.93373068024266
 31
0.000000000001819
210
-1.0
220
-0.0000000000000002
230
0.0
  0
LINE
  5
102
330
81
100
AcDbEntity
  8
MD_可視
100
AcDbLine
 10
119.8441579843926
 20
76.72888203507682
 30
0.000000000001819
 11
120.0341579843926
 21
77.25090274477224
 31
0.000000000001819
210
-1.0
220
-0.0000000000000002
230
0.0
  0
LINE
  5
103
330
81
100
AcDbEntity
  8
MD_可視
100
AcDbLine
 10
120.0341579843926
 20
77.25090274477224
 30
0.000000000001819
 11
120.0341579843926
 21
77.79373068024324
 31
0.000000000001819
210
-1.0
220
-0.0000000000000002
230
0.0
  0
LINE
  5
104
330
81
100
AcDbEntity
  8
MD_可視
100
AcDbLine
 10
120.3541579843927
 20
77.79373068024324
 30
0.000000000001819
 11
120.3541579843927
 21
77.25090274477224
 31
0.000000000001819
210
-1.0
220
-0.0000000000000002
230
0.0
  0
LINE
  5
105
330
81
100
AcDbEntity
  8
MD_可視
100
AcDbLine
 10
120.3541579843927
 20
77.25090274477224
 30
0.000000000001819
 11
120.4841579843927
 21
76.89373068024361
 31
0.000000000001819
210
-1.0
220
-0.0000000000000002
230
0.0
  0
LINE
  5
106
330
81
100
AcDbEntity
  8
MD_可視
100
AcDbLine
 10
120.4841579843927
 20
76.24373068024215
 30
0.000000000001819
 11
120.4841579843927
 21
75.93373068024266
 31
0.000000000001819
210
-1.0
220
-0.0000000000000002
230
0.0
  0
LINE
  5
107
330
81
100
AcDbEntity
  8
MD_可視
100
AcDbLine
 10
120.4841579843927
 20
76.24373068024215
 30
0.000000000001819
 11
120.4841579843927
 21
77.79373068024324
 31
0.000000000001819
210
-1.0
220
-0.0000000000000002
230
0.0
  0
ARC
  5
108
330
81
100
AcDbEntity
  8
MD_可視
100
AcDbCircle
 10
120.6741579843926
 20
75.93373068024266
 30
0.000000000001819
 40
0.1900000000000001
100
AcDbArc
 50
180.0
 51
0.0
  0
LINE
  5
109
330
81
100
AcDbEntity
  8
MD_可視
100
AcDbLine
 10
120.8641579843926
 20
76.24373068024215
 30
0.000000000001819
 11
120.8641579843926
 21
77.79373068024324
 31
0.000000000001819
210
-1.0
220
-0.0000000000000002
230
0.0
  0
LINE
  5
10A
330
81
100
AcDbEntity
  8
MD_可視
100
AcDbLine
 10
120.8641579843926
 20
76.24373068024215
 30
0.000000000001819
 11
120.8641579843926
 21
75.93373068024266
 31
0.000000000001819
210
-1.0
220
-0.0000000000000002
230
0.0
  0
LINE
  5
10B
330
81
100
AcDbEntity
  8
MD_可視
100
AcDbLine
 10
120.8641579843926
 20
76.72888203507682
 30
0.000000000001819
 11
121.0541579843926
 21
77.25090274477224
 31
0.000000000001819
210
-1.0
220
-0.0000000000000002
230
0.0
  0
LINE
  5
10C
330
81
100
AcDbEntity
  8
MD_可視
100
AcDbLine
 10
121.0541579843926
 20
77.25090274477224
 30
0.000000000001819
 11
121.0541579843926
 21
77.79373068024324
 31
0.000000000001819
210
-1.0
220
-0.0000000000000002
230
0.0
  0
LINE
  5
10D
330
81
100
AcDbEntity
  8
MD_可視
100
AcDbLine
 10
121.3741579843927
 20
77.79373068024324
 30
0.000000000001819
 11
121.3741579843927
 21
77.25090274477224
 31
0.000000000001819
210
-1.0
220
-0.0000000000000002
230
0.0
  0
LINE
  5
10E
330
81
100
AcDbEntity
  8
MD_可視
100
AcDbLine
 10
121.3741579843927
 20
77.25090274477224
 30
0.000000000001819
 11
121.5041579843926
 21
76.89373068024361
 31
0.000000000001819
210
-1.0
220
-0.0000000000000002
230
0.0
  0
LINE
  5
10F
330
81
100
AcDbEntity
  8
MD_狭い可視
100
AcDbLine
 10
120.8641579843926
 20
76.24373068024215
 30
0.000000000001819
 11
120.4841579843927
 21
76.24373068024215
 31
0.000000000001819
210
-1.0
220
-0.0000000000000002
230
0.0
  0
LINE
  5
110
330
81
100
AcDbEntity
  8
MD_狭い可視
100
AcDbLine
 10
121.6941579843926
 20
76.24373068024215
 30
0.000000000001819
 11
121.5041579843926
 21
76.24373068024215
 31
0.000000000001819
210
-1.0
220
-0.0000000000000002
230
0.0
  0
ARC
  5
111
330
81
100
AcDbEntity
  8
MD_可視
100
AcDbCircle
 10
121.6941579843926
 20
75.93373068024266
 30
0.000000000001819
 40
0.1900000000000001
100
AcDbArc
 50
180.0
 51
270.0
  0
LINE
  5
112
330
81
100
AcDbEntity
  8
MD_狭い可視
100
AcDbLine
 10
121.6941579843926
 20
76.24373068070418
 30
0.000000000001819
 11
121.6941579843926
 21
75.74373068024215
 31
0.000000000001819
210
-1.0
220
-0.0000000000000002
230
0.0
  0
LINE
  5
113
330
81
100
AcDbEntity
  8
MD_狭い可視
100
AcDbLine
 10
123.1891579843926
 20
75.74373068024215
 30
0.000000000001819
 11
123.1891579843926
 21
76.24373068024215
 31
0.000000000001819
210
-1.0
220
-0.0000000000000002
230
0.0
  0
LINE
  5
114
330
81
100
AcDbEntity
  8
MD_可視
100
AcDbLine
 10
123.4891579843927
 20
76.04373068024142
 30
0.000000000001819
 11
123.4891579843927
 21
76.24373068024215
 31
0.000000000001819
210
-1.0
220
-0.0000000000000002
230
0.0
  0
LINE
  5
115
330
81
100
AcDbEntity
  8
MD_狭い可視
100
AcDbLine
 10
123.1891579843926
 20
76.24373068024215
 30
0.000000000001819
 11
123.4891579843927
 21
76.24373068024215
 31
0.000000000001819
210
-1.0
220
-0.0000000000000002
230
0.0
  0
ARC
  5
116
330
81
100
AcDbEntity
  8
MD_可視
100
AcDbCircle
 10
-123.1891579843926
 20
76.04373068024324
 30
-0.0000000000018021
 40
0.3
210
0.0
220
0.0000000000000002
230
-1.0
100
AcDbArc
 50
180.0
 51
270.0
  0
LINE
  5
117
330
81
100
AcDbEntity
  8
MD_可視
100
AcDbLine
 10
123.4891579843927
 20
80.54373068024323
 30
0.000000000001819
 11
123.4891579843927
 21
82.04373068024324
 31
0.000000000001819
210
-1.0
220
-0.0000000000000002
230
0.0
  0
LINE
  5
118
330
81
100
AcDbEntity
  8
MD_可視
100
AcDbLine
 10
123.4891579843927
 20
80.54373068024323
 30
0.000000000001819
 11
123.4891579843927
 21
76.24373068024215
 31
0.000000000001819
210
-1.0
220
-0.0000000000000002
230
0.0
  0
LINE
  5
119
330
81
100
AcDbEntity
  8
MD_可視
100
AcDbLine
 10
123.4891579843927
 20
76.04373068024324
 30
0.000000000001819
 11
123.4891579843927
 21
74.64373068024361
 31
0.000000000001819
210
-1.0
220
-0.0000000000000002
230
0.0
  0
ELLIPSE
  5
11A
330
81
100
AcDbEntity
  8
MD_可視
100
AcDbEllipse
 10
123.1891579843926
 20
82.04373068024324
 30
0.000000000001819
 11
0.0000000000000001
 21
-0.3000000000000001
 31
-0.0000000000000001
210
0.0
220
0.0000000000000002
230
-1.0
 40
1.0
 41
3.141592653589796
 42
4.712388980384689
  0
LINE
  5
11B
330
81
100
AcDbEntity
  8
MD_可視
100
AcDbLine
 10
123.1891579843926
 20
82.34373068024252
 30
0.000000000001819
 11
120.6941579843926
 21
82.34373068024252
 31
0.000000000001819
210
-1.0
220
-0.0000000000000002
230
0.0
  0
LINE
  5
11C
330
81
100
AcDbEntity
  8
MD_狭い可視
100
AcDbLine
 10
123.4891579843927
 20
82.04373068024324
 30
0.000000000001819
 11
120.6941579843926
 21
82.04373068024324
 31
0.000000000001819
210
-1.0
220
-0.0000000000000002
230
0.0
  0
LINE
  5
11D
330
81
100
AcDbEntity
  8
MD_可視
100
AcDbLine
 10
114.5941579843926
 20
82.34373068024252
 30
0.000000000001819
 11
112.0991579843926
 21
82.34373068024252
 31
0.000000000001819
210
-1.0
220
-0.0000000000000002
230
0.0
  0
ELLIPSE
  5
11E
330
81
100
AcDbEntity
  8
MD_可視
100
AcDbEllipse
 10
112.0991579843926
 20
82.04373068024324
 30
0.000000000001819
 11
-0.3000000000000002
 21
-0.0000000000000001
 31
0.0
210
0.0
220
-0.0000000000000002
230
1.0
 40
1.0
 41
4.712388980384693
 42
6.283185307179586
  0
LINE
  5
11F
330
81
100
AcDbEntity
  8
MD_狭い可視
100
AcDbLine
 10
114.5941579843926
 20
82.04373068024324
 30
0.000000000001819
 11
111.7991579843927
 21
82.04373068024324
 31
0.000000000001819
210
-1.0
220
-0.0000000000000002
230
0.0
  0
LINE
  5
120
330
81
100
AcDbEntity
  8
MD_可視
100
AcDbLine
 10
111.7991579843927
 20
82.04373068024324
 30
0.000000000001819
 11
111.7991579843927
 21
80.54373068024323
 31
0.000000000001819
210
-1.0
220
-0.0000000000000002
230
0.0
  0
LINE
  5
121
330
81
100
AcDbEntity
  8
MD_可視
100
AcDbLine
 10
114.5941579843926
 20
84.04012302085538
 30
0.000000000001819
 11
114.5941579843926
 21
83.48373068024375
 31
0.000000000001819
210
-1.0
220
-0.0000000000000002
230
0.0
  0
LINE
  5
122
330
81
100
AcDbEntity
  8
MD_可視
100
AcDbLine
 10
114.5941579843926
 20
85.12326482763274
 30
0.000000000001819
 11
114.5941579843926
 21
84.04012302085538
 31
0.000000000001819
210
-1.0
220
-0.0000000000000002
230
0.0
  0
LINE
  5
123
330
81
100
AcDbEntity
  8
MD_可視
100
AcDbLine
 10
114.5941579843926
 20
80.54373068024323
 30
0.000000000001819
 11
114.5941579843926
 21
83.48373068024375
 31
0.000000000001819
210
-1.0
220
-0.0000000000000002
230
0.0
  0
LINE
  5
124
330
81
100
AcDbEntity
  8
MD_可視
100
AcDbLine
 10
120.6941579843926
 20
83.48373068024375
 30
0.000000000001819
 11
114.5941579843926
 21
83.48373068024375
 31
0.000000000001819
210
-1.0
220
-0.0000000000000002
230
0.0
  0
LINE
  5
125
330
81
100
AcDbEntity
  8
MD_可視
100
AcDbLine
 10
114.5941579843926
 20
83.48373068024192
 30
0.000000000001819
 11
115.0941579843927
 21
82.98373068024194
 31
0.000000000001819
210
-1.0
220
-0.0000000000000002
230
0.0
  0
LINE
  5
126
330
81
100
AcDbEntity
  8
MD_狭い可視
100
AcDbLine
 10
120.1941579843927
 20
82.98373068024375
 30
0.000000000001819
 11
115.0941579843927
 21
82.98373068024375
 31
0.000000000001819
210
-1.0
220
-0.0000000000000002
230
0.0
  0
LINE
  5
127
330
81
100
AcDbEntity
  8
MD_可視
100
AcDbLine
 10
120.6941579843926
 20
83.48373068024192
 30
0.000000000001819
 11
120.1941579843927
 21
82.98373068024194
 31
0.000000000001819
210
-1.0
220
-0.0000000000000002
230
0.0
  0
LINE
  5
128
330
81
100
AcDbEntity
  8
MD_可視
100
AcDbLine
 10
120.1941579843927
 20
80.54373068024323
 30
0.000000000001819
 11
120.6941579843926
 21
80.54373068024323
 31
0.000000000001819
210
-1.0
220
-0.0000000000000002
230
0.0
  0
LINE
  5
129
330
81
100
AcDbEntity
  8
MD_可視
100
AcDbLine
 10
120.6941579843926
 20
83.48373068024375
 30
0.000000000001819
 11
120.6941579843926
 21
80.54373068024323
 31
0.000000000001819
210
-1.0
220
-0.0000000000000002
230
0.0
  0
LINE
  5
12A
330
81
100
AcDbEntity
  8
MD_狭い可視
100
AcDbLine
 10
120.1941579843927
 20
82.98373068024375
 30
0.000000000001819
 11
120.1941579843927
 21
80.54373068024323
 31
0.000000000001819
210
-1.0
220
-0.0000000000000002
230
0.0
  0
LINE
  5
12B
330
81
100
AcDbEntity
  8
MD_可視
100
AcDbLine
 10
114.5941579843926
 20
80.54373068024323
 30
0.000000000001819
 11
115.0941579843927
 21
80.54373068024323
 31
0.000000000001819
210
-1.0
220
-0.0000000000000002
230
0.0
  0
LINE
  5
12C
330
81
100
AcDbEntity
  8
MD_可視
100
AcDbLine
 10
115.0941579843927
 20
80.54373068024323
 30
0.000000000001819
 11
120.1941579843927
 21
80.54373068024323
 31
0.000000000001819
210
-1.0
220
-0.0000000000000002
230
0.0
  0
LINE
  5
12D
330
81
100
AcDbEntity
  8
MD_狭い可視
100
AcDbLine
 10
115.0941579843927
 20
80.54373068024323
 30
0.000000000001819
 11
115.0941579843927
 21
82.98373068024375
 31
0.000000000001819
210
-1.0
220
-0.0000000000000002
230
0.0
  0
LINE
  5
12E
330
81
100
AcDbEntity
  8
MD_可視
100
AcDbLine
 10
120.6941579843926
 20
85.12326482763274
 30
0.000000000001819
 11
120.6941579843926
 21
84.04012302085538
 31
0.000000000001819
210
-1.0
220
-0.0000000000000002
230
0.0
  0
LINE
  5
12F
330
81
100
AcDbEntity
  8
MD_可視
100
AcDbLine
 10
120.6941579843926
 20
84.04012302085538
 30
0.000000000001819
 11
120.6941579843926
 21
83.48373068024375
 31
0.000000000001819
210
-1.0
220
-0.0000000000000002
230
0.0
  0
LINE
  5
130
330
81
100
AcDbEntity
  8
MD_可視
100
AcDbLine
 10
116.0191579843927
 20
84.04012302085538
 30
0.000000000001819
 11
119.2691579843927
 21
84.04012302085538
 31
0.000000000001819
210
-1.0
220
-0.0000000000000002
230
0.0
  0
LINE
  5
131
330
81
100
AcDbEntity
  8
MD_可視
100
AcDbLine
 10
114.5941579843926
 20
84.04012302085538
 30
0.000000000001819
 11
116.0191579843927
 21
84.04012302085538
 31
0.000000000001819
210
-1.0
220
-0.0000000000000002
230
0.0
  0
LINE
  5
132
330
81
100
AcDbEntity
  8
MD_可視
100
AcDbLine
 10
119.2691579843927
 20
84.04012302085538
 30
0.000000000001819
 11
120.6941579843926
 21
84.04012302085538
 31
0.000000000001819
210
-1.0
220
-0.0000000000000002
230
0.0
  0
LINE
  5
133
330
81
100
AcDbEntity
  8
MD_可視
100
AcDbLine
 10
119.2691579843927
 20
85.10501486117936
 30
0.000000000001819
 11
119.2691579843927
 21
84.04012302085538
 31
0.000000000001819
210
-1.0
220
-0.0000000000000002
230
0.0
  0
LINE
  5
134
330
81
100
AcDbEntity
  8
MD_可視
100
AcDbLine
 10
116.0191579843927
 20
85.10501486117936
 30
0.000000000001819
 11
119.2691579843927
 21
85.10501486117936
 31
0.000000000001819
210
-1.0
220
-0.0000000000000002
230
0.0
  0
LINE
  5
135
330
81
100
AcDbEntity
  8
MD_可視
100
AcDbLine
 10
116.0191579843927
 20
85.10501486117936
 30
0.000000000001819
 11
116.0191579843927
 21
84.04012302085538
 31
0.000000000001819
210
-1.0
220
-0.0000000000000002
230
0.0
  0
LINE
  5
136
330
81
100
AcDbEntity
  8
MD_可視
100
AcDbLine
 10
116.0191579843927
 20
86.67308896544454
 30
0.000000000001819
 11
116.0191579843927
 21
85.10501486117936
 31
0.000000000001819
210
-1.0
220
-0.0000000000000002
230
0.0
  0
LINE
  5
137
330
81
100
AcDbEntity
  8
MD_可視
100
AcDbLine
 10
116.0191579843927
 20
86.67308896544273
 30
0.000000000001819
 11
116.0191579843927
 21
87.10062977544657
 31
0.000000000001819
210
-1.0
220
-0.0000000000000002
230
0.0
  0
LINE
  5
138
330
81
100
AcDbEntity
  8
MD_可視
100
AcDbLine
 10
118.0965024663159
 20
86.67308896544273
 30
0.000000000001819
 11
118.0965024663159
 21
87.10062977544657
 31
0.000000000001819
210
-1.0
220
-0.0000000000000002
230
0.0
  0
LINE
  5
139
330
81
100
AcDbEntity
  8
MD_可視
100
AcDbLine
 10
117.0965024663158
 20
86.67308896544273
 30
0.000000000001819
 11
117.0965024663158
 21
87.10062977544657
 31
0.000000000001819
210
-1.0
220
-0.0000000000000002
230
0.0
  0
ELLIPSE
  5
13A
330
81
100
AcDbEntity
  8
MD_狭い可視
100
AcDbEllipse
 10
117.5965024663158
 20
86.17026236378661
 30
0.000000000001819
 11
-0.7249990152424369
 21
-0.0000000000000002
 31
0.0
210
0.0
220
0.0000000000000002
230
-1.0
 40
0.9577674364359539
 41
0.8097822789617001
 42
2.331810374628124
  0
LINE
  5
13B
330
81
100
AcDbEntity
  8
MD_狭い可視
100
AcDbLine
 10
116.0191579843927
 20
86.67308896544454
 30
0.000000000001819
 11
117.0965024663158
 21
86.67308896544454
 31
0.000000000001819
210
-1.0
220
-0.0000000000000002
230
0.0
  0
LINE
  5
13C
330
81
100
AcDbEntity
  8
MD_狭い可視
100
AcDbLine
 10
118.0965024663159
 20
86.67308896544454
 30
0.000000000001819
 11
119.2691579843927
 21
86.67308896544454
 31
0.000000000001819
210
-1.0
220
-0.0000000000000002
230
0.0
  0
LINE
  5
13D
330
81
100
AcDbEntity
  8
MD_可視
100
AcDbLine
 10
119.2691579843927
 20
86.67308896544273
 30
0.000000000001819
 11
119.2691579843927
 21
87.10062977544657
 31
0.000000000001819
210
-1.0
220
-0.0000000000000002
230
0.0
  0
LINE
  5
13E
330
81
100
AcDbEntity
  8
MD_可視
100
AcDbLine
 10
119.2691579843927
 20
86.67308896544454
 30
0.000000000001819
 11
119.2691579843927
 21
85.10501486117936
 31
0.000000000001819
210
-1.0
220
-0.0000000000000002
230
0.0
  0
LINE
  5
13F
330
81
100
AcDbEntity
  8
MD_可視
100
AcDbLine
 10
118.0965024663159
 20
86.30641003992241
 30
0.000000000001819
 11
118.0965024663159
 21
86.67308896544454
 31
0.000000000001819
210
-1.0
220
-0.0000000000000002
230
0.0
  0
LINE
  5
140
330
81
100
AcDbEntity
  8
MD_可視
100
AcDbLine
 10
118.0965024663159
 20
86.30641003992241
 30
0.000000000001819
 11
117.0965024663158
 21
86.30641003992241
 31
0.000000000001819
210
-1.0
220
-0.0000000000000002
230
0.0
  0
LINE
  5
141
330
81
100
AcDbEntity
  8
MD_可視
100
AcDbLine
 10
117.0965024663159
 20
86.30641003992241
 30
0.000000000001819
 11
117.0965024663158
 21
86.67308896544454
 31
0.000000000001819
210
-1.0
220
-0.0000000000000002
230
0.0
  0
LINE
  5
142
330
81
100
AcDbEntity
  8
MD_可視
100
AcDbLine
 10
116.8941579843927
 20
85.24100252406425
 30
0.000000000001819
 11
118.3941579843927
 21
85.24100252406425
 31
0.000000000001819
210
-1.0
220
-0.0000000000000002
230
0.0
  0
LINE
  5
143
330
81
100
AcDbEntity
  8
MD_可視
100
AcDbLine
 10
116.8941579843927
 20
85.48211599989917
 30
0.000000000001819
 11
117.4807005852914
 21
85.48211599989917
 31
0.000000000001819
210
-1.0
220
-0.0000000000000002
230
0.0
  0
LINE
  5
144
330
81
100
AcDbEntity
  8
MD_可視
100
AcDbLine
 10
117.7929518099915
 20
85.37938421961735
 30
0.000000000001819
 11
118.3941579843927
 21
85.46084128084658
 31
0.000000000001819
210
-1.0
220
-0.0000000000000002
230
0.0
  0
LINE
  5
145
330
81
100
AcDbEntity
  8
MD_可視
100
AcDbLine
 10
117.1813919927048
 20
85.77287050038284
 30
0.000000000001819
 11
117.2452217723298
 21
85.77996208692638
 31
0.000000000001819
210
-1.0
220
-0.0000000000000002
230
0.0
  0
LINE
  5
146
330
81
100
AcDbEntity
  8
MD_可視
100
AcDbLine
 10
117.1368840086418
 20
85.76298071791098
 30
0.000000000001819
 11
117.1813919927048
 21
85.77287050038284
 31
0.000000000001819
210
-1.0
220
-0.0000000000000002
230
0.0
  0
LINE
  5
147
330
81
100
AcDbEntity
  8
MD_可視
100
AcDbLine
 10
118.3622430917863
 20
85.64522218606544
 30
0.000000000001819
 11
118.3941579843927
 21
85.68068003762709
 31
0.000000000001819
210
-1.0
220
-0.0000000000000002
230
0.0
  0
LINE
  5
148
330
81
100
AcDbEntity
  8
MD_可視
100
AcDbLine
 10
118.2954810550586
 20
85.62049769545046
 30
0.000000000001819
 11
118.3622430917863
 21
85.64522218606544
 31
0.000000000001819
210
-1.0
220
-0.0000000000000002
230
0.0
  0
LINE
  5
149
330
81
100
AcDbEntity
  8
MD_可視
100
AcDbLine
 10
118.1707537333537
 20
85.76577891383932
 30
0.000000000001819
 11
118.1806731136919
 21
85.75696247194718
 31
0.000000000001819
210
-1.0
220
-0.0000000000000002
230
0.0
  0
LINE
  5
14A
330
81
100
AcDbEntity
  8
MD_可視
100
AcDbLine
 10
118.106923931377
 20
85.78705363289191
 30
0.000000000001819
 11
118.1707537333537
 21
85.76577891383932
 31
0.000000000001819
210
-1.0
220
-0.0000000000000002
230
0.0
  0
LINE
  5
14B
330
81
100
AcDbEntity
  8
MD_可視
100
AcDbLine
 10
118.0111792619396
 20
85.80123680597898
 30
0.000000000001819
 11
118.106923931377
 21
85.78705363289191
 31
0.000000000001819
210
-1.0
220
-0.0000000000000002
230
0.0
  0
LINE
  5
14C
330
81
100
AcDbEntity
  8
MD_可視
100
AcDbLine
 10
117.9154345925021
 20
85.80123680597898
 30
0.000000000001819
 11
118.0111792619396
 21
85.80123680597898
 31
0.000000000001819
210
-1.0
220
-0.0000000000000002
230
0.0
  0
LINE
  5
14D
330
81
100
AcDbEntity
  8
MD_可視
100
AcDbLine
 10
117.8196898783612
 20
85.78705363289191
 30
0.000000000001819
 11
117.9154345925021
 21
85.80123680597898
 31
0.000000000001819
210
-1.0
220
-0.0000000000000002
230
0.0
  0
LINE
  5
14E
330
81
100
AcDbEntity
  8
MD_可視
100
AcDbLine
 10
117.7558600987363
 20
85.76577891383932
 30
0.000000000001819
 11
117.8196898783612
 21
85.78705363289191
 31
0.000000000001819
210
-1.0
220
-0.0000000000000002
230
0.0
  0
LINE
  5
14F
330
81
100
AcDbEntity
  8
MD_可視
100
AcDbLine
 10
117.7239452089238
 20
85.73741264882119
 30
0.000000000001819
 11
117.7558600987363
 21
85.76577891383932
 31
0.000000000001819
210
-1.0
220
-0.0000000000000002
230
0.0
  0
LINE
  5
150
330
81
100
AcDbEntity
  8
MD_可視
100
AcDbLine
 10
117.6920303191113
 20
85.66649690511985
 30
0.000000000001819
 11
117.7239452089238
 21
85.69486321071417
 31
0.000000000001819
210
-1.0
220
-0.0000000000000002
230
0.0
  0
LINE
  5
151
330
81
100
AcDbEntity
  8
MD_可視
100
AcDbLine
 10
117.6282005394864
 20
85.63813059952371
 30
0.000000000001819
 11
117.6920303191113
 21
85.66649690511985
 31
0.000000000001819
210
-1.0
220
-0.0000000000000002
230
0.0
  0
LINE
  5
152
330
81
100
AcDbEntity
  8
MD_可視
100
AcDbLine
 10
117.5488454054672
 20
85.62049769545046
 30
0.000000000001819
 11
117.6282005394864
 21
85.63813059952371
 31
0.000000000001819
210
-1.0
220
-0.0000000000000002
230
0.0
  0
LINE
  5
153
330
81
100
AcDbEntity
  8
MD_可視
100
AcDbLine
 10
116.98990265383
 20
85.63813059952371
 30
0.000000000001819
 11
117.0692577878491
 21
85.62049769545046
 31
0.000000000001819
210
-1.0
220
-0.0000000000000002
230
0.0
  0
LINE
  5
154
330
81
100
AcDbEntity
  8
MD_可視
100
AcDbLine
 10
116.9260728742052
 20
85.66649690511985
 30
0.000000000001819
 11
116.98990265383
 21
85.63813059952371
 31
0.000000000001819
210
-1.0
220
-0.0000000000000002
230
0.0
  0
LINE
  5
155
330
81
100
AcDbEntity
  8
MD_可視
100
AcDbLine
 10
116.8941579843927
 20
85.69486321071417
 30
0.000000000001819
 11
116.9260728742052
 21
85.66649690511985
 31
0.000000000001819
210
-1.0
220
-0.0000000000000002
230
0.0
  0
LINE
  5
156
330
81
100
AcDbEntity
  8
MD_可視
100
AcDbLine
 10
118.106923931377
 20
86.12744917831333
 30
0.000000000001819
 11
118.1707537333537
 21
86.10617445926072
 31
0.000000000001819
210
-1.0
220
-0.0000000000000002
230
0.0
  0
LINE
  5
157
330
81
100
AcDbEntity
  8
MD_可視
100
AcDbLine
 10
118.0111792619396
 20
86.13454072427884
 30
0.000000000001819
 11
118.106923931377
 21
86.12744917831333
 31
0.000000000001819
210
-1.0
220
-0.0000000000000002
230
0.0
  0
LINE
  5
158
330
81
100
AcDbEntity
  8
MD_可視
100
AcDbLine
 10
118.3622430917863
 20
85.97852614494332
 30
0.000000000001819
 11
118.3941579843927
 21
86.01398395592696
 31
0.000000000001819
210
-1.0
220
-0.0000000000000002
230
0.0
  0
LINE
  5
159
330
81
100
AcDbEntity
  8
MD_可視
100
AcDbLine
 10
118.2984133037793
 20
85.95015979876917
 30
0.000000000001819
 11
118.3622430917863
 21
85.97852614494332
 31
0.000000000001819
210
-1.0
220
-0.0000000000000002
230
0.0
  0
LINE
  5
15A
330
81
100
AcDbEntity
  8
MD_可視
100
AcDbLine
 10
118.1789485017813
 20
85.92361443109622
 30
0.000000000001819
 11
118.2984133037793
 21
85.95015979876917
 31
0.000000000001819
210
-1.0
220
-0.0000000000000002
230
0.0
  0
LINE
  5
15B
330
81
100
AcDbEntity
  8
MD_可視
100
AcDbLine
 10
117.4047963107991
 20
85.90051881469845
 30
0.000000000001819
 11
117.643725802572
 21
85.90051881469845
 31
0.000000000001819
210
-1.0
220
-0.0000000000000002
230
0.0
  0
LINE
  5
15C
330
81
100
AcDbEntity
  8
MD_可視
100
AcDbLine
 10
117.2452217723298
 20
85.90761040124197
 30
0.000000000001819
 11
117.4047963107991
 21
85.90051881469845
 31
0.000000000001819
210
-1.0
220
-0.0000000000000002
230
0.0
  0
LINE
  5
15D
330
81
100
AcDbEntity
  8
MD_可視
100
AcDbLine
 10
117.11756221308
 20
85.92179353375104
 30
0.000000000001819
 11
117.1872564188144
 21
85.91405042261248
 31
0.000000000001819
210
-1.0
220
-0.0000000000000002
230
0.0
  0
LINE
  5
15E
330
81
100
AcDbEntity
  8
MD_可視
100
AcDbLine
 10
116.98990265383
 20
85.95015979876917
 30
0.000000000001819
 11
117.11756221308
 21
85.92179353375104
 31
0.000000000001819
210
-1.0
220
-0.0000000000000002
230
0.0
  0
LINE
  5
15F
330
81
100
AcDbEntity
  8
MD_可視
100
AcDbLine
 10
116.9260728742052
 20
85.97852614494332
 30
0.000000000001819
 11
116.98990265383
 21
85.95015979876917
 31
0.000000000001819
210
-1.0
220
-0.0000000000000002
230
0.0
  0
LINE
  5
160
330
81
100
AcDbEntity
  8
MD_可視
100
AcDbLine
 10
116.8941579843927
 20
86.01398395592696
 30
0.000000000001819
 11
116.9260728742052
 21
85.97852614494332
 31
0.000000000001819
210
-1.0
220
-0.0000000000000002
230
0.0
  0
LINE
  5
161
330
81
100
AcDbEntity
  8
MD_可視
100
AcDbLine
 10
117.1813919927048
 20
86.12744917831333
 30
0.000000000001819
 11
117.2771367515492
 21
86.13454072427884
 31
0.000000000001819
210
-1.0
220
-0.0000000000000002
230
0.0
  0
LINE
  5
162
330
81
100
AcDbEntity
  8
MD_可視
100
AcDbLine
 10
117.11756221308
 20
86.10617445926072
 30
0.000000000001819
 11
117.1813919927048
 21
86.12744917831333
 31
0.000000000001819
210
-1.0
220
-0.0000000000000002
230
0.0
  0
LINE
  5
163
330
81
100
AcDbEntity
  8
MD_可視
100
AcDbLine
 10
117.1036534571704
 20
86.09381218612361
 30
0.000000000001819
 11
117.11756221308
 21
86.10617445926072
 31
0.000000000001819
210
-1.0
220
-0.0000000000000002
230
0.0
  0
LINE
  5
164
330
81
100
AcDbEntity
  8
MD_可視
100
AcDbLine
 10
118.1707537333537
 20
86.10617445926072
 30
0.000000000001819
 11
118.1846624892628
 21
86.09381218612361
 31
0.000000000001819
210
-1.0
220
-0.0000000000000002
230
0.0
  0
ELLIPSE
  5
165
330
81
100
AcDbEntity
  8
MD_可視
100
AcDbEllipse
 10
117.5965024663158
 20
85.80329068832725
 30
0.000000000001819
 11
-0.7250000000000002
 21
-0.0000000000000001
 31
0.0
210
0.0
220
0.0000000000000002
230
-1.0
 40
0.9583225744651231
 41
0.8097835725699869
 42
2.331809081019837
  0
LINE
  5
166
330
81
100
AcDbEntity
  8
MD_可視
100
AcDbLine
 10
114.5941579843926
 20
85.12326482763274
 30
0.000000000001819
 11
116.0191579843927
 21
85.12326482763274
 31
0.000000000001819
210
-1.0
220
-0.0000000000000002
230
0.0
  0
LINE
  5
167
330
81
100
AcDbEntity
  8
MD_可視
100
AcDbLine
 10
119.2691579843927
 20
85.12326482763274
 30
0.000000000001819
 11
120.6941579843926
 21
85.12326482763274
 31
0.000000000001819
210
-1.0
220
-0.0000000000000002
230
0.0
  0
LINE
  5
168
330
81
100
AcDbEntity
  8
MD_可視
100
AcDbLine
 10
118.3941579843927
 20
85.37938421961735
 30
0.000000000001819
 11
117.0856473232674
 21
85.37938421961735
 31
0.000000000001819
210
-1.0
220
-0.0000000000000002
230
0.0
  0
LINE
  5
169
330
81
100
AcDbEntity
  8
MD_可視
100
AcDbLine
 10
118.3941579843927
 20
85.33683478151216
 30
0.000000000001819
 11
118.3941579843927
 21
85.37938421961735
 31
0.000000000001819
210
-1.0
220
-0.0000000000000002
230
0.0
  0
LINE
  5
16A
330
81
100
AcDbEntity
  8
MD_可視
100
AcDbLine
 10
118.3941579843927
 20
85.24100252406425
 30
0.000000000001819
 11
118.3941579843927
 21
85.33683478151216
 31
0.000000000001819
210
-1.0
220
-0.0000000000000002
230
0.0
  0
LINE
  5
16B
330
81
100
AcDbEntity
  8
MD_可視
100
AcDbLine
 10
116.8941579843927
 20
85.33683478151216
 30
0.000000000001819
 11
118.3941579843927
 21
85.33683478151216
 31
0.000000000001819
210
-1.0
220
-0.0000000000000002
230
0.0
  0
LINE
  5
16C
330
81
100
AcDbEntity
  8
MD_可視
100
AcDbLine
 10
116.8941579843927
 20
85.24100252406425
 30
0.000000000001819
 11
116.8941579843927
 21
85.33683478151216
 31
0.000000000001819
210
-1.0
220
-0.0000000000000002
230
0.0
  0
LINE
  5
16D
330
81
100
AcDbEntity
  8
MD_可視
100
AcDbLine
 10
116.8941579843927
 20
85.40065893866994
 30
0.000000000001819
 11
116.8941579843927
 21
85.33683478151216
 31
0.000000000001819
210
-1.0
220
-0.0000000000000002
230
0.0
  0
LINE
  5
16E
330
81
100
AcDbEntity
  8
MD_可視
100
AcDbLine
 10
118.1707537333537
 20
85.57794825734527
 30
0.000000000001819
 11
116.8941579843927
 21
85.40065893866994
 31
0.000000000001819
210
-1.0
220
-0.0000000000000002
230
0.0
  0
LINE
  5
16F
330
81
100
AcDbEntity
  8
MD_可視
100
AcDbLine
 10
116.8941579843927
 20
85.57794825734527
 30
0.000000000001819
 11
118.1707537333537
 21
85.57794825734527
 31
0.000000000001819
210
-1.0
220
-0.0000000000000002
230
0.0
  0
LINE
  5
170
330
81
100
AcDbEntity
  8
MD_可視
100
AcDbLine
 10
116.8941579843927
 20
85.48211599989917
 30
0.000000000001819
 11
116.8941579843927
 21
85.57794825734527
 31
0.000000000001819
210
-1.0
220
-0.0000000000000002
230
0.0
  0
LINE
  5
171
330
81
100
AcDbEntity
  8
MD_可視
100
AcDbLine
 10
116.8941579843927
 20
85.62049769545046
 30
0.000000000001819
 11
116.8941579843927
 21
85.57794825734527
 31
0.000000000001819
210
-1.0
220
-0.0000000000000002
230
0.0
  0
LINE
  5
172
330
81
100
AcDbEntity
  8
MD_可視
100
AcDbLine
 10
118.3941579843927
 20
85.62049769545046
 30
0.000000000001819
 11
116.8941579843927
 21
85.62049769545046
 31
0.000000000001819
210
-1.0
220
-0.0000000000000002
230
0.0
  0
LINE
  5
173
330
81
100
AcDbEntity
  8
MD_可視
100
AcDbLine
 10
118.3941579843927
 20
85.55667353829267
 30
0.000000000001819
 11
118.3941579843927
 21
85.62049769545046
 31
0.000000000001819
210
-1.0
220
-0.0000000000000002
230
0.0
  0
LINE
  5
174
330
81
100
AcDbEntity
  8
MD_可視
100
AcDbLine
 10
118.3941579843927
 20
85.46084128084658
 30
0.000000000001819
 11
118.3941579843927
 21
85.55667353829267
 31
0.000000000001819
210
-1.0
220
-0.0000000000000002
230
0.0
  0
LINE
  5
175
330
81
100
AcDbEntity
  8
MD_可視
100
AcDbLine
 10
117.0856473232674
 20
85.37938421961735
 30
0.000000000001819
 11
118.3941579843927
 21
85.55667353829267
 31
0.000000000001819
210
-1.0
220
-0.0000000000000002
230
0.0
  0
LINE
  5
176
330
81
100
AcDbEntity
  8
MD_可視
100
AcDbLine
 10
117.2452217723298
 20
85.87579434437248
 30
0.000000000001819
 11
117.2452217723298
 21
85.91834378247767
 31
0.000000000001819
210
-1.0
220
-0.0000000000000002
230
0.0
  0
LINE
  5
177
330
81
100
AcDbEntity
  8
MD_可視
100
AcDbLine
 10
117.2452217723298
 20
85.91834378247767
 30
0.000000000001819
 11
117.1494771028924
 21
85.91125219593413
 31
0.000000000001819
210
-1.0
220
-0.0000000000000002
230
0.0
  0
LINE
  5
178
330
81
100
AcDbEntity
  8
MD_可視
100
AcDbLine
 10
117.1494771028924
 20
85.91125219593413
 30
0.000000000001819
 11
117.0218175436426
 21
85.88997747688154
 31
0.000000000001819
210
-1.0
220
-0.0000000000000002
230
0.0
  0
LINE
  5
179
330
81
100
AcDbEntity
  8
MD_可視
100
AcDbLine
 10
117.0218175436426
 20
85.88997747688154
 30
0.000000000001819
 11
116.9260728742052
 21
85.8616111712854
 31
0.000000000001819
210
-1.0
220
-0.0000000000000002
230
0.0
  0
LINE
  5
17A
330
81
100
AcDbEntity
  8
MD_可視
100
AcDbLine
 10
116.9260728742052
 20
85.8616111712854
 30
0.000000000001819
 11
116.8941579843927
 21
85.82615331972375
 31
0.000000000001819
210
-1.0
220
-0.0000000000000002
230
0.0
  0
LINE
  5
17B
330
81
100
AcDbEntity
  8
MD_可視
100
AcDbLine
 10
116.8941579843927
 20
85.82615331972375
 30
0.000000000001819
 11
116.8941579843927
 21
85.79069546816208
 31
0.000000000001819
210
-1.0
220
-0.0000000000000002
230
0.0
  0
LINE
  5
17C
330
81
100
AcDbEntity
  8
MD_可視
100
AcDbLine
 10
116.8941579843927
 20
85.79069546816208
 30
0.000000000001819
 11
116.9260728742052
 21
85.76232916256595
 31
0.000000000001819
210
-1.0
220
-0.0000000000000002
230
0.0
  0
LINE
  5
17D
330
81
100
AcDbEntity
  8
MD_可視
100
AcDbLine
 10
116.9260728742052
 20
85.76232916256595
 30
0.000000000001819
 11
116.98990265383
 21
85.73396285696981
 31
0.000000000001819
210
-1.0
220
-0.0000000000000002
230
0.0
  0
LINE
  5
17E
330
81
100
AcDbEntity
  8
MD_可視
100
AcDbLine
 10
116.98990265383
 20
85.73396285696981
 30
0.000000000001819
 11
117.11756221308
 21
85.70559659195168
 31
0.000000000001819
210
-1.0
220
-0.0000000000000002
230
0.0
  0
LINE
  5
17F
330
81
100
AcDbEntity
  8
MD_可視
100
AcDbLine
 10
117.11756221308
 20
85.70559659195168
 30
0.000000000001819
 11
117.2452217723298
 21
85.69850500540633
 31
0.000000000001819
210
-1.0
220
-0.0000000000000002
230
0.0
  0
LINE
  5
180
330
81
100
AcDbEntity
  8
MD_可視
100
AcDbLine
 10
117.2452217723298
 20
85.69850500540633
 30
0.000000000001819
 11
117.3728814209866
 21
85.69850500540633
 31
0.000000000001819
210
-1.0
220
-0.0000000000000002
230
0.0
  0
LINE
  5
181
330
81
100
AcDbEntity
  8
MD_可視
100
AcDbLine
 10
117.3728814209866
 20
85.69850500540633
 30
0.000000000001819
 11
117.5005409802366
 21
85.70559659195168
 31
0.000000000001819
210
-1.0
220
-0.0000000000000002
230
0.0
  0
LINE
  5
182
330
81
100
AcDbEntity
  8
MD_可視
100
AcDbLine
 10
117.5005409802366
 20
85.70559659195168
 30
0.000000000001819
 11
117.6282005394864
 21
85.73396285696981
 31
0.000000000001819
210
-1.0
220
-0.0000000000000002
230
0.0
  0
LINE
  5
183
330
81
100
AcDbEntity
  8
MD_可視
100
AcDbLine
 10
117.6282005394864
 20
85.73396285696981
 30
0.000000000001819
 11
117.6920303191113
 21
85.76232916256595
 31
0.000000000001819
210
-1.0
220
-0.0000000000000002
230
0.0
  0
LINE
  5
184
330
81
100
AcDbEntity
  8
MD_可視
100
AcDbLine
 10
117.6920303191113
 20
85.76232916256595
 30
0.000000000001819
 11
117.7239452089238
 21
85.79069546816208
 31
0.000000000001819
210
-1.0
220
-0.0000000000000002
230
0.0
  0
LINE
  5
185
330
81
100
AcDbEntity
  8
MD_可視
100
AcDbLine
 10
117.7239452089238
 20
85.79069546816208
 30
0.000000000001819
 11
117.7239452089238
 21
85.83324490626727
 31
0.000000000001819
210
-1.0
220
-0.0000000000000002
230
0.0
  0
LINE
  5
186
330
81
100
AcDbEntity
  8
MD_可視
100
AcDbLine
 10
117.7239452089238
 20
85.83324490626727
 30
0.000000000001819
 11
117.7558600987363
 21
85.8616111712854
 31
0.000000000001819
210
-1.0
220
-0.0000000000000002
230
0.0
  0
LINE
  5
187
330
81
100
AcDbEntity
  8
MD_可視
100
AcDbLine
 10
117.7558600987363
 20
85.8616111712854
 30
0.000000000001819
 11
117.8196898783612
 21
85.88288589033799
 31
0.000000000001819
210
-1.0
220
-0.0000000000000002
230
0.0
  0
LINE
  5
188
330
81
100
AcDbEntity
  8
MD_可視
100
AcDbLine
 10
117.8196898783612
 20
85.88288589033799
 30
0.000000000001819
 11
117.9154345925021
 21
85.89706906342508
 31
0.000000000001819
210
-1.0
220
-0.0000000000000002
230
0.0
  0
LINE
  5
189
330
81
100
AcDbEntity
  8
MD_可視
100
AcDbLine
 10
117.9154345925021
 20
85.89706906342508
 30
0.000000000001819
 11
118.0111792619396
 21
85.89706906342508
 31
0.000000000001819
210
-1.0
220
-0.0000000000000002
230
0.0
  0
LINE
  5
18A
330
81
100
AcDbEntity
  8
MD_可視
100
AcDbLine
 10
118.0111792619396
 20
85.89706906342508
 30
0.000000000001819
 11
118.106923931377
 21
85.88288589033799
 31
0.000000000001819
210
-1.0
220
-0.0000000000000002
230
0.0
  0
LINE
  5
18B
330
81
100
AcDbEntity
  8
MD_可視
100
AcDbLine
 10
118.106923931377
 20
85.88288589033799
 30
0.000000000001819
 11
118.1707537333537
 21
85.8616111712854
 31
0.000000000001819
210
-1.0
220
-0.0000000000000002
230
0.0
  0
LINE
  5
18C
330
81
100
AcDbEntity
  8
MD_可視
100
AcDbLine
 10
118.1707537333537
 20
85.8616111712854
 30
0.000000000001819
 11
118.2026686231661
 21
85.83324490626727
 31
0.000000000001819
210
-1.0
220
-0.0000000000000002
230
0.0
  0
LINE
  5
18D
330
81
100
AcDbEntity
  8
MD_可視
100
AcDbLine
 10
118.2026686231661
 20
85.83324490626727
 30
0.000000000001819
 11
118.2026686231661
 21
85.776512295075
 31
0.000000000001819
210
-1.0
220
-0.0000000000000002
230
0.0
  0
LINE
  5
18E
330
81
100
AcDbEntity
  8
MD_可視
100
AcDbLine
 10
118.2026686231661
 20
85.776512295075
 30
0.000000000001819
 11
118.1707537333537
 21
85.74814603005689
 31
0.000000000001819
210
-1.0
220
-0.0000000000000002
230
0.0
  0
LINE
  5
18F
330
81
100
AcDbEntity
  8
MD_可視
100
AcDbLine
 10
118.1707537333537
 20
85.74814603005689
 30
0.000000000001819
 11
118.0750090415644
 21
85.72687131100428
 31
0.000000000001819
210
-1.0
220
-0.0000000000000002
230
0.0
  0
LINE
  5
190
330
81
100
AcDbEntity
  8
MD_可視
100
AcDbLine
 10
118.0750090415644
 20
85.72687131100428
 30
0.000000000001819
 11
117.979264372127
 21
85.71977972446076
 31
0.000000000001819
210
-1.0
220
-0.0000000000000002
230
0.0
  0
LINE
  5
191
330
81
100
AcDbEntity
  8
MD_可視
100
AcDbLine
 10
117.979264372127
 20
85.71977972446076
 30
0.000000000001819
 11
117.979264372127
 21
85.67723028635555
 31
0.000000000001819
210
-1.0
220
-0.0000000000000002
230
0.0
  0
LINE
  5
192
330
81
100
AcDbEntity
  8
MD_可視
100
AcDbLine
 10
117.979264372127
 20
85.67723028635555
 30
0.000000000001819
 11
118.106923931377
 21
85.68432187289728
 31
0.000000000001819
210
-1.0
220
-0.0000000000000002
230
0.0
  0
LINE
  5
193
330
81
100
AcDbEntity
  8
MD_可視
100
AcDbLine
 10
118.106923931377
 20
85.68432187289728
 30
0.000000000001819
 11
118.2664984139669
 21
85.70559659195168
 31
0.000000000001819
210
-1.0
220
-0.0000000000000002
230
0.0
  0
LINE
  5
194
330
81
100
AcDbEntity
  8
MD_可視
100
AcDbLine
 10
118.2664984139669
 20
85.70559659195168
 30
0.000000000001819
 11
118.3622430917863
 21
85.74105444351335
 31
0.000000000001819
210
-1.0
220
-0.0000000000000002
230
0.0
  0
LINE
  5
195
330
81
100
AcDbEntity
  8
MD_可視
100
AcDbLine
 10
118.3622430917863
 20
85.74105444351335
 30
0.000000000001819
 11
118.3941579843927
 21
85.776512295075
 31
0.000000000001819
210
-1.0
220
-0.0000000000000002
230
0.0
  0
LINE
  5
196
330
81
100
AcDbEntity
  8
MD_可視
100
AcDbLine
 10
118.3941579843927
 20
85.776512295075
 30
0.000000000001819
 11
118.3941579843927
 21
85.83324490626727
 31
0.000000000001819
210
-1.0
220
-0.0000000000000002
230
0.0
  0
LINE
  5
197
330
81
100
AcDbEntity
  8
MD_可視
100
AcDbLine
 10
118.3941579843927
 20
85.83324490626727
 30
0.000000000001819
 11
118.3622430917863
 21
85.86870275782894
 31
0.000000000001819
210
-1.0
220
-0.0000000000000002
230
0.0
  0
LINE
  5
198
330
81
100
AcDbEntity
  8
MD_可視
100
AcDbLine
 10
118.3622430917863
 20
85.86870275782894
 30
0.000000000001819
 11
118.2984133037793
 21
85.89706906342508
 31
0.000000000001819
210
-1.0
220
-0.0000000000000002
230
0.0
  0
LINE
  5
199
330
81
100
AcDbEntity
  8
MD_可視
100
AcDbLine
 10
118.2984133037793
 20
85.89706906342508
 30
0.000000000001819
 11
118.1707537333537
 21
85.9254353284432
 31
0.000000000001819
210
-1.0
220
-0.0000000000000002
230
0.0
  0
LINE
  5
19A
330
81
100
AcDbEntity
  8
MD_可視
100
AcDbLine
 10
118.1707537333537
 20
85.9254353284432
 30
0.000000000001819
 11
118.043094151752
 21
85.93961850153027
 31
0.000000000001819
210
-1.0
220
-0.0000000000000002
230
0.0
  0
LINE
  5
19B
330
81
100
AcDbEntity
  8
MD_可視
100
AcDbLine
 10
118.043094151752
 20
85.93961850153027
 30
0.000000000001819
 11
117.8835197026897
 21
85.93961850153027
 31
0.000000000001819
210
-1.0
220
-0.0000000000000002
230
0.0
  0
LINE
  5
19C
330
81
100
AcDbEntity
  8
MD_可視
100
AcDbLine
 10
117.8835197026897
 20
85.93961850153027
 30
0.000000000001819
 11
117.7558600987363
 21
85.9254353284432
 31
0.000000000001819
210
-1.0
220
-0.0000000000000002
230
0.0
  0
LINE
  5
19D
330
81
100
AcDbEntity
  8
MD_可視
100
AcDbLine
 10
117.7558600987363
 20
85.9254353284432
 30
0.000000000001819
 11
117.6282005394864
 21
85.89706906342508
 31
0.000000000001819
210
-1.0
220
-0.0000000000000002
230
0.0
  0
LINE
  5
19E
330
81
100
AcDbEntity
  8
MD_可視
100
AcDbLine
 10
117.6282005394864
 20
85.89706906342508
 30
0.000000000001819
 11
117.5643707598615
 21
85.86870275782894
 31
0.000000000001819
210
-1.0
220
-0.0000000000000002
230
0.0
  0
LINE
  5
19F
330
81
100
AcDbEntity
  8
MD_可視
100
AcDbLine
 10
117.5643707598615
 20
85.86870275782894
 30
0.000000000001819
 11
117.5324558700491
 21
85.83324490626727
 31
0.000000000001819
210
-1.0
220
-0.0000000000000002
230
0.0
  0
LINE
  5
1A0
330
81
100
AcDbEntity
  8
MD_可視
100
AcDbLine
 10
117.5324558700491
 20
85.83324490626727
 30
0.000000000001819
 11
117.5324558700491
 21
85.79069546816208
 31
0.000000000001819
210
-1.0
220
-0.0000000000000002
230
0.0
  0
LINE
  5
1A1
330
81
100
AcDbEntity
  8
MD_可視
100
AcDbLine
 10
117.5324558700491
 20
85.79069546816208
 30
0.000000000001819
 11
117.5005409802366
 21
85.76942074910949
 31
0.000000000001819
210
-1.0
220
-0.0000000000000002
230
0.0
  0
LINE
  5
1A2
330
81
100
AcDbEntity
  8
MD_可視
100
AcDbLine
 10
117.5005409802366
 20
85.76942074910949
 30
0.000000000001819
 11
117.4367112006115
 21
85.74814603005689
 31
0.000000000001819
210
-1.0
220
-0.0000000000000002
230
0.0
  0
LINE
  5
1A3
330
81
100
AcDbEntity
  8
MD_可視
100
AcDbLine
 10
117.4367112006115
 20
85.74814603005689
 30
0.000000000001819
 11
117.3409665311742
 21
85.74105444351335
 31
0.000000000001819
210
-1.0
220
-0.0000000000000002
230
0.0
  0
LINE
  5
1A4
330
81
100
AcDbEntity
  8
MD_可視
100
AcDbLine
 10
117.3409665311742
 20
85.74105444351335
 30
0.000000000001819
 11
117.2771367515492
 21
85.74105444351335
 31
0.000000000001819
210
-1.0
220
-0.0000000000000002
230
0.0
  0
LINE
  5
1A5
330
81
100
AcDbEntity
  8
MD_可視
100
AcDbLine
 10
117.2771367515492
 20
85.74105444351335
 30
0.000000000001819
 11
117.1813919927048
 21
85.74814603005689
 31
0.000000000001819
210
-1.0
220
-0.0000000000000002
230
0.0
  0
LINE
  5
1A6
330
81
100
AcDbEntity
  8
MD_可視
100
AcDbLine
 10
117.1813919927048
 20
85.74814603005689
 30
0.000000000001819
 11
117.11756221308
 21
85.76942074910949
 31
0.000000000001819
210
-1.0
220
-0.0000000000000002
230
0.0
  0
LINE
  5
1A7
330
81
100
AcDbEntity
  8
MD_可視
100
AcDbLine
 10
117.11756221308
 20
85.76942074910949
 30
0.000000000001819
 11
117.0856473232674
 21
85.79069546816208
 31
0.000000000001819
210
-1.0
220
-0.0000000000000002
230
0.0
  0
LINE
  5
1A8
330
81
100
AcDbEntity
  8
MD_可視
100
AcDbLine
 10
117.0856473232674
 20
85.79069546816208
 30
0.000000000001819
 11
117.0856473232674
 21
85.83324490626727
 31
0.000000000001819
210
-1.0
220
-0.0000000000000002
230
0.0
  0
LINE
  5
1A9
330
81
100
AcDbEntity
  8
MD_可視
100
AcDbLine
 10
117.0856473232674
 20
85.83324490626727
 30
0.000000000001819
 11
117.11756221308
 21
85.85451962531989
 31
0.000000000001819
210
-1.0
220
-0.0000000000000002
230
0.0
  0
LINE
  5
1AA
330
81
100
AcDbEntity
  8
MD_可視
100
AcDbLine
 10
117.11756221308
 20
85.85451962531989
 30
0.000000000001819
 11
117.1813919927048
 21
85.86870275782894
 31
0.000000000001819
210
-1.0
220
-0.0000000000000002
230
0.0
  0
LINE
  5
1AB
330
81
100
AcDbEntity
  8
MD_可視
100
AcDbLine
 10
117.1813919927048
 20
85.86870275782894
 30
0.000000000001819
 11
117.2452217723298
 21
85.87579434437248
 31
0.000000000001819
210
-1.0
220
-0.0000000000000002
230
0.0
  0
LINE
  5
1AC
330
81
100
AcDbEntity
  8
MD_可視
100
AcDbLine
 10
118.0111792619396
 20
86.27292241983013
 30
0.000000000001819
 11
118.0111792619396
 21
86.23037298172494
 31
0.000000000001819
210
-1.0
220
-0.0000000000000002
230
0.0
  0
LINE
  5
1AD
330
81
100
AcDbEntity
  8
MD_可視
100
AcDbLine
 10
118.0111792619396
 20
86.23037298172494
 30
0.000000000001819
 11
118.106923931377
 21
86.22328143575941
 31
0.000000000001819
210
-1.0
220
-0.0000000000000002
230
0.0
  0
LINE
  5
1AE
330
81
100
AcDbEntity
  8
MD_可視
100
AcDbLine
 10
118.106923931377
 20
86.22328143575941
 30
0.000000000001819
 11
118.1707537333537
 21
86.20200671670682
 31
0.000000000001819
210
-1.0
220
-0.0000000000000002
230
0.0
  0
LINE
  5
1AF
330
81
100
AcDbEntity
  8
MD_可視
100
AcDbLine
 10
118.1707537333537
 20
86.20200671670682
 30
0.000000000001819
 11
118.2026686231661
 21
86.17364037053267
 31
0.000000000001819
210
-1.0
220
-0.0000000000000002
230
0.0
  0
LINE
  5
1B0
330
81
100
AcDbEntity
  8
MD_可視
100
AcDbLine
 10
118.2026686231661
 20
86.17364037053267
 30
0.000000000001819
 11
118.2026686231661
 21
86.10981621337305
 31
0.000000000001819
210
-1.0
220
-0.0000000000000002
230
0.0
  0
LINE
  5
1B1
330
81
100
AcDbEntity
  8
MD_可視
100
AcDbLine
 10
118.2026686231661
 20
86.10981621337305
 30
0.000000000001819
 11
118.1707537333537
 21
86.08144994835674
 31
0.000000000001819
210
-1.0
220
-0.0000000000000002
230
0.0
  0
LINE
  5
1B2
330
81
100
AcDbEntity
  8
MD_可視
100
AcDbLine
 10
118.1707537333537
 20
86.08144994835674
 30
0.000000000001819
 11
118.106923931377
 21
86.06017522930233
 31
0.000000000001819
210
-1.0
220
-0.0000000000000002
230
0.0
  0
LINE
  5
1B3
330
81
100
AcDbEntity
  8
MD_可視
100
AcDbLine
 10
118.106923931377
 20
86.06017522930233
 30
0.000000000001819
 11
118.0111792619396
 21
86.04599205621525
 31
0.000000000001819
210
-1.0
220
-0.0000000000000002
230
0.0
  0
LINE
  5
1B4
330
81
100
AcDbEntity
  8
MD_可視
100
AcDbLine
 10
118.0111792619396
 20
86.04599205621525
 30
0.000000000001819
 11
117.8835197026897
 21
86.03890051025155
 31
0.000000000001819
210
-1.0
220
-0.0000000000000002
230
0.0
  0
LINE
  5
1B5
330
81
100
AcDbEntity
  8
MD_可視
100
AcDbLine
 10
117.8835197026897
 20
86.03890051025155
 30
0.000000000001819
 11
117.4047963107991
 21
86.03890051025155
 31
0.000000000001819
210
-1.0
220
-0.0000000000000002
230
0.0
  0
LINE
  5
1B6
330
81
100
AcDbEntity
  8
MD_可視
100
AcDbLine
 10
117.4047963107991
 20
86.03890051025155
 30
0.000000000001819
 11
117.2771367515492
 21
86.04599205621525
 31
0.000000000001819
210
-1.0
220
-0.0000000000000002
230
0.0
  0
LINE
  5
1B7
330
81
100
AcDbEntity
  8
MD_可視
100
AcDbLine
 10
117.2771367515492
 20
86.04599205621525
 30
0.000000000001819
 11
117.1813919927048
 21
86.06017522930233
 31
0.000000000001819
210
-1.0
220
-0.0000000000000002
230
0.0
  0
LINE
  5
1B8
330
81
100
AcDbEntity
  8
MD_可視
100
AcDbLine
 10
117.1813919927048
 20
86.06017522930233
 30
0.000000000001819
 11
117.11756221308
 21
86.08144994835674
 31
0.000000000001819
210
-1.0
220
-0.0000000000000002
230
0.0
  0
LINE
  5
1B9
330
81
100
AcDbEntity
  8
MD_可視
100
AcDbLine
 10
117.11756221308
 20
86.08144994835674
 30
0.000000000001819
 11
117.0856473232674
 21
86.10981621337305
 31
0.000000000001819
210
-1.0
220
-0.0000000000000002
230
0.0
  0
LINE
  5
1BA
330
81
100
AcDbEntity
  8
MD_可視
100
AcDbLine
 10
117.0856473232674
 20
86.10981621337305
 30
0.000000000001819
 11
117.0856473232674
 21
86.17364037053267
 31
0.000000000001819
210
-1.0
220
-0.0000000000000002
230
0.0
  0
LINE
  5
1BB
330
81
100
AcDbEntity
  8
MD_可視
100
AcDbLine
 10
117.0856473232674
 20
86.17364037053267
 30
0.000000000001819
 11
117.11756221308
 21
86.20200671670682
 31
0.000000000001819
210
-1.0
220
-0.0000000000000002
230
0.0
  0
LINE
  5
1BC
330
81
100
AcDbEntity
  8
MD_可視
100
AcDbLine
 10
117.11756221308
 20
86.20200671670682
 30
0.000000000001819
 11
117.1813919927048
 21
86.22328143575941
 31
0.000000000001819
210
-1.0
220
-0.0000000000000002
230
0.0
  0
LINE
  5
1BD
330
81
100
AcDbEntity
  8
MD_可視
100
AcDbLine
 10
117.1813919927048
 20
86.22328143575941
 30
0.000000000001819
 11
117.2771367515492
 21
86.23037298172494
 31
0.000000000001819
210
-1.0
220
-0.0000000000000002
230
0.0
  0
LINE
  5
1BE
330
81
100
AcDbEntity
  8
MD_可視
100
AcDbLine
 10
117.2771367515492
 20
86.23037298172494
 30
0.000000000001819
 11
117.2771367515492
 21
86.27292241983013
 31
0.000000000001819
210
-1.0
220
-0.0000000000000002
230
0.0
  0
LINE
  5
1BF
330
81
100
AcDbEntity
  8
MD_可視
100
AcDbLine
 10
117.2771367515492
 20
86.27292241983013
 30
0.000000000001819
 11
117.11756221308
 21
86.26583087386462
 31
0.000000000001819
210
-1.0
220
-0.0000000000000002
230
0.0
  0
LINE
  5
1C0
330
81
100
AcDbEntity
  8
MD_可視
100
AcDbLine
 10
117.11756221308
 20
86.26583087386462
 30
0.000000000001819
 11
116.98990265383
 21
86.23746452769045
 31
0.000000000001819
210
-1.0
220
-0.0000000000000002
230
0.0
  0
LINE
  5
1C1
330
81
100
AcDbEntity
  8
MD_可視
100
AcDbLine
 10
116.98990265383
 20
86.23746452769045
 30
0.000000000001819
 11
116.9260728742052
 21
86.20909826267235
 31
0.000000000001819
210
-1.0
220
-0.0000000000000002
230
0.0
  0
LINE
  5
1C2
330
81
100
AcDbEntity
  8
MD_可視
100
AcDbLine
 10
116.9260728742052
 20
86.20909826267235
 30
0.000000000001819
 11
116.8941579843927
 21
86.17364037053267
 31
0.000000000001819
210
-1.0
220
-0.0000000000000002
230
0.0
  0
LINE
  5
1C3
330
81
100
AcDbEntity
  8
MD_可視
100
AcDbLine
 10
116.8941579843927
 20
86.17364037053267
 30
0.000000000001819
 11
116.8941579843927
 21
86.10981621337305
 31
0.000000000001819
210
-1.0
220
-0.0000000000000002
230
0.0
  0
LINE
  5
1C4
330
81
100
AcDbEntity
  8
MD_可視
100
AcDbLine
 10
116.8941579843927
 20
86.10981621337305
 30
0.000000000001819
 11
116.9260728742052
 21
86.07435840239123
 31
0.000000000001819
210
-1.0
220
-0.0000000000000002
230
0.0
  0
LINE
  5
1C5
330
81
100
AcDbEntity
  8
MD_可視
100
AcDbLine
 10
116.9260728742052
 20
86.07435840239123
 30
0.000000000001819
 11
116.98990265383
 21
86.04599205621525
 31
0.000000000001819
210
-1.0
220
-0.0000000000000002
230
0.0
  0
LINE
  5
1C6
330
81
100
AcDbEntity
  8
MD_可視
100
AcDbLine
 10
116.98990265383
 20
86.04599205621525
 30
0.000000000001819
 11
117.11756221308
 21
86.01762579119712
 31
0.000000000001819
210
-1.0
220
-0.0000000000000002
230
0.0
  0
LINE
  5
1C7
330
81
100
AcDbEntity
  8
MD_可視
100
AcDbLine
 10
117.11756221308
 20
86.01762579119712
 30
0.000000000001819
 11
117.2452217723298
 21
86.00344265868807
 31
0.000000000001819
210
-1.0
220
-0.0000000000000002
230
0.0
  0
LINE
  5
1C8
330
81
100
AcDbEntity
  8
MD_可視
100
AcDbLine
 10
117.2452217723298
 20
86.00344265868807
 30
0.000000000001819
 11
117.4047963107991
 21
85.99635107214453
 31
0.000000000001819
210
-1.0
220
-0.0000000000000002
230
0.0
  0
LINE
  5
1C9
330
81
100
AcDbEntity
  8
MD_可視
100
AcDbLine
 10
117.4047963107991
 20
85.99635107214453
 30
0.000000000001819
 11
117.8835197026897
 21
85.99635107214453
 31
0.000000000001819
210
-1.0
220
-0.0000000000000002
230
0.0
  0
LINE
  5
1CA
330
81
100
AcDbEntity
  8
MD_可視
100
AcDbLine
 10
117.8835197026897
 20
85.99635107214453
 30
0.000000000001819
 11
118.043094151752
 21
86.00344265868807
 31
0.000000000001819
210
-1.0
220
-0.0000000000000002
230
0.0
  0
LINE
  5
1CB
330
81
100
AcDbEntity
  8
MD_可視
100
AcDbLine
 10
118.043094151752
 20
86.00344265868807
 30
0.000000000001819
 11
118.1707537333537
 21
86.01762579119712
 31
0.000000000001819
210
-1.0
220
-0.0000000000000002
230
0.0
  0
LINE
  5
1CC
330
81
100
AcDbEntity
  8
MD_可視
100
AcDbLine
 10
118.1707537333537
 20
86.01762579119712
 30
0.000000000001819
 11
118.2984133037793
 21
86.04599205621525
 31
0.000000000001819
210
-1.0
220
-0.0000000000000002
230
0.0
  0
LINE
  5
1CD
330
81
100
AcDbEntity
  8
MD_可視
100
AcDbLine
 10
118.2984133037793
 20
86.04599205621525
 30
0.000000000001819
 11
118.3622430917863
 21
86.07435840239123
 31
0.000000000001819
210
-1.0
220
-0.0000000000000002
230
0.0
  0
LINE
  5
1CE
330
81
100
AcDbEntity
  8
MD_可視
100
AcDbLine
 10
118.3622430917863
 20
86.07435840239123
 30
0.000000000001819
 11
118.3941579843927
 21
86.10981621337305
 31
0.000000000001819
210
-1.0
220
-0.0000000000000002
230
0.0
  0
LINE
  5
1CF
330
81
100
AcDbEntity
  8
MD_可視
100
AcDbLine
 10
118.3941579843927
 20
86.10981621337305
 30
0.000000000001819
 11
118.3941579843927
 21
86.17364037053267
 31
0.000000000001819
210
-1.0
220
-0.0000000000000002
230
0.0
  0
LINE
  5
1D0
330
81
100
AcDbEntity
  8
MD_可視
100
AcDbLine
 10
118.3941579843927
 20
86.17364037053267
 30
0.000000000001819
 11
118.3622430917863
 21
86.20909826267235
 31
0.000000000001819
210
-1.0
220
-0.0000000000000002
230
0.0
  0
LINE
  5
1D1
330
81
100
AcDbEntity
  8
MD_可視
100
AcDbLine
 10
118.3622430917863
 20
86.20909826267235
 30
0.000000000001819
 11
118.2984133037793
 21
86.23746452769045
 31
0.000000000001819
210
-1.0
220
-0.0000000000000002
230
0.0
  0
LINE
  5
1D2
330
81
100
AcDbEntity
  8
MD_可視
100
AcDbLine
 10
118.2984133037793
 20
86.23746452769045
 30
0.000000000001819
 11
118.1707537333537
 21
86.26583087386462
 31
0.000000000001819
210
-1.0
220
-0.0000000000000002
230
0.0
  0
LINE
  5
1D3
330
81
100
AcDbEntity
  8
MD_可視
100
AcDbLine
 10
118.1707537333537
 20
86.26583087386462
 30
0.000000000001819
 11
118.0111792619396
 21
86.27292241983013
 31
0.000000000001819
210
-1.0
220
-0.0000000000000002
230
0.0
  0
LINE
  5
1D4
330
81
100
AcDbEntity
  8
MD_可視
100
AcDbLine
 10
117.2452217723298
 20
85.77996208692638
 30
0.000000000001819
 11
117.2452217723298
 21
85.87579434437248
 31
0.000000000001819
210
-1.0
220
-0.0000000000000002
230
0.0
  0
LINE
  5
1D5
330
81
100
AcDbEntity
  8
MD_可視
100
AcDbLine
 10
117.1813919927048
 20
85.77287050038284
 30
0.000000000001819
 11
117.1813919927048
 21
85.86870275782894
 31
0.000000000001819
210
-1.0
220
-0.0000000000000002
230
0.0
  0
LINE
  5
1D6
330
81
100
AcDbEntity
  8
MD_可視
100
AcDbLine
 10
117.11756221308
 20
85.76942074910949
 30
0.000000000001819
 11
117.11756221308
 21
85.85451962531989
 31
0.000000000001819
210
-1.0
220
-0.0000000000000002
230
0.0
  0
LINE
  5
1D7
330
81
100
AcDbEntity
  8
MD_可視
100
AcDbLine
 10
118.3941579843927
 20
85.68068003762709
 30
0.000000000001819
 11
118.3941579843927
 21
85.776512295075
 31
0.000000000001819
210
-1.0
220
-0.0000000000000002
230
0.0
  0
LINE
  5
1D8
330
81
100
AcDbEntity
  8
MD_可視
100
AcDbLine
 10
118.3622430917863
 20
85.64522218606544
 30
0.000000000001819
 11
118.3622430917863
 21
85.74105444351335
 31
0.000000000001819
210
-1.0
220
-0.0000000000000002
230
0.0
  0
LINE
  5
1D9
330
81
100
AcDbEntity
  8
MD_可視
100
AcDbLine
 10
118.2664984139669
 20
85.62049769545046
 30
0.000000000001819
 11
118.2664984139669
 21
85.70559659195168
 31
0.000000000001819
210
-1.0
220
-0.0000000000000002
230
0.0
  0
LINE
  5
1DA
330
81
100
AcDbEntity
  8
MD_可視
100
AcDbLine
 10
118.106923931377
 20
85.62049769545046
 30
0.000000000001819
 11
118.106923931377
 21
85.68432187289728
 31
0.000000000001819
210
-1.0
220
-0.0000000000000002
230
0.0
  0
LINE
  5
1DB
330
81
100
AcDbEntity
  8
MD_可視
100
AcDbLine
 10
117.979264372127
 20
85.62049769545046
 30
0.000000000001819
 11
117.979264372127
 21
85.67723028635555
 31
0.000000000001819
210
-1.0
220
-0.0000000000000002
230
0.0
  0
LINE
  5
1DC
330
81
100
AcDbEntity
  8
MD_可視
100
AcDbLine
 10
118.1707537333537
 20
85.76577891383932
 30
0.000000000001819
 11
118.1707537333537
 21
85.8616111712854
 31
0.000000000001819
210
-1.0
220
-0.0000000000000002
230
0.0
  0
LINE
  5
1DD
330
81
100
AcDbEntity
  8
MD_可視
100
AcDbLine
 10
118.106923931377
 20
85.78705363289191
 30
0.000000000001819
 11
118.106923931377
 21
85.88288589033799
 31
0.000000000001819
210
-1.0
220
-0.0000000000000002
230
0.0
  0
LINE
  5
1DE
330
81
100
AcDbEntity
  8
MD_可視
100
AcDbLine
 10
118.0111792619396
 20
85.80123680597898
 30
0.000000000001819
 11
118.0111792619396
 21
85.89706906342508
 31
0.000000000001819
210
-1.0
220
-0.0000000000000002
230
0.0
  0
LINE
  5
1DF
330
81
100
AcDbEntity
  8
MD_可視
100
AcDbLine
 10
117.9154345925021
 20
85.80123680597898
 30
0.000000000001819
 11
117.9154345925021
 21
85.89706906342508
 31
0.000000000001819
210
-1.0
220
-0.0000000000000002
230
0.0
  0
LINE
  5
1E0
330
81
100
AcDbEntity
  8
MD_可視
100
AcDbLine
 10
117.8196898783612
 20
85.78705363289191
 30
0.000000000001819
 11
117.8196898783612
 21
85.88288589033799
 31
0.000000000001819
210
-1.0
220
-0.0000000000000002
230
0.0
  0
LINE
  5
1E1
330
81
100
AcDbEntity
  8
MD_可視
100
AcDbLine
 10
117.7558600987363
 20
85.76577891383932
 30
0.000000000001819
 11
117.7558600987363
 21
85.8616111712854
 31
0.000000000001819
210
-1.0
220
-0.0000000000000002
230
0.0
  0
LINE
  5
1E2
330
81
100
AcDbEntity
  8
MD_可視
100
AcDbLine
 10
117.7239452089238
 20
85.69486321071417
 30
0.000000000001819
 11
117.7239452089238
 21
85.79069546816208
 31
0.000000000001819
210
-1.0
220
-0.0000000000000002
230
0.0
  0
LINE
  5
1E3
330
81
100
AcDbEntity
  8
MD_可視
100
AcDbLine
 10
117.6920303191113
 20
85.66649690511985
 30
0.000000000001819
 11
117.6920303191113
 21
85.76232916256595
 31
0.000000000001819
210
-1.0
220
-0.0000000000000002
230
0.0
  0
LINE
  5
1E4
330
81
100
AcDbEntity
  8
MD_可視
100
AcDbLine
 10
117.6282005394864
 20
85.63813059952371
 30
0.000000000001819
 11
117.6282005394864
 21
85.73396285696981
 31
0.000000000001819
210
-1.0
220
-0.0000000000000002
230
0.0
  0
LINE
  5
1E5
330
81
100
AcDbEntity
  8
MD_可視
100
AcDbLine
 10
117.5005409802366
 20
85.62049769545046
 30
0.000000000001819
 11
117.5005409802366
 21
85.70559659195168
 31
0.000000000001819
210
-1.0
220
-0.0000000000000002
230
0.0
  0
LINE
  5
1E6
330
81
100
AcDbEntity
  8
MD_可視
100
AcDbLine
 10
117.3728814209866
 20
85.62049769545046
 30
0.000000000001819
 11
117.3728814209866
 21
85.69850500540633
 31
0.000000000001819
210
-1.0
220
-0.0000000000000002
230
0.0
  0
LINE
  5
1E7
330
81
100
AcDbEntity
  8
MD_可視
100
AcDbLine
 10
117.2452217723298
 20
85.62049769545046
 30
0.000000000001819
 11
117.2452217723298
 21
85.69850500540633
 31
0.000000000001819
210
-1.0
220
-0.0000000000000002
230
0.0
  0
LINE
  5
1E8
330
81
100
AcDbEntity
  8
MD_可視
100
AcDbLine
 10
117.11756221308
 20
85.62049769545046
 30
0.000000000001819
 11
117.11756221308
 21
85.70559659195168
 31
0.000000000001819
210
-1.0
220
-0.0000000000000002
230
0.0
  0
LINE
  5
1E9
330
81
100
AcDbEntity
  8
MD_可視
100
AcDbLine
 10
116.98990265383
 20
85.63813059952371
 30
0.000000000001819
 11
116.98990265383
 21
85.73396285696981
 31
0.000000000001819
210
-1.0
220
-0.0000000000000002
230
0.0
  0
LINE
  5
1EA
330
81
100
AcDbEntity
  8
MD_可視
100
AcDbLine
 10
116.9260728742052
 20
85.66649690511985
 30
0.000000000001819
 11
116.9260728742052
 21
85.76232916256595
 31
0.000000000001819
210
-1.0
220
-0.0000000000000002
230
0.0
  0
LINE
  5
1EB
330
81
100
AcDbEntity
  8
MD_可視
100
AcDbLine
 10
116.8941579843927
 20
85.69486321071417
 30
0.000000000001819
 11
116.8941579843927
 21
85.79069546816208
 31
0.000000000001819
210
-1.0
220
-0.0000000000000002
230
0.0
  0
LINE
  5
1EC
330
81
100
AcDbEntity
  8
MD_可視
100
AcDbLine
 10
118.0111792619396
 20
86.13454072427884
 30
0.000000000001819
 11
118.0111792619396
 21
86.23037298172494
 31
0.000000000001819
210
-1.0
220
-0.0000000000000002
230
0.0
  0
LINE
  5
1ED
330
81
100
AcDbEntity
  8
MD_可視
100
AcDbLine
 10
118.3941579843927
 20
86.01398395592696
 30
0.000000000001819
 11
118.3941579843927
 21
86.10981621337305
 31
0.000000000001819
210
-1.0
220
-0.0000000000000002
230
0.0
  0
LINE
  5
1EE
330
81
100
AcDbEntity
  8
MD_可視
100
AcDbLine
 10
118.3622430917863
 20
85.97852614494332
 30
0.000000000001819
 11
118.3622430917863
 21
86.07435840239123
 31
0.000000000001819
210
-1.0
220
-0.0000000000000002
230
0.0
  0
LINE
  5
1EF
330
81
100
AcDbEntity
  8
MD_可視
100
AcDbLine
 10
118.2984133037793
 20
85.95015979876917
 30
0.000000000001819
 11
118.2984133037793
 21
86.04599205621525
 31
0.000000000001819
210
-1.0
220
-0.0000000000000002
230
0.0
  0
LINE
  5
1F0
330
81
100
AcDbEntity
  8
MD_可視
100
AcDbLine
 10
118.1707537333537
 20
85.9254353284432
 30
0.000000000001819
 11
118.1707537333537
 21
86.01762579119712
 31
0.000000000001819
210
-1.0
220
-0.0000000000000002
230
0.0
  0
LINE
  5
1F1
330
81
100
AcDbEntity
  8
MD_可視
100
AcDbLine
 10
118.043094151752
 20
85.93961850153027
 30
0.000000000001819
 11
118.043094151752
 21
86.00344265868807
 31
0.000000000001819
210
-1.0
220
-0.0000000000000002
230
0.0
  0
LINE
  5
1F2
330
81
100
AcDbEntity
  8
MD_可視
100
AcDbLine
 10
117.8835197026897
 20
85.93961850153027
 30
0.000000000001819
 11
117.8835197026897
 21
85.99635107214453
 31
0.000000000001819
210
-1.0
220
-0.0000000000000002
230
0.0
  0
LINE
  5
1F3
330
81
100
AcDbEntity
  8
MD_可視
100
AcDbLine
 10
117.4047963107991
 20
85.90051881469845
 30
0.000000000001819
 11
117.4047963107991
 21
85.99635107214453
 31
0.000000000001819
210
-1.0
220
-0.0000000000000002
230
0.0
  0
LINE
  5
1F4
330
81
100
AcDbEntity
  8
MD_可視
100
AcDbLine
 10
117.2452217723298
 20
85.91834378247767
 30
0.000000000001819
 11
117.2452217723298
 21
86.00344265868807
 31
0.000000000001819
210
-1.0
220
-0.0000000000000002
230
0.0
  0
LINE
  5
1F5
330
81
100
AcDbEntity
  8
MD_可視
100
AcDbLine
 10
117.11756221308
 20
85.92179353375104
 30
0.000000000001819
 11
117.11756221308
 21
86.01762579119712
 31
0.000000000001819
210
-1.0
220
-0.0000000000000002
230
0.0
  0
LINE
  5
1F6
330
81
100
AcDbEntity
  8
MD_可視
100
AcDbLine
 10
116.98990265383
 20
85.95015979876917
 30
0.000000000001819
 11
116.98990265383
 21
86.04599205621525
 31
0.000000000001819
210
-1.0
220
-0.0000000000000002
230
0.0
  0
LINE
  5
1F7
330
81
100
AcDbEntity
  8
MD_可視
100
AcDbLine
 10
116.9260728742052
 20
85.97852614494332
 30
0.000000000001819
 11
116.9260728742052
 21
86.07435840239123
 31
0.000000000001819
210
-1.0
220
-0.0000000000000002
230
0.0
  0
LINE
  5
1F8
330
81
100
AcDbEntity
  8
MD_可視
100
AcDbLine
 10
116.8941579843927
 20
86.01398395592696
 30
0.000000000001819
 11
116.8941579843927
 21
86.10981621337305
 31
0.000000000001819
210
-1.0
220
-0.0000000000000002
230
0.0
  0
LINE
  5
1F9
330
81
100
AcDbEntity
  8
MD_可視
100
AcDbLine
 10
117.2771367515492
 20
86.13454072427884
 30
0.000000000001819
 11
117.2771367515492
 21
86.23037298172494
 31
0.000000000001819
210
-1.0
220
-0.0000000000000002
230
0.0
  0
LINE
  5
1FA
330
81
100
AcDbEntity
  8
MD_可視
100
AcDbLine
 10
117.1813919927048
 20
86.12744917831333
 30
0.000000000001819
 11
117.1813919927048
 21
86.22328143575941
 31
0.000000000001819
210
-1.0
220
-0.0000000000000002
230
0.0
  0
LINE
  5
1FB
330
81
100
AcDbEntity
  8
MD_可視
100
AcDbLine
 10
117.11756221308
 20
86.10617445926072
 30
0.000000000001819
 11
117.11756221308
 21
86.20200671670682
 31
0.000000000001819
210
-1.0
220
-0.0000000000000002
230
0.0
  0
LINE
  5
1FC
330
81
100
AcDbEntity
  8
MD_可視
100
AcDbLine
 10
118.1707537333537
 20
86.10617445926072
 30
0.000000000001819
 11
118.1707537333537
 21
86.20200671670682
 31
0.000000000001819
210
-1.0
220
-0.0000000000000002
230
0.0
  0
LINE
  5
1FD
330
81
100
AcDbEntity
  8
MD_可視
100
AcDbLine
 10
118.106923931377
 20
86.12744917831333
 30
0.000000000001819
 11
118.106923931377
 21
86.22328143575941
 31
0.000000000001819
210
-1.0
220
-0.0000000000000002
230
0.0
  0
LINE
  5
1FE
330
81
100
AcDbEntity
  8
MD_可視
100
AcDbLine
 10
122.2441579843926
 20
80.54373068024323
 30
0.000000000001819
 11
122.2441579843926
 21
81.30373068024345
 31
0.000000000001819
210
-1.0
220
-0.0000000000000002
230
0.0
  0
LINE
  5
1FF
330
81
100
AcDbEntity
  8
MD_可視
100
AcDbLine
 10
122.3941579843927
 20
81.30373068024345
 30
0.000000000001819
 11
122.2441579843926
 21
81.30373068024345
 31
0.000000000001819
210
-1.0
220
-0.0000000000000002
230
0.0
  0
LINE
  5
200
330
81
100
AcDbEntity
  8
MD_可視
100
AcDbLine
 10
122.3941579843927
 20
80.54373068024323
 30
0.000000000001819
 11
122.3941579843927
 21
81.30373068024345
 31
0.000000000001819
210
-1.0
220
-0.0000000000000002
230
0.0
  0
LINE
  5
201
330
81
100
AcDbEntity
  8
MD_可視
100
AcDbLine
 10
112.0991579843926
 20
80.54373068024323
 30
0.000000000001819
 11
111.7991579843927
 21
80.54373068024323
 31
0.000000000001819
210
-1.0
220
-0.0000000000000002
230
0.0
  0
LINE
  5
202
330
81
100
AcDbEntity
  8
MD_可視
100
AcDbLine
 10
114.5941579843926
 20
80.54373068024323
 30
0.000000000001819
 11
113.1441579843927
 21
80.54373068024323
 31
0.000000000001819
210
-1.0
220
-0.0000000000000002
230
0.0
  0
LINE
  5
203
330
81
100
AcDbEntity
  8
MD_可視
100
AcDbLine
 10
122.1441579843927
 20
80.54373068024323
 30
0.000000000001819
 11
120.6941579843926
 21
80.54373068024323
 31
0.000000000001819
210
-1.0
220
-0.0000000000000002
230
0.0
  0
LINE
  5
204
330
81
100
AcDbEntity
  8
MD_可視
100
AcDbLine
 10
123.4891579843927
 20
80.54373068024323
 30
0.000000000001819
 11
123.1891579843926
 21
80.54373068024323
 31
0.000000000001819
210
-1.0
220
-0.0000000000000002
230
0.0
  0
LINE
  5
205
330
81
100
AcDbEntity
  8
MD_可視
100
AcDbLine
 10
111.7991579843927
 20
76.24373068024215
 30
0.000000000001819
 11
111.7991579843927
 21
80.54373068024323
 31
0.000000000001819
210
-1.0
220
-0.0000000000000002
230
0.0
  0
LINE
  5
206
330
81
100
AcDbEntity
  8
MD_狭い可視
100
AcDbLine
 10
112.0991579843926
 20
76.24373068024215
 30
0.000000000001819
 11
111.7991579843927
 21
76.24373068024215
 31
0.000000000001819
210
-1.0
220
-0.0000000000000002
230
0.0
  0
LINE
  5
207
330
81
100
AcDbEntity
  8
MD_可視
100
AcDbLine
 10
111.7991579843927
 20
76.24373068024215
 30
0.000000000001819
 11
111.7991579843927
 21
76.04373068024142
 31
0.000000000001819
210
-1.0
220
-0.0000000000000002
230
0.0
  0
ARC
  5
208
330
81
100
AcDbEntity
  8
MD_可視
100
AcDbCircle
 10
112.0991579843926
 20
76.04373068024324
 30
0.000000000001819
 40
0.3
100
AcDbArc
 50
180.0
 51
270.0
  0
LINE
  5
209
330
81
100
AcDbEntity
  8
MD_狭い可視
100
AcDbLine
 10
112.0991579843926
 20
76.2437306806678
 30
0.000000000001819
 11
112.0991579843926
 21
75.74373068024215
 31
0.000000000001819
210
-1.0
220
-0.0000000000000002
230
0.0
  0
LINE
  5
20A
330
81
100
AcDbEntity
  8
MD_狭い可視
100
AcDbLine
 10
113.5341579843927
 20
76.24373068116074
 30
0.000000000001819
 11
113.5341579843927
 21
75.74373068024215
 31
0.000000000001819
210
-1.0
220
-0.0000000000000002
230
0.0
  0
ARC
  5
20B
330
81
100
AcDbEntity
  8
MD_可視
100
AcDbCircle
 10
113.5341579843927
 20
75.93373068024266
 30
0.000000000001819
 40
0.1900000000000001
100
AcDbArc
 50
270.0
 51
0.0
  0
LINE
  5
20C
330
81
100
AcDbEntity
  8
MD_可視
100
AcDbLine
 10
113.7241579843927
 20
76.24373068024215
 30
0.000000000001819
 11
113.7241579843927
 21
75.93373068024266
 31
0.000000000001819
210
-1.0
220
-0.0000000000000002
230
0.0
  0
LINE
  5
20D
330
81
100
AcDbEntity
  8
MD_狭い可視
100
AcDbLine
 10
113.7241579843927
 20
76.24373068024215
 30
0.000000000001819
 11
113.5341579843927
 21
76.24373068024215
 31
0.000000000001819
210
-1.0
220
-0.0000000000000002
230
0.0
  0
LINE
  5
20E
330
81
100
AcDbEntity
  8
MD_可視
100
AcDbLine
 10
113.7241579843927
 20
76.24373068024215
 30
0.000000000001819
 11
113.7241579843927
 21
77.79373068024324
 31
0.000000000001819
210
-1.0
220
-0.0000000000000002
230
0.0
  0
LINE
  5
20F
330
81
100
AcDbEntity
  8
MD_可視
100
AcDbLine
 10
113.7241579843927
 20
76.72888203507682
 30
0.000000000001819
 11
113.9141579843927
 21
77.25090274477224
 31
0.000000000001819
210
-1.0
220
-0.0000000000000002
230
0.0
  0
LINE
  5
210
330
81
100
AcDbEntity
  8
MD_可視
100
AcDbLine
 10
114.2341579843927
 20
77.25090274477224
 30
0.000000000001819
 11
114.3641579843927
 21
76.89373068024361
 31
0.000000000001819
210
-1.0
220
-0.0000000000000002
230
0.0
  0
LINE
  5
211
330
81
100
AcDbEntity
  8
MD_可視
100
AcDbLine
 10
114.3641579843927
 20
76.24373068024215
 30
0.000000000001819
 11
114.3641579843927
 21
75.93373068024266
 31
0.000000000001819
210
-1.0
220
-0.0000000000000002
230
0.0
  0
LINE
  5
212
330
81
100
AcDbEntity
  8
MD_可視
100
AcDbLine
 10
114.3641579843927
 20
76.24373068024215
 30
0.000000000001819
 11
114.3641579843927
 21
77.79373068024324
 31
0.000000000001819
210
-1.0
220
-0.0000000000000002
230
0.0
  0
ARC
  5
213
330
81
100
AcDbEntity
  8
MD_可視
100
AcDbCircle
 10
114.5541579843927
 20
75.93373068024266
 30
0.000000000001819
 40
0.1900000000000001
100
AcDbArc
 50
180.0
 51
0.0
  0
LINE
  5
214
330
81
100
AcDbEntity
  8
MD_狭い可視
100
AcDbLine
 10
114.7441579843927
 20
76.24373068024215
 30
0.000000000001819
 11
114.3641579843927
 21
76.24373068024215
 31
0.000000000001819
210
-1.0
220
-0.0000000000000002
230
0.0
  0
LINE
  5
215
330
81
100
AcDbEntity
  8
MD_可視
100
AcDbLine
 10
113.1441579843927
 20
79.12373068024317
 30
0.000000000001819
 11
113.1441579843927
 21
80.54373068024323
 31
0.000000000001819
210
-1.0
220
-0.0000000000000002
230
0.0
  0
LINE
  5
216
330
81
100
AcDbEntity
  8
MD_可視
100
AcDbLine
 10
122.1441579843927
 20
79.12373068024317
 30
0.000000000001819
 11
113.1441579843927
 21
79.12373068024317
 31
0.000000000001819
210
-1.0
220
-0.0000000000000002
230
0.0
  0
LINE
  5
217
330
81
100
AcDbEntity
  8
MD_可視
100
AcDbLine
 10
122.1441579843927
 20
79.12373068024317
 30
0.000000000001819
 11
122.1441579843927
 21
80.54373068024323
 31
0.000000000001819
210
-1.0
220
-0.0000000000000002
230
0.0
  0
LINE
  5
218
330
81
100
AcDbEntity
  8
MD_可視
100
AcDbLine
 10
122.1441579843927
 20
78.92373068024244
 30
0.000000000001819
 11
122.1441579843927
 21
79.12373068024317
 31
0.000000000001819
210
-1.0
220
-0.0000000000000002
230
0.0
  0
LINE
  5
219
330
81
100
AcDbEntity
  8
MD_可視
100
AcDbLine
 10
113.1441579843927
 20
78.92373068024244
 30
0.000000000001819
 11
113.1441579843927
 21
79.12373068024317
 31
0.000000000001819
210
-1.0
220
-0.0000000000000002
230
0.0
  0
LINE
  5
21A
330
81
100
AcDbEntity
  8
MD_狭い可視
100
AcDbLine
 10
119.8441579843926
 20
76.24373068024215
 30
0.000000000001819
 11
119.4641579843927
 21
76.24373068024215
 31
0.000000000001819
210
-1.0
220
-0.0000000000000002
230
0.0
  0
LINE
  5
21B
330
81
100
AcDbEntity
  8
MD_狭い可視
100
AcDbLine
 10
118.8241579843927
 20
76.24373068024215
 30
0.000000000001819
 11
118.4441579843926
 21
76.24373068024215
 31
0.000000000001819
210
-1.0
220
-0.0000000000000002
230
0.0
  0
LINE
  5
21C
330
81
100
AcDbEntity
  8
MD_狭い可視
100
AcDbLine
 10
117.8041579843926
 20
76.24373068024215
 30
0.000000000001819
 11
117.4241579843926
 21
76.24373068024215
 31
0.000000000001819
210
-1.0
220
-0.0000000000000002
230
0.0
  0
LINE
  5
21D
330
81
100
AcDbEntity
  8
MD_狭い可視
100
AcDbLine
 10
116.7841579843927
 20
76.24373068024215
 30
0.000000000001819
 11
116.4041579843926
 21
76.24373068024215
 31
0.000000000001819
210
-1.0
220
-0.0000000000000002
230
0.0
  0
LINE
  5
21E
330
81
100
AcDbEntity
  8
MD_狭い可視
100
AcDbLine
 10
115.7641579843927
 20
76.24373068024215
 30
0.000000000001819
 11
115.3841579843926
 21
76.24373068024215
 31
0.000000000001819
210
-1.0
220
-0.0000000000000002
230
0.0
  0
LINE
  5
21F
330
81
100
AcDbEntity
  8
MD_可視
100
AcDbLine
 10
113.7241579843927
 20
76.29373068024325
 30
0.000000000001819
 11
113.8588904648217
 21
76.29373068024325
 31
0.000000000001819
210
-1.0
220
-0.0000000000000002
230
0.0
  0
LINE
  5
220
330
81
100
AcDbEntity
  8
MD_可視
100
AcDbLine
 10
114.2088904648216
 20
76.29373068024325
 30
0.000000000001819
 11
114.3641579843927
 21
76.29373068024325
 31
0.000000000001819
210
-1.0
220
-0.0000000000000002
230
0.0
  0
LINE
  5
221
330
81
100
AcDbEntity
  8
MD_可視
100
AcDbLine
 10
114.7441579843927
 20
76.29373068024325
 30
0.000000000001819
 11
114.8788904648217
 21
76.29373068024325
 31
0.000000000001819
210
-1.0
220
-0.0000000000000002
230
0.0
  0
LINE
  5
222
330
81
100
AcDbEntity
  8
MD_可視
100
AcDbLine
 10
115.2288904648216
 20
76.29373068024325
 30
0.000000000001819
 11
115.3841579843926
 21
76.29373068024325
 31
0.000000000001819
210
-1.0
220
-0.0000000000000002
230
0.0
  0
LINE
  5
223
330
81
100
AcDbEntity
  8
MD_可視
100
AcDbLine
 10
115.7641579843927
 20
76.29373068024325
 30
0.000000000001819
 11
115.8988904648216
 21
76.29373068024325
 31
0.000000000001819
210
-1.0
220
-0.0000000000000002
230
0.0
  0
LINE
  5
224
330
81
100
AcDbEntity
  8
MD_可視
100
AcDbLine
 10
116.2488904648217
 20
76.29373068024325
 30
0.000000000001819
 11
116.4041579843926
 21
76.29373068024325
 31
0.000000000001819
210
-1.0
220
-0.0000000000000002
230
0.0
  0
LINE
  5
225
330
81
100
AcDbEntity
  8
MD_可視
100
AcDbLine
 10
116.7841579843927
 20
76.29373068024325
 30
0.000000000001819
 11
116.9188904648216
 21
76.29373068024325
 31
0.000000000001819
210
-1.0
220
-0.0000000000000002
230
0.0
  0
LINE
  5
226
330
81
100
AcDbEntity
  8
MD_可視
100
AcDbLine
 10
117.2688904648216
 20
76.29373068024325
 30
0.000000000001819
 11
117.4241579843926
 21
76.29373068024325
 31
0.000000000001819
210
-1.0
220
-0.0000000000000002
230
0.0
  0
LINE
  5
227
330
81
100
AcDbEntity
  8
MD_可視
100
AcDbLine
 10
117.8041579843926
 20
76.29373068024325
 30
0.000000000001819
 11
117.9388904648217
 21
76.29373068024325
 31
0.000000000001819
210
-1.0
220
-0.0000000000000002
230
0.0
  0
LINE
  5
228
330
81
100
AcDbEntity
  8
MD_可視
100
AcDbLine
 10
118.2888904648216
 20
76.29373068024325
 30
0.000000000001819
 11
118.4441579843926
 21
76.29373068024325
 31
0.000000000001819
210
-1.0
220
-0.0000000000000002
230
0.0
  0
LINE
  5
229
330
81
100
AcDbEntity
  8
MD_可視
100
AcDbLine
 10
118.8241579843927
 20
76.29373068024325
 30
0.000000000001819
 11
118.9588904648217
 21
76.29373068024325
 31
0.000000000001819
210
-1.0
220
-0.0000000000000002
230
0.0
  0
LINE
  5
22A
330
81
100
AcDbEntity
  8
MD_可視
100
AcDbLine
 10
119.3088904648216
 20
76.29373068024325
 30
0.000000000001819
 11
119.4641579843927
 21
76.29373068024325
 31
0.000000000001819
210
-1.0
220
-0.0000000000000002
230
0.0
  0
LINE
  5
22B
330
81
100
AcDbEntity
  8
MD_可視
100
AcDbLine
 10
119.8441579843926
 20
76.29373068024325
 30
0.000000000001819
 11
119.9788904648217
 21
76.29373068024325
 31
0.000000000001819
210
-1.0
220
-0.0000000000000002
230
0.0
  0
LINE
  5
22C
330
81
100
AcDbEntity
  8
MD_可視
100
AcDbLine
 10
120.3288904648217
 20
76.29373068024325
 30
0.000000000001819
 11
120.4841579843927
 21
76.29373068024325
 31
0.000000000001819
210
-1.0
220
-0.0000000000000002
230
0.0
  0
LINE
  5
22D
330
81
100
AcDbEntity
  8
MD_可視
100
AcDbLine
 10
120.8641579843926
 20
76.29373068024325
 30
0.000000000001819
 11
120.9988904648217
 21
76.29373068024325
 31
0.000000000001819
210
-1.0
220
-0.0000000000000002
230
0.0
  0
LINE
  5
22E
330
81
100
AcDbEntity
  8
MD_可視
100
AcDbLine
 10
121.3488904648217
 20
76.29373068024325
 30
0.000000000001819
 11
121.5041579843926
 21
76.29373068024325
 31
0.000000000001819
210
-1.0
220
-0.0000000000000002
230
0.0
  0
LINE
  5
22F
330
81
100
AcDbEntity
  8
MD_可視
100
AcDbLine
 10
121.4691579843927
 20
74.19385738968776
 30
0.000000000001819
 11
121.4691579843927
 21
74.34373068024251
 31
0.000000000001819
210
-1.0
220
-0.0000000000000002
230
0.0
  0
LINE
  5
230
330
81
100
AcDbEntity
  8
MD_可視
100
AcDbLine
 10
113.8191579843927
 20
74.19385738968776
 30
0.000000000001819
 11
113.8191579843927
 21
74.34373068024251
 31
0.000000000001819
210
-1.0
220
-0.0000000000000002
230
0.0
  0
LINE
  5
231
330
81
100
AcDbEntity
  8
MD_可視
100
AcDbLine
 10
121.4691579843927
 20
74.19385738968776
 30
0.000000000001819
 11
113.8191579843927
 21
74.19385738968776
 31
0.000000000001819
210
-1.0
220
-0.0000000000000002
230
0.0
  0
LINE
  5
232
330
81
100
AcDbEntity
  8
MD_可視
100
AcDbLine
 10
116.0491579843927
 20
74.33855015622248
 30
0.000000000001819
 11
116.0491579843927
 21
74.34373068024251
 31
0.000000000001819
210
-1.0
220
-0.0000000000000002
230
0.0
  0
LINE
  5
233
330
81
100
AcDbEntity
  8
MD_可視
100
AcDbLine
 10
116.0491579843927
 20
74.22758906347735
 30
0.000000000001819
 11
116.0491579843927
 21
74.33855015622248
 31
0.000000000001819
210
-1.0
220
-0.0000000000000002
230
0.0
  0
LINE
  5
234
330
81
100
AcDbEntity
  8
MD_狭い可視
100
AcDbLine
 10
115.4241579843926
 20
74.33855015622248
 30
0.000000000001819
 11
116.0491579843927
 21
74.33855015622248
 31
0.000000000001819
210
-1.0
220
-0.0000000000000002
230
0.0
  0
LINE
  5
235
330
81
100
AcDbEntity
  8
MD_可視
100
AcDbLine
 10
115.4241579843926
 20
74.33855015622248
 30
0.000000000001819
 11
115.4241579843926
 21
74.22758906347735
 31
0.000000000001819
210
-1.0
220
-0.0000000000000002
230
0.0
  0
LINE
  5
236
330
81
100
AcDbEntity
  8
MD_可視
100
AcDbLine
 10
119.2391579843927
 20
74.22758906347735
 30
0.000000000001819
 11
119.2391579843927
 21
74.33855015622248
 31
0.000000000001819
210
-1.0
220
-0.0000000000000002
230
0.0
  0
LINE
  5
237
330
81
100
AcDbEntity
  8
MD_可視
100
AcDbLine
 10
119.8641579843926
 20
74.22758906347735
 30
0.000000000001819
 11
119.8641579843926
 21
74.33855015622248
 31
0.000000000001819
210
-1.0
220
-0.0000000000000002
230
0.0
  0
LINE
  5
238
330
81
100
AcDbEntity
  8
MD_狭い可視
100
AcDbLine
 10
119.2391579843927
 20
74.33855015622248
 30
0.000000000001819
 11
119.8641579843926
 21
74.33855015622248
 31
0.000000000001819
210
-1.0
220
-0.0000000000000002
230
0.0
  0
LINE
  5
239
330
81
100
AcDbEntity
  8
MD_可視
100
AcDbLine
 10
115.4241579843926
 20
74.33855015622248
 30
0.000000000001819
 11
115.4241579843926
 21
74.34373068024251
 31
0.000000000001819
210
-1.0
220
-0.0000000000000002
230
0.0
  0
LINE
  5
23A
330
81
100
AcDbEntity
  8
MD_可視
100
AcDbLine
 10
119.2391579843927
 20
74.33855015622248
 30
0.000000000001819
 11
119.2391579843927
 21
74.34373068024251
 31
0.000000000001819
210
-1.0
220
-0.0000000000000002
230
0.0
  0
LINE
  5
23B
330
81
100
AcDbEntity
  8
MD_可視
100
AcDbLine
 10
119.8641579843926
 20
74.33855015622248
 30
0.000000000001819
 11
119.8641579843926
 21
74.34373068024251
 31
0.000000000001819
210
-1.0
220
-0.0000000000000002
230
0.0
  0
ARC
  5
23C
330
81
100
AcDbEntity
  8
MD_可視
100
AcDbCircle
 10
-117.5965024663158
 20
86.57562977544694
 30
-0.0000000000017998
 40
0.7250000000000001
210
0.0
220
0.0000000000000002
230
-1.0
100
AcDbArc
 50
46.39718102728327
 51
133.6028189726979
  0
LINE
  5
23D
330
81
100
AcDbEntity
  8
MD_可視
100
AcDbLine
 10
116.0191579843927
 20
87.10062977544657
 30
0.000000000001819
 11
117.0965024663158
 21
87.10062977544657
 31
0.000000000001819
210
-1.0
220
-0.0000000000000002
230
0.0
  0
LINE
  5
23E
330
81
100
AcDbEntity
  8
MD_可視
100
AcDbLine
 10
118.0965024663159
 20
87.10062977544657
 30
0.000000000001819
 11
119.2691579843927
 21
87.10062977544657
 31
0.000000000001819
210
-1.0
220
-0.0000000000000002
230
0.0
  0
LINE
  5
23F
330
81
100
AcDbEntity
  8
MD_可視
100
AcDbLine
 10
115.4241579843926
 20
74.22758906347735
 30
0.000000000001819
 11
116.0491579843927
 21
74.22758906347735
 31
0.000000000001819
210
-1.0
220
-0.0000000000000002
230
0.0
  0
LINE
  5
240
330
81
100
AcDbEntity
  8
MD_可視
100
AcDbLine
 10
119.2391579843927
 20
74.22758906347735
 30
0.000000000001819
 11
119.8641579843926
 21
74.22758906347735
 31
0.000000000001819
210
-1.0
220
-0.0000000000000002
230
0.0
  0
LINE
  5
241
330
81
100
AcDbEntity
  8
MD_可視
100
AcDbLine
 10
119.3088904648216
 20
77.10560920240459
 30
0.000000000001819
 11
119.3088904648216
 21
77.79373068024142
 31
0.000000000001819
210
-1.0
220
-0.0000000000000002
230
0.0
  0
LINE
  5
242
330
81
100
AcDbEntity
  8
MD_可視
100
AcDbLine
 10
119.3088904648216
 20
76.95560920240495
 30
0.000000000001819
 11
119.3088904648216
 21
77.10560920240459
 31
0.000000000001819
210
-1.0
220
-0.0000000000000002
230
0.0
  0
LINE
  5
243
330
81
100
AcDbEntity
  8
MD_可視
100
AcDbLine
 10
119.3088904648216
 20
76.95560920240495
 30
0.000000000001819
 11
119.3088904648216
 21
76.45560920240495
 31
0.000000000001819
210
-1.0
220
-0.0000000000000002
230
0.0
  0
LINE
  5
244
330
81
100
AcDbEntity
  8
MD_可視
100
AcDbLine
 10
119.3088904648216
 20
76.30560920240532
 30
0.000000000001819
 11
119.3088904648216
 21
76.45560920240495
 31
0.000000000001819
210
-1.0
220
-0.0000000000000002
230
0.0
  0
LINE
  5
245
330
81
100
AcDbEntity
  8
MD_可視
100
AcDbLine
 10
119.3088904648216
 20
76.3056092024035
 30
0.000000000001819
 11
119.3088904648216
 21
75.50560920240423
 31
0.000000000001819
210
-1.0
220
-0.0000000000000002
230
0.0
  0
LINE
  5
246
330
81
100
AcDbEntity
  8
MD_可視
100
AcDbLine
 10
119.3088904648216
 20
75.30078295544808
 30
0.000000000001819
 11
119.3088904648216
 21
75.50560920240423
 31
0.000000000001819
210
-1.0
220
-0.0000000000000002
230
0.0
  0
LINE
  5
247
330
81
100
AcDbEntity
  8
MD_可視
100
AcDbLine
 10
119.3088904648216
 20
75.30078295544808
 30
0.000000000001819
 11
119.3088904648216
 21
75.00560920240423
 31
0.000000000001819
210
-1.0
220
-0.0000000000000002
230
0.0
  0
LINE
  5
248
330
81
100
AcDbEntity
  8
MD_可視
100
AcDbLine
 10
118.9588904648217
 20
75.00560920240423
 30
0.000000000001819
 11
118.9588904648217
 21
75.30078295544808
 31
0.000000000001819
210
-1.0
220
-0.0000000000000002
230
0.0
  0
LINE
  5
249
330
81
100
AcDbEntity
  8
MD_可視
100
AcDbLine
 10
118.9588904648217
 20
75.50560920240423
 30
0.000000000001819
 11
118.9588904648217
 21
75.30078295544808
 31
0.000000000001819
210
-1.0
220
-0.0000000000000002
230
0.0
  0
LINE
  5
24A
330
81
100
AcDbEntity
  8
MD_可視
100
AcDbLine
 10
118.9588904648217
 20
75.50560920240423
 30
0.000000000001819
 11
118.9588904648217
 21
76.3056092024035
 31
0.000000000001819
210
-1.0
220
-0.0000000000000002
230
0.0
  0
LINE
  5
24B
330
81
100
AcDbEntity
  8
MD_可視
100
AcDbLine
 10
118.9588904648217
 20
76.45560920240495
 30
0.000000000001819
 11
118.9588904648217
 21
76.30560920240532
 31
0.000000000001819
210
-1.0
220
-0.0000000000000002
230
0.0
  0
LINE
  5
24C
330
81
100
AcDbEntity
  8
MD_可視
100
AcDbLine
 10
118.9588904648217
 20
76.45560920240495
 30
0.000000000001819
 11
118.9588904648217
 21
76.95560920240495
 31
0.000000000001819
210
-1.0
220
-0.0000000000000002
230
0.0
  0
LINE
  5
24D
330
81
100
AcDbEntity
  8
MD_可視
100
AcDbLine
 10
118.9588904648217
 20
77.09905648272251
 30
0.000000000001819
 11
118.9588904648217
 21
76.95560920240495
 31
0.000000000001819
210
-1.0
220
-0.0000000000000002
230
0.0
  0
LINE
  5
24E
330
81
100
AcDbEntity
  8
MD_可視
100
AcDbLine
 10
118.9612754597396
 20
77.10560920240459
 30
0.000000000001819
 11
119.3088904648216
 21
77.10560920240459
 31
0.000000000001819
210
-1.0
220
-0.0000000000000002
230
0.0
  0
LINE
  5
24F
330
81
100
AcDbEntity
  8
MD_狭い可視
100
AcDbLine
 10
118.9588904648217
 20
76.95560920240495
 30
0.000000000001819
 11
119.3088904648216
 21
76.95560920240495
 31
0.000000000001819
210
-1.0
220
-0.0000000000000002
230
0.0
  0
LINE
  5
250
330
81
100
AcDbEntity
  8
MD_狭い可視
100
AcDbLine
 10
118.9588904648217
 20
76.45560920240495
 30
0.000000000001819
 11
119.3088904648216
 21
76.45560920240495
 31
0.000000000001819
210
-1.0
220
-0.0000000000000002
230
0.0
  0
LINE
  5
251
330
81
100
AcDbEntity
  8
MD_可視
100
AcDbLine
 10
118.9588904648217
 20
76.3056092024035
 30
0.000000000001819
 11
119.3088904648216
 21
76.3056092024035
 31
0.000000000001819
210
-1.0
220
-0.0000000000000002
230
0.0
  0
LINE
  5
252
330
81
100
AcDbEntity
  8
MD_可視
100
AcDbLine
 10
118.9588904648217
 20
75.50560920240423
 30
0.000000000001819
 11
119.3088904648216
 21
75.50560920240423
 31
0.000000000001819
210
-1.0
220
-0.0000000000000002
230
0.0
  0
LINE
  5
253
330
81
100
AcDbEntity
  8
MD_狭い可視
100
AcDbLine
 10
118.9588904648217
 20
75.30078295544808
 30
0.000000000001819
 11
119.3088904648216
 21
75.30078295544808
 31
0.000000000001819
210
-1.0
220
-0.0000000000000002
230
0.0
  0
LINE
  5
254
330
81
100
AcDbEntity
  8
MD_可視
100
AcDbLine
 10
118.9588904648217
 20
75.00560920240423
 30
0.000000000001819
 11
119.3088904648216
 21
75.00560920240423
 31
0.000000000001819
210
-1.0
220
-0.0000000000000002
230
0.0
  0
LINE
  5
255
330
81
100
AcDbEntity
  8
MD_可視
100
AcDbLine
 10
118.2888904648216
 20
77.10560920240459
 30
0.000000000001819
 11
118.2888904648216
 21
77.79373068024142
 31
0.000000000001819
210
-1.0
220
-0.0000000000000002
230
0.0
  0
LINE
  5
256
330
81
100
AcDbEntity
  8
MD_可視
100
AcDbLine
 10
118.2888904648216
 20
76.95560920240495
 30
0.000000000001819
 11
118.2888904648216
 21
77.10560920240459
 31
0.000000000001819
210
-1.0
220
-0.0000000000000002
230
0.0
  0
LINE
  5
257
330
81
100
AcDbEntity
  8
MD_可視
100
AcDbLine
 10
118.2888904648216
 20
76.95560920240495
 30
0.000000000001819
 11
118.2888904648216
 21
76.45560920240495
 31
0.000000000001819
210
-1.0
220
-0.0000000000000002
230
0.0
  0
LINE
  5
258
330
81
100
AcDbEntity
  8
MD_可視
100
AcDbLine
 10
118.2888904648216
 20
76.30560920240532
 30
0.000000000001819
 11
118.2888904648216
 21
76.45560920240495
 31
0.000000000001819
210
-1.0
220
-0.0000000000000002
230
0.0
  0
LINE
  5
259
330
81
100
AcDbEntity
  8
MD_可視
100
AcDbLine
 10
118.2888904648216
 20
76.3056092024035
 30
0.000000000001819
 11
118.2888904648216
 21
75.50560920240423
 31
0.000000000001819
210
-1.0
220
-0.0000000000000002
230
0.0
  0
LINE
  5
25A
330
81
100
AcDbEntity
  8
MD_可視
100
AcDbLine
 10
118.2888904648216
 20
75.30078295544808
 30
0.000000000001819
 11
118.2888904648216
 21
75.50560920240423
 31
0.000000000001819
210
-1.0
220
-0.0000000000000002
230
0.0
  0
LINE
  5
25B
330
81
100
AcDbEntity
  8
MD_可視
100
AcDbLine
 10
118.2888904648216
 20
75.30078295544808
 30
0.000000000001819
 11
118.2888904648216
 21
75.00560920240423
 31
0.000000000001819
210
-1.0
220
-0.0000000000000002
230
0.0
  0
LINE
  5
25C
330
81
100
AcDbEntity
  8
MD_可視
100
AcDbLine
 10
117.9388904648217
 20
75.00560920240423
 30
0.000000000001819
 11
117.9388904648217
 21
75.30078295544808
 31
0.000000000001819
210
-1.0
220
-0.0000000000000002
230
0.0
  0
LINE
  5
25D
330
81
100
AcDbEntity
  8
MD_可視
100
AcDbLine
 10
117.9388904648217
 20
75.50560920240423
 30
0.000000000001819
 11
117.9388904648217
 21
75.30078295544808
 31
0.000000000001819
210
-1.0
220
-0.0000000000000002
230
0.0
  0
LINE
  5
25E
330
81
100
AcDbEntity
  8
MD_可視
100
AcDbLine
 10
117.9388904648217
 20
75.50560920240423
 30
0.000000000001819
 11
117.9388904648217
 21
76.3056092024035
 31
0.000000000001819
210
-1.0
220
-0.0000000000000002
230
0.0
  0
LINE
  5
25F
330
81
100
AcDbEntity
  8
MD_可視
100
AcDbLine
 10
117.9388904648217
 20
76.45560920240495
 30
0.000000000001819
 11
117.9388904648217
 21
76.30560920240532
 31
0.000000000001819
210
-1.0
220
-0.0000000000000002
230
0.0
  0
LINE
  5
260
330
81
100
AcDbEntity
  8
MD_可視
100
AcDbLine
 10
117.9388904648217
 20
76.45560920240495
 30
0.000000000001819
 11
117.9388904648217
 21
76.95560920240495
 31
0.000000000001819
210
-1.0
220
-0.0000000000000002
230
0.0
  0
LINE
  5
261
330
81
100
AcDbEntity
  8
MD_可視
100
AcDbLine
 10
117.9388904648217
 20
77.09905648272251
 30
0.000000000001819
 11
117.9388904648217
 21
76.95560920240495
 31
0.000000000001819
210
-1.0
220
-0.0000000000000002
230
0.0
  0
LINE
  5
262
330
81
100
AcDbEntity
  8
MD_可視
100
AcDbLine
 10
117.9412754597396
 20
77.10560920240459
 30
0.000000000001819
 11
118.2888904648216
 21
77.10560920240459
 31
0.000000000001819
210
-1.0
220
-0.0000000000000002
230
0.0
  0
LINE
  5
263
330
81
100
AcDbEntity
  8
MD_狭い可視
100
AcDbLine
 10
117.9388904648217
 20
76.95560920240495
 30
0.000000000001819
 11
118.2888904648216
 21
76.95560920240495
 31
0.000000000001819
210
-1.0
220
-0.0000000000000002
230
0.0
  0
LINE
  5
264
330
81
100
AcDbEntity
  8
MD_狭い可視
100
AcDbLine
 10
117.9388904648217
 20
76.45560920240495
 30
0.000000000001819
 11
118.2888904648216
 21
76.45560920240495
 31
0.000000000001819
210
-1.0
220
-0.0000000000000002
230
0.0
  0
LINE
  5
265
330
81
100
AcDbEntity
  8
MD_可視
100
AcDbLine
 10
117.9388904648217
 20
76.3056092024035
 30
0.000000000001819
 11
118.2888904648216
 21
76.3056092024035
 31
0.000000000001819
210
-1.0
220
-0.0000000000000002
230
0.0
  0
LINE
  5
266
330
81
100
AcDbEntity
  8
MD_可視
100
AcDbLine
 10
117.9388904648217
 20
75.50560920240423
 30
0.000000000001819
 11
118.2888904648216
 21
75.50560920240423
 31
0.000000000001819
210
-1.0
220
-0.0000000000000002
230
0.0
  0
LINE
  5
267
330
81
100
AcDbEntity
  8
MD_狭い可視
100
AcDbLine
 10
117.9388904648217
 20
75.30078295544808
 30
0.000000000001819
 11
118.2888904648216
 21
75.30078295544808
 31
0.000000000001819
210
-1.0
220
-0.0000000000000002
230
0.0
  0
LINE
  5
268
330
81
100
AcDbEntity
  8
MD_可視
100
AcDbLine
 10
117.9388904648217
 20
75.00560920240423
 30
0.000000000001819
 11
118.2888904648216
 21
75.00560920240423
 31
0.000000000001819
210
-1.0
220
-0.0000000000000002
230
0.0
  0
LINE
  5
269
330
81
100
AcDbEntity
  8
MD_可視
100
AcDbLine
 10
117.2688904648216
 20
77.10560920240459
 30
0.000000000001819
 11
117.2688904648216
 21
77.79373068024142
 31
0.000000000001819
210
-1.0
220
-0.0000000000000002
230
0.0
  0
LINE
  5
26A
330
81
100
AcDbEntity
  8
MD_可視
100
AcDbLine
 10
117.2688904648216
 20
76.95560920240495
 30
0.000000000001819
 11
117.2688904648216
 21
77.10560920240459
 31
0.000000000001819
210
-1.0
220
-0.0000000000000002
230
0.0
  0
LINE
  5
26B
330
81
100
AcDbEntity
  8
MD_可視
100
AcDbLine
 10
117.2688904648216
 20
76.95560920240495
 30
0.000000000001819
 11
117.2688904648216
 21
76.45560920240495
 31
0.000000000001819
210
-1.0
220
-0.0000000000000002
230
0.0
  0
LINE
  5
26C
330
81
100
AcDbEntity
  8
MD_可視
100
AcDbLine
 10
117.2688904648216
 20
76.30560920240532
 30
0.000000000001819
 11
117.2688904648216
 21
76.45560920240495
 31
0.000000000001819
210
-1.0
220
-0.0000000000000002
230
0.0
  0
LINE
  5
26D
330
81
100
AcDbEntity
  8
MD_可視
100
AcDbLine
 10
117.2688904648216
 20
76.3056092024035
 30
0.000000000001819
 11
117.2688904648216
 21
75.50560920240423
 31
0.000000000001819
210
-1.0
220
-0.0000000000000002
230
0.0
  0
LINE
  5
26E
330
81
100
AcDbEntity
  8
MD_可視
100
AcDbLine
 10
117.2688904648216
 20
75.30078295544808
 30
0.000000000001819
 11
117.2688904648216
 21
75.50560920240423
 31
0.000000000001819
210
-1.0
220
-0.0000000000000002
230
0.0
  0
LINE
  5
26F
330
81
100
AcDbEntity
  8
MD_可視
100
AcDbLine
 10
117.2688904648216
 20
75.30078295544808
 30
0.000000000001819
 11
117.2688904648216
 21
75.00560920240423
 31
0.000000000001819
210
-1.0
220
-0.0000000000000002
230
0.0
  0
LINE
  5
270
330
81
100
AcDbEntity
  8
MD_可視
100
AcDbLine
 10
116.9188904648216
 20
75.00560920240423
 30
0.000000000001819
 11
116.9188904648216
 21
75.30078295544808
 31
0.000000000001819
210
-1.0
220
-0.0000000000000002
230
0.0
  0
LINE
  5
271
330
81
100
AcDbEntity
  8
MD_可視
100
AcDbLine
 10
116.9188904648216
 20
75.50560920240423
 30
0.000000000001819
 11
116.9188904648216
 21
75.30078295544808
 31
0.000000000001819
210
-1.0
220
-0.0000000000000002
230
0.0
  0
LINE
  5
272
330
81
100
AcDbEntity
  8
MD_可視
100
AcDbLine
 10
116.9188904648216
 20
75.50560920240423
 30
0.000000000001819
 11
116.9188904648216
 21
76.3056092024035
 31
0.000000000001819
210
-1.0
220
-0.0000000000000002
230
0.0
  0
LINE
  5
273
330
81
100
AcDbEntity
  8
MD_可視
100
AcDbLine
 10
116.9188904648216
 20
76.45560920240495
 30
0.000000000001819
 11
116.9188904648216
 21
76.30560920240532
 31
0.000000000001819
210
-1.0
220
-0.0000000000000002
230
0.0
  0
LINE
  5
274
330
81
100
AcDbEntity
  8
MD_可視
100
AcDbLine
 10
116.9188904648216
 20
76.45560920240495
 30
0.000000000001819
 11
116.9188904648216
 21
76.95560920240495
 31
0.000000000001819
210
-1.0
220
-0.0000000000000002
230
0.0
  0
LINE
  5
275
330
81
100
AcDbEntity
  8
MD_可視
100
AcDbLine
 10
116.9188904648216
 20
77.09905648272251
 30
0.000000000001819
 11
116.9188904648216
 21
76.95560920240495
 31
0.000000000001819
210
-1.0
220
-0.0000000000000002
230
0.0
  0
LINE
  5
276
330
81
100
AcDbEntity
  8
MD_可視
100
AcDbLine
 10
116.9212754597396
 20
77.10560920240459
 30
0.000000000001819
 11
117.2688904648216
 21
77.10560920240459
 31
0.000000000001819
210
-1.0
220
-0.0000000000000002
230
0.0
  0
LINE
  5
277
330
81
100
AcDbEntity
  8
MD_狭い可視
100
AcDbLine
 10
116.9188904648216
 20
76.95560920240495
 30
0.000000000001819
 11
117.2688904648216
 21
76.95560920240495
 31
0.000000000001819
210
-1.0
220
-0.0000000000000002
230
0.0
  0
LINE
  5
278
330
81
100
AcDbEntity
  8
MD_狭い可視
100
AcDbLine
 10
116.9188904648216
 20
76.45560920240495
 30
0.000000000001819
 11
117.2688904648216
 21
76.45560920240495
 31
0.000000000001819
210
-1.0
220
-0.0000000000000002
230
0.0
  0
LINE
  5
279
330
81
100
AcDbEntity
  8
MD_可視
100
AcDbLine
 10
116.9188904648216
 20
76.3056092024035
 30
0.000000000001819
 11
117.2688904648216
 21
76.3056092024035
 31
0.000000000001819
210
-1.0
220
-0.0000000000000002
230
0.0
  0
LINE
  5
27A
330
81
100
AcDbEntity
  8
MD_可視
100
AcDbLine
 10
116.9188904648216
 20
75.50560920240423
 30
0.000000000001819
 11
117.2688904648216
 21
75.50560920240423
 31
0.000000000001819
210
-1.0
220
-0.0000000000000002
230
0.0
  0
LINE
  5
27B
330
81
100
AcDbEntity
  8
MD_狭い可視
100
AcDbLine
 10
116.9188904648216
 20
75.30078295544808
 30
0.000000000001819
 11
117.2688904648216
 21
75.30078295544808
 31
0.000000000001819
210
-1.0
220
-0.0000000000000002
230
0.0
  0
LINE
  5
27C
330
81
100
AcDbEntity
  8
MD_可視
100
AcDbLine
 10
116.9188904648216
 20
75.00560920240423
 30
0.000000000001819
 11
117.2688904648216
 21
75.00560920240423
 31
0.000000000001819
210
-1.0
220
-0.0000000000000002
230
0.0
  0
LINE
  5
27D
330
81
100
AcDbEntity
  8
MD_可視
100
AcDbLine
 10
121.3488904648217
 20
77.10560920240459
 30
0.000000000001819
 11
121.3488904648217
 21
77.79373068024142
 31
0.000000000001819
210
-1.0
220
-0.0000000000000002
230
0.0
  0
LINE
  5
27E
330
81
100
AcDbEntity
  8
MD_可視
100
AcDbLine
 10
121.3488904648217
 20
76.95560920240495
 30
0.000000000001819
 11
121.3488904648217
 21
77.10560920240459
 31
0.000000000001819
210
-1.0
220
-0.0000000000000002
230
0.0
  0
LINE
  5
27F
330
81
100
AcDbEntity
  8
MD_可視
100
AcDbLine
 10
121.3488904648217
 20
76.95560920240495
 30
0.000000000001819
 11
121.3488904648217
 21
76.45560920240495
 31
0.000000000001819
210
-1.0
220
-0.0000000000000002
230
0.0
  0
LINE
  5
280
330
81
100
AcDbEntity
  8
MD_可視
100
AcDbLine
 10
121.3488904648217
 20
76.30560920240532
 30
0.000000000001819
 11
121.3488904648217
 21
76.45560920240495
 31
0.000000000001819
210
-1.0
220
-0.0000000000000002
230
0.0
  0
LINE
  5
281
330
81
100
AcDbEntity
  8
MD_可視
100
AcDbLine
 10
121.3488904648217
 20
76.3056092024035
 30
0.000000000001819
 11
121.3488904648217
 21
75.50560920240423
 31
0.000000000001819
210
-1.0
220
-0.0000000000000002
230
0.0
  0
LINE
  5
282
330
81
100
AcDbEntity
  8
MD_可視
100
AcDbLine
 10
121.3488904648217
 20
75.30078295544808
 30
0.000000000001819
 11
121.3488904648217
 21
75.50560920240423
 31
0.000000000001819
210
-1.0
220
-0.0000000000000002
230
0.0
  0
LINE
  5
283
330
81
100
AcDbEntity
  8
MD_可視
100
AcDbLine
 10
121.3488904648217
 20
75.30078295544808
 30
0.000000000001819
 11
121.3488904648217
 21
75.00560920240423
 31
0.000000000001819
210
-1.0
220
-0.0000000000000002
230
0.0
  0
LINE
  5
284
330
81
100
AcDbEntity
  8
MD_可視
100
AcDbLine
 10
120.9988904648217
 20
75.00560920240423
 30
0.000000000001819
 11
120.9988904648217
 21
75.30078295544808
 31
0.000000000001819
210
-1.0
220
-0.0000000000000002
230
0.0
  0
LINE
  5
285
330
81
100
AcDbEntity
  8
MD_可視
100
AcDbLine
 10
120.9988904648217
 20
75.50560920240423
 30
0.000000000001819
 11
120.9988904648217
 21
75.30078295544808
 31
0.000000000001819
210
-1.0
220
-0.0000000000000002
230
0.0
  0
LINE
  5
286
330
81
100
AcDbEntity
  8
MD_可視
100
AcDbLine
 10
120.9988904648217
 20
75.50560920240423
 30
0.000000000001819
 11
120.9988904648217
 21
76.3056092024035
 31
0.000000000001819
210
-1.0
220
-0.0000000000000002
230
0.0
  0
LINE
  5
287
330
81
100
AcDbEntity
  8
MD_可視
100
AcDbLine
 10
120.9988904648217
 20
76.45560920240495
 30
0.000000000001819
 11
120.9988904648217
 21
76.30560920240532
 31
0.000000000001819
210
-1.0
220
-0.0000000000000002
230
0.0
  0
LINE
  5
288
330
81
100
AcDbEntity
  8
MD_可視
100
AcDbLine
 10
120.9988904648217
 20
76.45560920240495
 30
0.000000000001819
 11
120.9988904648217
 21
76.95560920240495
 31
0.000000000001819
210
-1.0
220
-0.0000000000000002
230
0.0
  0
LINE
  5
289
330
81
100
AcDbEntity
  8
MD_可視
100
AcDbLine
 10
120.9988904648217
 20
77.09905648272251
 30
0.000000000001819
 11
120.9988904648217
 21
76.95560920240495
 31
0.000000000001819
210
-1.0
220
-0.0000000000000002
230
0.0
  0
LINE
  5
28A
330
81
100
AcDbEntity
  8
MD_可視
100
AcDbLine
 10
121.0012754597396
 20
77.10560920240459
 30
0.000000000001819
 11
121.3488904648217
 21
77.10560920240459
 31
0.000000000001819
210
-1.0
220
-0.0000000000000002
230
0.0
  0
LINE
  5
28B
330
81
100
AcDbEntity
  8
MD_狭い可視
100
AcDbLine
 10
120.9988904648217
 20
76.95560920240495
 30
0.000000000001819
 11
121.3488904648217
 21
76.95560920240495
 31
0.000000000001819
210
-1.0
220
-0.0000000000000002
230
0.0
  0
LINE
  5
28C
330
81
100
AcDbEntity
  8
MD_狭い可視
100
AcDbLine
 10
120.9988904648217
 20
76.45560920240495
 30
0.000000000001819
 11
121.3488904648217
 21
76.45560920240495
 31
0.000000000001819
210
-1.0
220
-0.0000000000000002
230
0.0
  0
LINE
  5
28D
330
81
100
AcDbEntity
  8
MD_可視
100
AcDbLine
 10
120.9988904648217
 20
76.3056092024035
 30
0.000000000001819
 11
121.3488904648217
 21
76.3056092024035
 31
0.000000000001819
210
-1.0
220
-0.0000000000000002
230
0.0
  0
LINE
  5
28E
330
81
100
AcDbEntity
  8
MD_可視
100
AcDbLine
 10
120.9988904648217
 20
75.50560920240423
 30
0.000000000001819
 11
121.3488904648217
 21
75.50560920240423
 31
0.000000000001819
210
-1.0
220
-0.0000000000000002
230
0.0
  0
LINE
  5
28F
330
81
100
AcDbEntity
  8
MD_狭い可視
100
AcDbLine
 10
120.9988904648217
 20
75.30078295544808
 30
0.000000000001819
 11
121.3488904648217
 21
75.30078295544808
 31
0.000000000001819
210
-1.0
220
-0.0000000000000002
230
0.0
  0
LINE
  5
290
330
81
100
AcDbEntity
  8
MD_可視
100
AcDbLine
 10
120.9988904648217
 20
75.00560920240423
 30
0.000000000001819
 11
121.3488904648217
 21
75.00560920240423
 31
0.000000000001819
210
-1.0
220
-0.0000000000000002
230
0.0
  0
LINE
  5
291
330
81
100
AcDbEntity
  8
MD_可視
100
AcDbLine
 10
115.2288904648216
 20
77.10560920240459
 30
0.000000000001819
 11
115.2288904648216
 21
77.79373068024142
 31
0.000000000001819
210
-1.0
220
-0.0000000000000002
230
0.0
  0
LINE
  5
292
330
81
100
AcDbEntity
  8
MD_可視
100
AcDbLine
 10
115.2288904648216
 20
76.95560920240495
 30
0.000000000001819
 11
115.2288904648216
 21
77.10560920240459
 31
0.000000000001819
210
-1.0
220
-0.0000000000000002
230
0.0
  0
LINE
  5
293
330
81
100
AcDbEntity
  8
MD_可視
100
AcDbLine
 10
115.2288904648216
 20
76.95560920240495
 30
0.000000000001819
 11
115.2288904648216
 21
76.45560920240495
 31
0.000000000001819
210
-1.0
220
-0.0000000000000002
230
0.0
  0
LINE
  5
294
330
81
100
AcDbEntity
  8
MD_可視
100
AcDbLine
 10
115.2288904648216
 20
76.30560920240532
 30
0.000000000001819
 11
115.2288904648216
 21
76.45560920240495
 31
0.000000000001819
210
-1.0
220
-0.0000000000000002
230
0.0
  0
LINE
  5
295
330
81
100
AcDbEntity
  8
MD_可視
100
AcDbLine
 10
115.2288904648216
 20
76.3056092024035
 30
0.000000000001819
 11
115.2288904648216
 21
75.50560920240423
 31
0.000000000001819
210
-1.0
220
-0.0000000000000002
230
0.0
  0
LINE
  5
296
330
81
100
AcDbEntity
  8
MD_可視
100
AcDbLine
 10
115.2288904648216
 20
75.30078295544808
 30
0.000000000001819
 11
115.2288904648216
 21
75.50560920240423
 31
0.000000000001819
210
-1.0
220
-0.0000000000000002
230
0.0
  0
LINE
  5
297
330
81
100
AcDbEntity
  8
MD_可視
100
AcDbLine
 10
115.2288904648216
 20
75.30078295544808
 30
0.000000000001819
 11
115.2288904648216
 21
75.00560920240423
 31
0.000000000001819
210
-1.0
220
-0.0000000000000002
230
0.0
  0
LINE
  5
298
330
81
100
AcDbEntity
  8
MD_可視
100
AcDbLine
 10
114.8788904648217
 20
75.00560920240423
 30
0.000000000001819
 11
114.8788904648217
 21
75.30078295544808
 31
0.000000000001819
210
-1.0
220
-0.0000000000000002
230
0.0
  0
LINE
  5
299
330
81
100
AcDbEntity
  8
MD_可視
100
AcDbLine
 10
114.8788904648217
 20
75.50560920240423
 30
0.000000000001819
 11
114.8788904648217
 21
75.30078295544808
 31
0.000000000001819
210
-1.0
220
-0.0000000000000002
230
0.0
  0
LINE
  5
29A
330
81
100
AcDbEntity
  8
MD_可視
100
AcDbLine
 10
114.8788904648217
 20
75.50560920240423
 30
0.000000000001819
 11
114.8788904648217
 21
76.3056092024035
 31
0.000000000001819
210
-1.0
220
-0.0000000000000002
230
0.0
  0
LINE
  5
29B
330
81
100
AcDbEntity
  8
MD_可視
100
AcDbLine
 10
114.8788904648217
 20
76.45560920240495
 30
0.000000000001819
 11
114.8788904648217
 21
76.30560920240532
 31
0.000000000001819
210
-1.0
220
-0.0000000000000002
230
0.0
  0
LINE
  5
29C
330
81
100
AcDbEntity
  8
MD_可視
100
AcDbLine
 10
114.8788904648217
 20
76.45560920240495
 30
0.000000000001819
 11
114.8788904648217
 21
76.95560920240495
 31
0.000000000001819
210
-1.0
220
-0.0000000000000002
230
0.0
  0
LINE
  5
29D
330
81
100
AcDbEntity
  8
MD_可視
100
AcDbLine
 10
114.8788904648217
 20
77.09905648272251
 30
0.000000000001819
 11
114.8788904648217
 21
76.95560920240495
 31
0.000000000001819
210
-1.0
220
-0.0000000000000002
230
0.0
  0
LINE
  5
29E
330
81
100
AcDbEntity
  8
MD_可視
100
AcDbLine
 10
114.8812754597396
 20
77.10560920240459
 30
0.000000000001819
 11
115.2288904648216
 21
77.10560920240459
 31
0.000000000001819
210
-1.0
220
-0.0000000000000002
230
0.0
  0
LINE
  5
29F
330
81
100
AcDbEntity
  8
MD_狭い可視
100
AcDbLine
 10
114.8788904648217
 20
76.95560920240495
 30
0.000000000001819
 11
115.2288904648216
 21
76.95560920240495
 31
0.000000000001819
210
-1.0
220
-0.0000000000000002
230
0.0
  0
LINE
  5
2A0
330
81
100
AcDbEntity
  8
MD_狭い可視
100
AcDbLine
 10
114.8788904648217
 20
76.45560920240495
 30
0.000000000001819
 11
115.2288904648216
 21
76.45560920240495
 31
0.000000000001819
210
-1.0
220
-0.0000000000000002
230
0.0
  0
LINE
  5
2A1
330
81
100
AcDbEntity
  8
MD_可視
100
AcDbLine
 10
114.8788904648217
 20
76.3056092024035
 30
0.000000000001819
 11
115.2288904648216
 21
76.3056092024035
 31
0.000000000001819
210
-1.0
220
-0.0000000000000002
230
0.0
  0
LINE
  5
2A2
330
81
100
AcDbEntity
  8
MD_可視
100
AcDbLine
 10
114.8788904648217
 20
75.50560920240423
 30
0.000000000001819
 11
115.2288904648216
 21
75.50560920240423
 31
0.000000000001819
210
-1.0
220
-0.0000000000000002
230
0.0
  0
LINE
  5
2A3
330
81
100
AcDbEntity
  8
MD_狭い可視
100
AcDbLine
 10
114.8788904648217
 20
75.30078295544808
 30
0.000000000001819
 11
115.2288904648216
 21
75.30078295544808
 31
0.000000000001819
210
-1.0
220
-0.0000000000000002
230
0.0
  0
LINE
  5
2A4
330
81
100
AcDbEntity
  8
MD_可視
100
AcDbLine
 10
114.8788904648217
 20
75.00560920240423
 30
0.000000000001819
 11
115.2288904648216
 21
75.00560920240423
 31
0.000000000001819
210
-1.0
220
-0.0000000000000002
230
0.0
  0
LINE
  5
2A5
330
81
100
AcDbEntity
  8
MD_可視
100
AcDbLine
 10
120.3288904648217
 20
77.10560920240459
 30
0.000000000001819
 11
120.3288904648217
 21
77.45560920573734
 31
0.000000000001819
210
-1.0
220
-0.0000000000000002
230
0.0
  0
LINE
  5
2A6
330
81
100
AcDbEntity
  8
MD_可視
100
AcDbLine
 10
120.3288904648217
 20
76.95560920240495
 30
0.000000000001819
 11
120.3288904648217
 21
77.10560920240459
 31
0.000000000001819
210
-1.0
220
-0.0000000000000002
230
0.0
  0
LINE
  5
2A7
330
81
100
AcDbEntity
  8
MD_可視
100
AcDbLine
 10
120.3288904648217
 20
76.95560920240495
 30
0.000000000001819
 11
120.3288904648217
 21
76.45560920240495
 31
0.000000000001819
210
-1.0
220
-0.0000000000000002
230
0.0
  0
LINE
  5
2A8
330
81
100
AcDbEntity
  8
MD_可視
100
AcDbLine
 10
120.3288904648217
 20
76.30560920240532
 30
0.000000000001819
 11
120.3288904648217
 21
76.45560920240495
 31
0.000000000001819
210
-1.0
220
-0.0000000000000002
230
0.0
  0
LINE
  5
2A9
330
81
100
AcDbEntity
  8
MD_可視
100
AcDbLine
 10
120.3288904648217
 20
76.3056092024035
 30
0.000000000001819
 11
120.3288904648217
 21
75.50560920240423
 31
0.000000000001819
210
-1.0
220
-0.0000000000000002
230
0.0
  0
LINE
  5
2AA
330
81
100
AcDbEntity
  8
MD_可視
100
AcDbLine
 10
120.3288904648217
 20
75.30078295544808
 30
0.000000000001819
 11
120.3288904648217
 21
75.50560920240423
 31
0.000000000001819
210
-1.0
220
-0.0000000000000002
230
0.0
  0
LINE
  5
2AB
330
81
100
AcDbEntity
  8
MD_可視
100
AcDbLine
 10
120.3288904648217
 20
75.30078295544808
 30
0.000000000001819
 11
120.3288904648217
 21
75.00560920240423
 31
0.000000000001819
210
-1.0
220
-0.0000000000000002
230
0.0
  0
LINE
  5
2AC
330
81
100
AcDbEntity
  8
MD_可視
100
AcDbLine
 10
119.9788904648217
 20
75.00560920240423
 30
0.000000000001819
 11
119.9788904648217
 21
75.30078295544808
 31
0.000000000001819
210
-1.0
220
-0.0000000000000002
230
0.0
  0
LINE
  5
2AD
330
81
100
AcDbEntity
  8
MD_可視
100
AcDbLine
 10
119.9788904648217
 20
75.50560920240423
 30
0.000000000001819
 11
119.9788904648217
 21
75.30078295544808
 31
0.000000000001819
210
-1.0
220
-0.0000000000000002
230
0.0
  0
LINE
  5
2AE
330
81
100
AcDbEntity
  8
MD_可視
100
AcDbLine
 10
119.9788904648217
 20
75.50560920240423
 30
0.000000000001819
 11
119.9788904648217
 21
76.3056092024035
 31
0.000000000001819
210
-1.0
220
-0.0000000000000002
230
0.0
  0
LINE
  5
2AF
330
81
100
AcDbEntity
  8
MD_可視
100
AcDbLine
 10
119.9788904648217
 20
76.45560920240495
 30
0.000000000001819
 11
119.9788904648217
 21
76.30560920240532
 31
0.000000000001819
210
-1.0
220
-0.0000000000000002
230
0.0
  0
LINE
  5
2B0
330
81
100
AcDbEntity
  8
MD_可視
100
AcDbLine
 10
119.9788904648217
 20
76.45560920240495
 30
0.000000000001819
 11
119.9788904648217
 21
76.95560920240495
 31
0.000000000001819
210
-1.0
220
-0.0000000000000002
230
0.0
  0
LINE
  5
2B1
330
81
100
AcDbEntity
  8
MD_可視
100
AcDbLine
 10
119.9788904648217
 20
77.09905648272251
 30
0.000000000001819
 11
119.9788904648217
 21
76.95560920240495
 31
0.000000000001819
210
-1.0
220
-0.0000000000000002
230
0.0
  0
LINE
  5
2B2
330
81
100
AcDbEntity
  8
MD_可視
100
AcDbLine
 10
120.3541579843927
 20
77.62405933287846
 30
0.000000000001819
 11
120.3288904653189
 21
77.45560920571915
 31
0.000000000001819
210
-1.0
220
-0.0000000000000002
230
0.0
  0
LINE
  5
2B3
330
81
100
AcDbEntity
  8
MD_可視
100
AcDbLine
 10
119.9812754597396
 20
77.10560920240459
 30
0.000000000001819
 11
120.3288904648217
 21
77.10560920240459
 31
0.000000000001819
210
-1.0
220
-0.0000000000000002
230
0.0
  0
LINE
  5
2B4
330
81
100
AcDbEntity
  8
MD_狭い可視
100
AcDbLine
 10
119.9788904648217
 20
76.95560920240495
 30
0.000000000001819
 11
120.3288904648217
 21
76.95560920240495
 31
0.000000000001819
210
-1.0
220
-0.0000000000000002
230
0.0
  0
LINE
  5
2B5
330
81
100
AcDbEntity
  8
MD_狭い可視
100
AcDbLine
 10
119.9788904648217
 20
76.45560920240495
 30
0.000000000001819
 11
120.3288904648217
 21
76.45560920240495
 31
0.000000000001819
210
-1.0
220
-0.0000000000000002
230
0.0
  0
LINE
  5
2B6
330
81
100
AcDbEntity
  8
MD_可視
100
AcDbLine
 10
119.9788904648217
 20
76.3056092024035
 30
0.000000000001819
 11
120.3288904648217
 21
76.3056092024035
 31
0.000000000001819
210
-1.0
220
-0.0000000000000002
230
0.0
  0
LINE
  5
2B7
330
81
100
AcDbEntity
  8
MD_可視
100
AcDbLine
 10
119.9788904648217
 20
75.50560920240423
 30
0.000000000001819
 11
120.3288904648217
 21
75.50560920240423
 31
0.000000000001819
210
-1.0
220
-0.0000000000000002
230
0.0
  0
LINE
  5
2B8
330
81
100
AcDbEntity
  8
MD_狭い可視
100
AcDbLine
 10
119.9788904648217
 20
75.30078295544808
 30
0.000000000001819
 11
120.3288904648217
 21
75.30078295544808
 31
0.000000000001819
210
-1.0
220
-0.0000000000000002
230
0.0
  0
LINE
  5
2B9
330
81
100
AcDbEntity
  8
MD_可視
100
AcDbLine
 10
119.9788904648217
 20
75.00560920240423
 30
0.000000000001819
 11
120.3288904648217
 21
75.00560920240423
 31
0.000000000001819
210
-1.0
220
-0.0000000000000002
230
0.0
  0
LINE
  5
2BA
330
81
100
AcDbEntity
  8
MD_可視
100
AcDbLine
 10
116.2488904648217
 20
77.10560920240459
 30
0.000000000001819
 11
116.2488904648217
 21
77.45560920573734
 31
0.000000000001819
210
-1.0
220
-0.0000000000000002
230
0.0
  0
LINE
  5
2BB
330
81
100
AcDbEntity
  8
MD_可視
100
AcDbLine
 10
116.2488904648217
 20
76.95560920240495
 30
0.000000000001819
 11
116.2488904648217
 21
77.10560920240459
 31
0.000000000001819
210
-1.0
220
-0.0000000000000002
230
0.0
  0
LINE
  5
2BC
330
81
100
AcDbEntity
  8
MD_可視
100
AcDbLine
 10
116.2488904648217
 20
76.95560920240495
 30
0.000000000001819
 11
116.2488904648217
 21
76.45560920240495
 31
0.000000000001819
210
-1.0
220
-0.0000000000000002
230
0.0
  0
LINE
  5
2BD
330
81
100
AcDbEntity
  8
MD_可視
100
AcDbLine
 10
116.2488904648217
 20
76.30560920240532
 30
0.000000000001819
 11
116.2488904648217
 21
76.45560920240495
 31
0.000000000001819
210
-1.0
220
-0.0000000000000002
230
0.0
  0
LINE
  5
2BE
330
81
100
AcDbEntity
  8
MD_可視
100
AcDbLine
 10
116.2488904648217
 20
76.3056092024035
 30
0.000000000001819
 11
116.2488904648217
 21
75.50560920240423
 31
0.000000000001819
210
-1.0
220
-0.0000000000000002
230
0.0
  0
LINE
  5
2BF
330
81
100
AcDbEntity
  8
MD_可視
100
AcDbLine
 10
116.2488904648217
 20
75.30078295544808
 30
0.000000000001819
 11
116.2488904648217
 21
75.50560920240423
 31
0.000000000001819
210
-1.0
220
-0.0000000000000002
230
0.0
  0
LINE
  5
2C0
330
81
100
AcDbEntity
  8
MD_可視
100
AcDbLine
 10
116.2488904648217
 20
75.30078295544808
 30
0.000000000001819
 11
116.2488904648217
 21
75.00560920240423
 31
0.000000000001819
210
-1.0
220
-0.0000000000000002
230
0.0
  0
LINE
  5
2C1
330
81
100
AcDbEntity
  8
MD_可視
100
AcDbLine
 10
115.8988904648216
 20
75.00560920240423
 30
0.000000000001819
 11
115.8988904648216
 21
75.30078295544808
 31
0.000000000001819
210
-1.0
220
-0.0000000000000002
230
0.0
  0
LINE
  5
2C2
330
81
100
AcDbEntity
  8
MD_可視
100
AcDbLine
 10
115.8988904648216
 20
75.50560920240423
 30
0.000000000001819
 11
115.8988904648216
 21
75.30078295544808
 31
0.000000000001819
210
-1.0
220
-0.0000000000000002
230
0.0
  0
LINE
  5
2C3
330
81
100
AcDbEntity
  8
MD_可視
100
AcDbLine
 10
115.8988904648216
 20
75.50560920240423
 30
0.000000000001819
 11
115.8988904648216
 21
76.3056092024035
 31
0.000000000001819
210
-1.0
220
-0.0000000000000002
230
0.0
  0
LINE
  5
2C4
330
81
100
AcDbEntity
  8
MD_可視
100
AcDbLine
 10
115.8988904648216
 20
76.45560920240495
 30
0.000000000001819
 11
115.8988904648216
 21
76.30560920240532
 31
0.000000000001819
210
-1.0
220
-0.0000000000000002
230
0.0
  0
LINE
  5
2C5
330
81
100
AcDbEntity
  8
MD_可視
100
AcDbLine
 10
115.8988904648216
 20
76.45560920240495
 30
0.000000000001819
 11
115.8988904648216
 21
76.95560920240495
 31
0.000000000001819
210
-1.0
220
-0.0000000000000002
230
0.0
  0
LINE
  5
2C6
330
81
100
AcDbEntity
  8
MD_可視
100
AcDbLine
 10
115.8988904648216
 20
77.09905648272251
 30
0.000000000001819
 11
115.8988904648216
 21
76.95560920240495
 31
0.000000000001819
210
-1.0
220
-0.0000000000000002
230
0.0
  0
LINE
  5
2C7
330
81
100
AcDbEntity
  8
MD_可視
100
AcDbLine
 10
116.2741579843927
 20
77.62405933287846
 30
0.000000000001819
 11
116.2488904653189
 21
77.45560920571915
 31
0.000000000001819
210
-1.0
220
-0.0000000000000002
230
0.0
  0
LINE
  5
2C8
330
81
100
AcDbEntity
  8
MD_可視
100
AcDbLine
 10
115.9012754597396
 20
77.10560920240459
 30
0.000000000001819
 11
116.2488904648217
 21
77.10560920240459
 31
0.000000000001819
210
-1.0
220
-0.0000000000000002
230
0.0
  0
LINE
  5
2C9
330
81
100
AcDbEntity
  8
MD_狭い可視
100
AcDbLine
 10
115.8988904648216
 20
76.95560920240495
 30
0.000000000001819
 11
116.2488904648217
 21
76.95560920240495
 31
0.000000000001819
210
-1.0
220
-0.0000000000000002
230
0.0
  0
LINE
  5
2CA
330
81
100
AcDbEntity
  8
MD_狭い可視
100
AcDbLine
 10
115.8988904648216
 20
76.45560920240495
 30
0.000000000001819
 11
116.2488904648217
 21
76.45560920240495
 31
0.000000000001819
210
-1.0
220
-0.0000000000000002
230
0.0
  0
LINE
  5
2CB
330
81
100
AcDbEntity
  8
MD_可視
100
AcDbLine
 10
115.8988904648216
 20
76.3056092024035
 30
0.000000000001819
 11
116.2488904648217
 21
76.3056092024035
 31
0.000000000001819
210
-1.0
220
-0.0000000000000002
230
0.0
  0
LINE
  5
2CC
330
81
100
AcDbEntity
  8
MD_可視
100
AcDbLine
 10
115.8988904648216
 20
75.50560920240423
 30
0.000000000001819
 11
116.2488904648217
 21
75.50560920240423
 31
0.000000000001819
210
-1.0
220
-0.0000000000000002
230
0.0
  0
LINE
  5
2CD
330
81
100
AcDbEntity
  8
MD_狭い可視
100
AcDbLine
 10
115.8988904648216
 20
75.30078295544808
 30
0.000000000001819
 11
116.2488904648217
 21
75.30078295544808
 31
0.000000000001819
210
-1.0
220
-0.0000000000000002
230
0.0
  0
LINE
  5
2CE
330
81
100
AcDbEntity
  8
MD_可視
100
AcDbLine
 10
115.8988904648216
 20
75.00560920240423
 30
0.000000000001819
 11
116.2488904648217
 21
75.00560920240423
 31
0.000000000001819
210
-1.0
220
-0.0000000000000002
230
0.0
  0
LINE
  5
2CF
330
81
100
AcDbEntity
  8
MD_可視
100
AcDbLine
 10
114.2088904648216
 20
77.10560920240459
 30
0.000000000001819
 11
114.2088904648216
 21
77.45560920573734
 31
0.000000000001819
210
-1.0
220
-0.0000000000000002
230
0.0
  0
LINE
  5
2D0
330
81
100
AcDbEntity
  8
MD_可視
100
AcDbLine
 10
114.2088904648216
 20
76.95560920240495
 30
0.000000000001819
 11
114.2088904648216
 21
77.10560920240459
 31
0.000000000001819
210
-1.0
220
-0.0000000000000002
230
0.0
  0
LINE
  5
2D1
330
81
100
AcDbEntity
  8
MD_可視
100
AcDbLine
 10
114.2088904648216
 20
76.95560920240495
 30
0.000000000001819
 11
114.2088904648216
 21
76.45560920240495
 31
0.000000000001819
210
-1.0
220
-0.0000000000000002
230
0.0
  0
LINE
  5
2D2
330
81
100
AcDbEntity
  8
MD_可視
100
AcDbLine
 10
114.2088904648216
 20
76.30560920240532
 30
0.000000000001819
 11
114.2088904648216
 21
76.45560920240495
 31
0.000000000001819
210
-1.0
220
-0.0000000000000002
230
0.0
  0
LINE
  5
2D3
330
81
100
AcDbEntity
  8
MD_可視
100
AcDbLine
 10
114.2088904648216
 20
76.3056092024035
 30
0.000000000001819
 11
114.2088904648216
 21
75.50560920240423
 31
0.000000000001819
210
-1.0
220
-0.0000000000000002
230
0.0
  0
LINE
  5
2D4
330
81
100
AcDbEntity
  8
MD_可視
100
AcDbLine
 10
114.2088904648216
 20
75.30078295544808
 30
0.000000000001819
 11
114.2088904648216
 21
75.50560920240423
 31
0.000000000001819
210
-1.0
220
-0.0000000000000002
230
0.0
  0
LINE
  5
2D5
330
81
100
AcDbEntity
  8
MD_可視
100
AcDbLine
 10
114.2088904648216
 20
75.30078295544808
 30
0.000000000001819
 11
114.2088904648216
 21
75.00560920240423
 31
0.000000000001819
210
-1.0
220
-0.0000000000000002
230
0.0
  0
LINE
  5
2D6
330
81
100
AcDbEntity
  8
MD_可視
100
AcDbLine
 10
113.8588904648217
 20
75.00560920240423
 30
0.000000000001819
 11
113.8588904648217
 21
75.30078295544808
 31
0.000000000001819
210
-1.0
220
-0.0000000000000002
230
0.0
  0
LINE
  5
2D7
330
81
100
AcDbEntity
  8
MD_可視
100
AcDbLine
 10
113.8588904648217
 20
75.50560920240423
 30
0.000000000001819
 11
113.8588904648217
 21
75.30078295544808
 31
0.000000000001819
210
-1.0
220
-0.0000000000000002
230
0.0
  0
LINE
  5
2D8
330
81
100
AcDbEntity
  8
MD_可視
100
AcDbLine
 10
113.8588904648217
 20
75.50560920240423
 30
0.000000000001819
 11
113.8588904648217
 21
76.3056092024035
 31
0.000000000001819
210
-1.0
220
-0.0000000000000002
230
0.0
  0
LINE
  5
2D9
330
81
100
AcDbEntity
  8
MD_可視
100
AcDbLine
 10
113.8588904648217
 20
76.45560920240495
 30
0.000000000001819
 11
113.8588904648217
 21
76.30560920240532
 31
0.000000000001819
210
-1.0
220
-0.0000000000000002
230
0.0
  0
LINE
  5
2DA
330
81
100
AcDbEntity
  8
MD_可視
100
AcDbLine
 10
113.8588904648217
 20
76.45560920240495
 30
0.000000000001819
 11
113.8588904648217
 21
76.95560920240495
 31
0.000000000001819
210
-1.0
220
-0.0000000000000002
230
0.0
  0
LINE
  5
2DB
330
81
100
AcDbEntity
  8
MD_可視
100
AcDbLine
 10
113.8588904648217
 20
77.09905648272251
 30
0.000000000001819
 11
113.8588904648217
 21
76.95560920240495
 31
0.000000000001819
210
-1.0
220
-0.0000000000000002
230
0.0
  0
LINE
  5
2DC
330
81
100
AcDbEntity
  8
MD_可視
100
AcDbLine
 10
114.2341579843927
 20
77.62405933287846
 30
0.000000000001819
 11
114.2088904653189
 21
77.45560920571915
 31
0.000000000001819
210
-1.0
220
-0.0000000000000002
230
0.0
  0
LINE
  5
2DD
330
81
100
AcDbEntity
  8
MD_可視
100
AcDbLine
 10
113.8612754597396
 20
77.10560920240459
 30
0.000000000001819
 11
114.2088904648216
 21
77.10560920240459
 31
0.000000000001819
210
-1.0
220
-0.0000000000000002
230
0.0
  0
LINE
  5
2DE
330
81
100
AcDbEntity
  8
MD_狭い可視
100
AcDbLine
 10
113.8588904648217
 20
76.95560920240495
 30
0.000000000001819
 11
114.2088904648216
 21
76.95560920240495
 31
0.000000000001819
210
-1.0
220
-0.0000000000000002
230
0.0
  0
LINE
  5
2DF
330
81
100
AcDbEntity
  8
MD_狭い可視
100
AcDbLine
 10
113.8588904648217
 20
76.45560920240495
 30
0.000000000001819
 11
114.2088904648216
 21
76.45560920240495
 31
0.000000000001819
210
-1.0
220
-0.0000000000000002
230
0.0
  0
LINE
  5
2E0
330
81
100
AcDbEntity
  8
MD_可視
100
AcDbLine
 10
113.8588904648217
 20
76.3056092024035
 30
0.000000000001819
 11
114.2088904648216
 21
76.3056092024035
 31
0.000000000001819
210
-1.0
220
-0.0000000000000002
230
0.0
  0
LINE
  5
2E1
330
81
100
AcDbEntity
  8
MD_可視
100
AcDbLine
 10
113.8588904648217
 20
75.50560920240423
 30
0.000000000001819
 11
114.2088904648216
 21
75.50560920240423
 31
0.000000000001819
210
-1.0
220
-0.0000000000000002
230
0.0
  0
LINE
  5
2E2
330
81
100
AcDbEntity
  8
MD_狭い可視
100
AcDbLine
 10
113.8588904648217
 20
75.30078295544808
 30
0.000000000001819
 11
114.2088904648216
 21
75.30078295544808
 31
0.000000000001819
210
-1.0
220
-0.0000000000000002
230
0.0
  0
LINE
  5
2E3
330
81
100
AcDbEntity
  8
MD_可視
100
AcDbLine
 10
113.8588904648217
 20
75.00560920240423
 30
0.000000000001819
 11
114.2088904648216
 21
75.00560920240423
 31
0.000000000001819
210
-1.0
220
-0.0000000000000002
230
0.0
  0
ENDBLK
  5
2E4
330
81
100
AcDbEntity
  8
0
100
AcDbBlockEnd
  0
BLOCK
  5
2E8
330
2E7
100
AcDbEntity
  8
0
100
AcDbBlockBegin
  2
CustomObjectsInViewport6_0
 70
     0
 10
0.0
 20
0.0
 30
0.0
  3
CustomObjectsInViewport6_0
  1

  0
LINE
  5
2E9
330
2E7
100
AcDbEntity
  8
MD_可視
100
AcDbLine
 10
122.1441579843927
 20
100.1440311130554
 30
0.0
 11
123.1891579843926
 21
100.1440311130554
 31
0.0
210
-1.0
220
-0.0000000000000002
230
0.0000000000000003
  0
LINE
  5
2EA
330
2E7
100
AcDbEntity
  8
MD_可視
100
AcDbLine
 10
113.1441579843927
 20
100.1440311130554
 30
0.0
 11
112.0991579843926
 21
100.1440311130554
 31
0.0
210
-1.0
220
-0.0000000000000002
230
0.0000000000000003
  0
LINE
  5
2EB
330
2E7
100
AcDbEntity
  8
MD_可視
100
AcDbLine
 10
112.8941579843927
 20
101.1640311130559
 30
0.0
 11
112.8941579843927
 21
100.7440311130558
 31
0.0
210
-1.0
220
-0.0000000000000002
230
0.0000000000000003
  0
LINE
  5
2EC
330
2E7
100
AcDbEntity
  8
MD_可視
100
AcDbLine
 10
123.1891579843926
 20
121.6040311130546
 30
0.0
 11
119.2691579843926
 21
121.6040311130546
 31
0.0
210
-1.0
220
-0.0000000000000002
230
0.0000000000000003
  0
LINE
  5
2ED
330
2E7
100
AcDbEntity
  8
MD_可視
100
AcDbLine
 10
116.0191579843926
 20
121.6040311130546
 30
0.0
 11
112.0991579843926
 21
121.6040311130546
 31
0.0
210
-1.0
220
-0.0000000000000002
230
0.0000000000000003
  0
LINE
  5
2EE
330
2E7
100
AcDbEntity
  8
MD_可視
100
AcDbLine
 10
123.4891579843927
 20
121.3040311130553
 30
0.0
 11
123.4891579843927
 21
101.1640311130559
 31
0.0
210
-1.0
220
-0.0000000000000002
230
0.0000000000000003
  0
LINE
  5
2EF
330
2E7
100
AcDbEntity
  8
MD_可視
100
AcDbLine
 10
123.4891579843927
 20
101.1640311130559
 30
0.0
 11
123.4891579843927
 21
100.4440311130547
 31
0.0
210
-1.0
220
-0.0000000000000002
230
0.0000000000000003
  0
ARC
  5
2F0
330
2E7
100
AcDbEntity
  8
MD_可視
100
AcDbCircle
 10
123.1891579843926
 20
121.3040311130553
 30
0.0
 40
0.3
100
AcDbArc
 50
0.0
 51
90.0
  0
LINE
  5
2F1
330
2E7
100
AcDbEntity
  8
MD_狭い可視
100
AcDbLine
 10
123.1891579843926
 20
121.3040311130553
 30
0.0
 11
123.4891579843927
 21
121.3040311130553
 31
0.0
210
-1.0
220
-0.0000000000000002
230
0.0000000000000003
  0
LINE
  5
2F2
330
2E7
100
AcDbEntity
  8
MD_狭い可視
100
AcDbLine
 10
123.1891579843926
 20
121.6040311130546
 30
0.0
 11
123.1891579843926
 21
121.3040311130553
 31
0.0
210
-1.0
220
-0.0000000000000002
230
0.0000000000000003
  0
LINE
  5
2F3
330
2E7
100
AcDbEntity
  8
MD_狭い可視
100
AcDbLine
 10
123.1891579843926
 20
121.3040311130553
 30
0.0
 11
123.1891579843926
 21
101.4640311130551
 31
0.0
210
-1.0
220
-0.0000000000000002
230
0.0000000000000003
  0
LINE
  5
2F4
330
2E7
100
AcDbEntity
  8
MD_可視
100
AcDbLine
 10
123.4891579843927
 20
101.1640311130559
 30
0.0
 11
123.1891579843926
 21
101.4640311130551
 31
0.0
210
-1.0
220
-0.0000000000000002
230
0.0000000000000003
  0
LINE
  5
2F5
330
2E7
100
AcDbEntity
  8
MD_狭い可視
100
AcDbLine
 10
123.1891579843926
 20
101.4640311130551
 30
0.0
 11
120.6941579843926
 21
101.4640311130551
 31
0.0
210
-1.0
220
-0.0000000000000002
230
0.0000000000000003
  0
LINE
  5
2F6
330
2E7
100
AcDbEntity
  8
MD_可視
100
AcDbLine
 10
123.4891579843927
 20
101.1640311130559
 30
0.0
 11
120.6941579843926
 21
101.1640311130559
 31
0.0
210
-1.0
220
-0.0000000000000002
230
0.0000000000000003
  0
LINE
  5
2F7
330
2E7
100
AcDbEntity
  8
MD_狭い可視
100
AcDbLine
 10
123.1891579843926
 20
121.3040311130553
 30
0.0
 11
119.2691579843926
 21
121.3040311130553
 31
0.0
210
-1.0
220
-0.0000000000000002
230
0.0000000000000003
  0
LINE
  5
2F8
330
2E7
100
AcDbEntity
  8
MD_狭い可視
100
AcDbLine
 10
116.0191579843926
 20
121.3040311130553
 30
0.0
 11
112.0991579848906
 21
121.3040311130553
 31
0.0
210
-1.0
220
-0.0000000000000002
230
0.0000000000000003
  0
LINE
  5
2F9
330
2E7
100
AcDbEntity
  8
MD_狭い可視
100
AcDbLine
 10
112.0991579843926
 20
101.4640311130551
 30
0.0
 11
112.0991579848906
 21
121.3040311130553
 31
0.0
210
-1.0
220
-0.0000000000000002
230
0.0000000000000003
  0
LINE
  5
2FA
330
2E7
100
AcDbEntity
  8
MD_狭い可視
100
AcDbLine
 10
114.5941579843926
 20
101.4640311130551
 30
0.0
 11
112.0991579843926
 21
101.4640311130551
 31
0.0
210
-1.0
220
-0.0000000000000002
230
0.0000000000000003
  0
LINE
  5
2FB
330
2E7
100
AcDbEntity
  8
MD_狭い可視
100
AcDbLine
 10
112.0991579843926
 20
121.6040311130546
 30
0.0
 11
112.0991579843926
 21
121.3040311130553
 31
0.0
210
-1.0
220
-0.0000000000000002
230
0.0000000000000003
  0
LINE
  5
2FC
330
2E7
100
AcDbEntity
  8
MD_狭い可視
100
AcDbLine
 10
111.7991579843926
 20
121.3040311130553
 30
0.0
 11
112.0991579843926
 21
121.3040311130553
 31
0.0
210
-1.0
220
-0.0000000000000002
230
0.0000000000000003
  0
ARC
  5
2FD
330
2E7
100
AcDbEntity
  8
MD_可視
100
AcDbCircle
 10
-112.0991579843926
 20
121.3040311130553
 30
-0.0000000000000108
 40
0.3
210
0.0
220
-0.0000000000000001
230
-1.0
100
AcDbArc
 50
0.0
 51
90.0
  0
LINE
  5
2FE
330
2E7
100
AcDbEntity
  8
MD_可視
100
AcDbLine
 10
111.7991579843927
 20
101.1640311130559
 30
0.0
 11
111.7991579843926
 21
121.3040311130553
 31
0.0
210
-1.0
220
-0.0000000000000002
230
0.0000000000000003
  0
LINE
  5
2FF
330
2E7
100
AcDbEntity
  8
MD_可視
100
AcDbLine
 10
111.7991579843927
 20
101.1640311130559
 30
0.0
 11
112.0991579843926
 21
101.4640311130551
 31
0.0
210
-1.0
220
-0.0000000000000002
230
0.0000000000000003
  0
LINE
  5
300
330
2E7
100
AcDbEntity
  8
MD_可視
100
AcDbLine
 10
114.5941579843926
 20
101.1640311130559
 30
0.0
 11
111.7991579843927
 21
101.1640311130559
 31
0.0
210
-1.0
220
-0.0000000000000002
230
0.0000000000000003
  0
LINE
  5
301
330
2E7
100
AcDbEntity
  8
MD_可視
100
AcDbLine
 10
114.5941579843926
 20
102.7040311130549
 30
0.0
 11
114.5941579843926
 21
99.6040311130546
 31
0.0
210
-1.0
220
-0.0000000000000002
230
0.0000000000000003
  0
LINE
  5
302
330
2E7
100
AcDbEntity
  8
MD_可視
100
AcDbLine
 10
114.5941579843926
 20
105.1140311130548
 30
0.0
 11
114.5941579843926
 21
102.7040311130549
 31
0.0
210
-1.0
220
-0.0000000000000002
230
0.0000000000000003
  0
LINE
  5
303
330
2E7
100
AcDbEntity
  8
MD_可視
100
AcDbLine
 10
114.5941579843926
 20
106.8340311130541
 30
0.0
 11
114.5941579843926
 21
105.1140311130548
 31
0.0
210
-1.0
220
-0.0000000000000002
230
0.0000000000000003
  0
LINE
  5
304
330
2E7
100
AcDbEntity
  8
MD_可視
100
AcDbLine
 10
114.5941579843926
 20
107.0340311130548
 30
0.0
 11
114.5941579843926
 21
106.8340311130541
 31
0.0
210
-1.0
220
-0.0000000000000002
230
0.0000000000000003
  0
LINE
  5
305
330
2E7
100
AcDbEntity
  8
MD_狭い可視
100
AcDbLine
 10
120.6941579843926
 20
99.6040311130546
 30
0.0
 11
114.5941579843926
 21
99.6040311130546
 31
0.0
210
-1.0
220
-0.0000000000000002
230
0.0000000000000003
  0
LINE
  5
306
330
2E7
100
AcDbEntity
  8
MD_可視
100
AcDbLine
 10
120.6941579843926
 20
102.7040311130549
 30
0.0
 11
120.6941579843926
 21
99.6040311130546
 31
0.0
210
-1.0
220
-0.0000000000000002
230
0.0000000000000003
  0
LINE
  5
307
330
2E7
100
AcDbEntity
  8
MD_可視
100
AcDbLine
 10
114.5941579843926
 20
102.7040311130549
 30
0.0
 11
120.6941579843926
 21
102.7040311130549
 31
0.0
210
-1.0
220
-0.0000000000000002
230
0.0000000000000003
  0
LINE
  5
308
330
2E7
100
AcDbEntity
  8
MD_可視
100
AcDbLine
 10
115.6441579843926
 20
100.4040311130557
 30
0.0
 11
117.1441579843927
 21
100.4040311130557
 31
0.0
210
-1.0
220
-0.0000000000000002
230
0.0000000000000003
  0
LINE
  5
309
330
2E7
100
AcDbEntity
  8
MD_可視
100
AcDbLine
 10
115.6441579843926
 20
101.6040311130546
 30
0.0
 11
115.6441579843926
 21
100.4040311130557
 31
0.0
210
-1.0
220
-0.0000000000000002
230
0.0000000000000003
  0
LINE
  5
30A
330
2E7
100
AcDbEntity
  8
MD_可視
100
AcDbLine
 10
117.1441579843927
 20
101.6040311130546
 30
0.0
 11
115.6441579843926
 21
101.6040311130546
 31
0.0
210
-1.0
220
-0.0000000000000002
230
0.0000000000000003
  0
LINE
  5
30B
330
2E7
100
AcDbEntity
  8
MD_可視
100
AcDbLine
 10
117.1441579843927
 20
100.4040311130557
 30
0.0
 11
117.1441579843927
 21
101.6040311130546
 31
0.0
210
-1.0
220
-0.0000000000000002
230
0.0000000000000003
  0
LINE
  5
30C
330
2E7
100
AcDbEntity
  8
MD_可視
100
AcDbLine
 10
118.1441579843927
 20
100.4040311130557
 30
0.0
 11
119.6441579843926
 21
100.4040311130557
 31
0.0
210
-1.0
220
-0.0000000000000002
230
0.0000000000000003
  0
LINE
  5
30D
330
2E7
100
AcDbEntity
  8
MD_可視
100
AcDbLine
 10
118.1441579843927
 20
101.6040311130546
 30
0.0
 11
118.1441579843927
 21
100.4040311130557
 31
0.0
210
-1.0
220
-0.0000000000000002
230
0.0000000000000003
  0
LINE
  5
30E
330
2E7
100
AcDbEntity
  8
MD_可視
100
AcDbLine
 10
119.6441579843926
 20
101.6040311130546
 30
0.0
 11
118.1441579843927
 21
101.6040311130546
 31
0.0
210
-1.0
220
-0.0000000000000002
230
0.0000000000000003
  0
LINE
  5
30F
330
2E7
100
AcDbEntity
  8
MD_可視
100
AcDbLine
 10
119.6441579843926
 20
100.4040311130557
 30
0.0
 11
119.6441579843926
 21
101.6040311130546
 31
0.0
210
-1.0
220
-0.0000000000000002
230
0.0000000000000003
  0
ELLIPSE
  5
310
330
2E7
100
AcDbEntity
  8
MD_可視
100
AcDbEllipse
 10
115.0941579844677
 20
99.604031113151
 30
0.0
 11
0.3014968338529975
 21
0.3988729864253956
 31
-0.0000000000000001
210
-0.0000000000000001
220
-0.0000000000000001
230
-1.0
 40
0.9999999998484025
 41
2.494344185650454
 42
4.065140512249614
  0
LINE
  5
311
330
2E7
100
AcDbEntity
  8
MD_可視
100
AcDbLine
 10
120.1941579843927
 20
99.10403111305459
 30
0.0
 11
115.0941579843927
 21
99.10403111305459
 31
0.0
210
-1.0
220
-0.0000000000000002
230
0.0000000000000003
  0
ELLIPSE
  5
312
330
2E7
100
AcDbEntity
  8
MD_可視
100
AcDbEllipse
 10
120.1941579843176
 20
99.604031113151
 30
0.0
 11
-0.3014973959231395
 21
0.3988725615718153
 31
0.0
210
0.0000000000000001
220
0.0000000000000001
230
1.0
 40
0.9999999998484025
 41
2.494342776504035
 42
4.065139103103195
  0
LINE
  5
313
330
2E7
100
AcDbEntity
  8
MD_可視
100
AcDbLine
 10
120.6941579843926
 20
107.0340311130548
 30
0.0
 11
120.6941579843926
 21
106.8340311130541
 31
0.0
210
-1.0
220
-0.0000000000000002
230
0.0000000000000003
  0
LINE
  5
314
330
2E7
100
AcDbEntity
  8
MD_可視
100
AcDbLine
 10
120.6941579843926
 20
106.8340311130541
 30
0.0
 11
120.6941579843926
 21
105.1140311130548
 31
0.0
210
-1.0
220
-0.0000000000000002
230
0.0000000000000003
  0
LINE
  5
315
330
2E7
100
AcDbEntity
  8
MD_可視
100
AcDbLine
 10
120.6941579843926
 20
105.1140311130548
 30
0.0
 11
120.6941579843926
 21
102.7040311130549
 31
0.0
210
-1.0
220
-0.0000000000000002
230
0.0000000000000003
  0
LINE
  5
316
330
2E7
100
AcDbEntity
  8
MD_可視
100
AcDbLine
 10
116.0191579843927
 20
105.1140311130548
 30
0.0
 11
119.2691579843927
 21
105.1140311130548
 31
0.0
210
-1.0
220
-0.0000000000000002
230
0.0000000000000003
  0
LINE
  5
317
330
2E7
100
AcDbEntity
  8
MD_可視
100
AcDbLine
 10
114.5941579843926
 20
105.1140311130548
 30
0.0
 11
116.0191579843927
 21
105.1140311130548
 31
0.0
210
-1.0
220
-0.0000000000000002
230
0.0000000000000003
  0
LINE
  5
318
330
2E7
100
AcDbEntity
  8
MD_可視
100
AcDbLine
 10
119.2691579843927
 20
105.1140311130548
 30
0.0
 11
120.6941579843926
 21
105.1140311130548
 31
0.0
210
-1.0
220
-0.0000000000000002
230
0.0000000000000003
  0
LINE
  5
319
330
2E7
100
AcDbEntity
  8
MD_可視
100
AcDbLine
 10
119.2691579843927
 20
106.1140311130548
 30
0.0
 11
119.2691579843927
 21
105.1140311130548
 31
0.0
210
-1.0
220
-0.0000000000000002
230
0.0000000000000003
  0
LINE
  5
31A
330
2E7
100
AcDbEntity
  8
MD_可視
100
AcDbLine
 10
116.0191579843927
 20
106.1140311130548
 30
0.0
 11
119.2691579843927
 21
106.1140311130548
 31
0.0
210
-1.0
220
-0.0000000000000002
230
0.0000000000000003
  0
LINE
  5
31B
330
2E7
100
AcDbEntity
  8
MD_可視
100
AcDbLine
 10
116.0191579843927
 20
106.1140311130548
 30
0.0
 11
116.0191579843927
 21
105.1140311130548
 31
0.0
210
-1.0
220
-0.0000000000000002
230
0.0000000000000003
  0
LINE
  5
31C
330
2E7
100
AcDbEntity
  8
MD_可視
100
AcDbLine
 10
116.0191579843927
 20
111.374031113055
 30
0.0
 11
116.0191579843927
 21
106.1140311130548
 31
0.0
210
-1.0
220
-0.0000000000000002
230
0.0000000000000003
  0
LINE
  5
31D
330
2E7
100
AcDbEntity
  8
MD_可視
100
AcDbLine
 10
116.0191579843927
 20
111.3740311130477
 30
0.0
 11
116.0191579843926
 21
122.1040311130527
 31
0.0
210
-1.0
220
-0.0000000000000002
230
0.0000000000000003
  0
LINE
  5
31E
330
2E7
100
AcDbEntity
  8
MD_可視
100
AcDbLine
 10
116.0191579843926
 20
122.1708005347645
 30
0.0
 11
116.0191579843926
 21
122.1040311130546
 31
0.0
210
-1.0
220
-0.0000000000000002
230
0.0000000000000003
  0
LINE
  5
31F
330
2E7
100
AcDbEntity
  8
MD_狭い可視
100
AcDbLine
 10
119.2691579843926
 20
122.1040311130546
 30
0.0
 11
118.0965024663158
 21
122.1040311130546
 31
0.0
210
-1.0
220
-0.0000000000000002
230
0.0000000000000003
  0
LINE
  5
320
330
2E7
100
AcDbEntity
  8
MD_可視
100
AcDbLine
 10
119.2691579843926
 20
122.1708005347645
 30
0.0
 11
119.2691579843926
 21
122.1040311130546
 31
0.0
210
-1.0
220
-0.0000000000000002
230
0.0000000000000003
  0
LINE
  5
321
330
2E7
100
AcDbEntity
  8
MD_狭い可視
100
AcDbLine
 10
117.0965024663158
 20
122.1040311130546
 30
0.0
 11
116.0191579843926
 21
122.1040311130546
 31
0.0
210
-1.0
220
-0.0000000000000002
230
0.0000000000000003
  0
ELLIPSE
  5
322
330
2E7
100
AcDbEntity
  8
MD_可視
100
AcDbEllipse
 10
117.5965024663158
 20
121.6920861338458
 30
0.0
 11
-0.7250000000000001
 21
-0.0000000000000003
 31
0.0
210
0.0
220
-0.0000000000000001
230
-1.0
 40
0.7846571032513091
 41
0.8097835725730714
 42
2.331809081016751
  0
LINE
  5
323
330
2E7
100
AcDbEntity
  8
MD_可視
100
AcDbLine
 10
118.0965024663158
 20
111.3740311130477
 30
0.0
 11
118.0965024663158
 21
122.1040311130527
 31
0.0
210
-1.0
220
-0.0000000000000002
230
0.0000000000000003
  0
LINE
  5
324
330
2E7
100
AcDbEntity
  8
MD_可視
100
AcDbLine
 10
117.0965024663158
 20
111.3740311130477
 30
0.0
 11
117.0965024663158
 21
122.1040311130527
 31
0.0
210
-1.0
220
-0.0000000000000002
230
0.0000000000000003
  0
ELLIPSE
  5
325
330
2E7
100
AcDbEntity
  8
MD_狭い可視
100
AcDbEllipse
 10
117.5965024663158
 20
111.5249913090301
 30
0.0
 11
-0.7249990152424369
 21
-0.0000000000000003
 31
0.0
210
0.0
220
0.0000000000000001
230
1.0
 40
0.2875439752505715
 41
0.8097822789616966
 42
2.331810374628121
  0
LINE
  5
326
330
2E7
100
AcDbEntity
  8
MD_狭い可視
100
AcDbLine
 10
116.0191579843927
 20
111.374031113055
 30
0.0
 11
117.0965024663158
 21
111.374031113055
 31
0.0
210
-1.0
220
-0.0000000000000002
230
0.0000000000000003
  0
LINE
  5
327
330
2E7
100
AcDbEntity
  8
MD_狭い可視
100
AcDbLine
 10
118.0965024663158
 20
111.374031113055
 30
0.0
 11
119.2691579843927
 21
111.374031113055
 31
0.0
210
-1.0
220
-0.0000000000000002
230
0.0000000000000003
  0
LINE
  5
328
330
2E7
100
AcDbEntity
  8
MD_可視
100
AcDbLine
 10
119.2691579843927
 20
111.3740311130477
 30
0.0
 11
119.2691579843926
 21
122.1040311130527
 31
0.0
210
-1.0
220
-0.0000000000000002
230
0.0000000000000003
  0
LINE
  5
329
330
2E7
100
AcDbEntity
  8
MD_可視
100
AcDbLine
 10
119.2691579843927
 20
111.374031113055
 30
0.0
 11
119.2691579843927
 21
106.1140311130548
 31
0.0
210
-1.0
220
-0.0000000000000002
230
0.0000000000000003
  0
LINE
  5
32A
330
2E7
100
AcDbEntity
  8
MD_可視
100
AcDbLine
 10
118.0965024663158
 20
110.1440311130554
 30
0.0
 11
118.0965024663158
 21
111.374031113055
 31
0.0
210
-1.0
220
-0.0000000000000002
230
0.0000000000000003
  0
LINE
  5
32B
330
2E7
100
AcDbEntity
  8
MD_可視
100
AcDbLine
 10
117.0965024663158
 20
110.1440311130554
 30
0.0
 11
117.0965024663158
 21
111.374031113055
 31
0.0
210
-1.0
220
-0.0000000000000002
230
0.0000000000000003
  0
LINE
  5
32C
330
2E7
100
AcDbEntity
  8
MD_可視
100
AcDbLine
 10
118.3941579843927
 20
106.7129219107883
 30
0.0
 11
117.1485064133753
 21
106.7129219107883
 31
0.0
210
-1.0
220
-0.0000000000000002
230
0.0000000000000003
  0
LINE
  5
32D
330
2E7
100
AcDbEntity
  8
MD_可視
100
AcDbLine
 10
118.1094277926493
 20
107.3504228953734
 30
0.0
 11
116.8941579843927
 21
106.784286536933
 31
0.0
210
-1.0
220
-0.0000000000000002
230
0.0000000000000003
  0
LINE
  5
32E
330
2E7
100
AcDbEntity
  8
MD_可視
100
AcDbLine
 10
118.3941579843927
 20
107.5217209844031
 30
0.0
 11
116.8941579843927
 21
107.5217209844031
 31
0.0
210
-1.0
220
-0.0000000000000002
230
0.0000000000000003
  0
LINE
  5
32F
330
2E7
100
AcDbEntity
  8
MD_可視
100
AcDbLine
 10
117.11756221308
 20
108.0212734354718
 30
0.0
 11
117.0856473232674
 21
108.0926380616147
 31
0.0
210
-1.0
220
-0.0000000000000002
230
0.0000000000000003
  0
LINE
  5
330
330
2E7
100
AcDbEntity
  8
MD_可視
100
AcDbLine
 10
117.1813919927048
 20
107.9499088093271
 30
0.0
 11
117.11756221308
 21
108.0212734354718
 31
0.0
210
-1.0
220
-0.0000000000000002
230
0.0000000000000003
  0
LINE
  5
331
330
2E7
100
AcDbEntity
  8
MD_可視
100
AcDbLine
 10
117.2771367515492
 20
107.9261205552393
 30
0.0
 11
117.1813919927048
 21
107.9499088093271
 31
0.0
210
-1.0
220
-0.0000000000000002
230
0.0000000000000003
  0
LINE
  5
332
330
2E7
100
AcDbEntity
  8
MD_可視
100
AcDbLine
 10
117.3409665311742
 20
107.9261205552393
 30
0.0
 11
117.2771367515492
 21
107.9261205552393
 31
0.0
210
-1.0
220
-0.0000000000000002
230
0.0000000000000003
  0
LINE
  5
333
330
2E7
100
AcDbEntity
  8
MD_可視
100
AcDbLine
 10
117.4367112006115
 20
107.9499088093271
 30
0.0
 11
117.3409665311742
 21
107.9261205552393
 31
0.0
210
-1.0
220
-0.0000000000000002
230
0.0000000000000003
  0
LINE
  5
334
330
2E7
100
AcDbEntity
  8
MD_可視
100
AcDbLine
 10
117.5005409802366
 20
108.0212734354718
 30
0.0
 11
117.4367112006115
 21
107.9499088093271
 31
0.0
210
-1.0
220
-0.0000000000000002
230
0.0000000000000003
  0
LINE
  5
335
330
2E7
100
AcDbEntity
  8
MD_可視
100
AcDbLine
 10
117.5324558700491
 20
108.0926380616147
 30
0.0
 11
117.5005409802366
 21
108.0212734354718
 31
0.0
210
-1.0
220
-0.0000000000000002
230
0.0000000000000003
  0
LINE
  5
336
330
2E7
100
AcDbEntity
  8
MD_可視
100
AcDbLine
 10
117.5643707598615
 20
108.3543083121058
 30
0.0
 11
117.5324558700491
 21
108.2353673139041
 31
0.0
210
-1.0
220
-0.0000000000000002
230
0.0000000000000003
  0
LINE
  5
337
330
2E7
100
AcDbEntity
  8
MD_可視
100
AcDbLine
 10
117.6282005394864
 20
108.4494611923364
 30
0.0
 11
117.5643707598615
 21
108.3543083121058
 31
0.0
210
-1.0
220
-0.0000000000000002
230
0.0000000000000003
  0
LINE
  5
338
330
2E7
100
AcDbEntity
  8
MD_可視
100
AcDbLine
 10
117.7558600987363
 20
108.5446139364503
 30
0.0
 11
117.6282005394864
 21
108.4494611923364
 31
0.0
210
-1.0
220
-0.0000000000000002
230
0.0000000000000003
  0
LINE
  5
339
330
2E7
100
AcDbEntity
  8
MD_可視
100
AcDbLine
 10
117.8835197026896
 20
108.5921904446259
 30
0.0
 11
117.7558600987363
 21
108.5446139364503
 31
0.0
210
-1.0
220
-0.0000000000000002
230
0.0000000000000003
  0
LINE
  5
33A
330
2E7
100
AcDbEntity
  8
MD_可視
100
AcDbLine
 10
118.043094151752
 20
108.5921904446259
 30
0.0
 11
117.8835197026896
 21
108.5921904446259
 31
0.0
210
-1.0
220
-0.0000000000000002
230
0.0000000000000003
  0
LINE
  5
33B
330
2E7
100
AcDbEntity
  8
MD_可視
100
AcDbLine
 10
118.1707537333537
 20
108.5446139364503
 30
0.0
 11
118.043094151752
 21
108.5921904446259
 31
0.0
210
-1.0
220
-0.0000000000000002
230
0.0000000000000003
  0
LINE
  5
33C
330
2E7
100
AcDbEntity
  8
MD_可視
100
AcDbLine
 10
118.2984133037793
 20
108.4494611923364
 30
0.0
 11
118.1707537333537
 21
108.5446139364503
 31
0.0
210
-1.0
220
-0.0000000000000002
230
0.0000000000000003
  0
LINE
  5
33D
330
2E7
100
AcDbEntity
  8
MD_可視
100
AcDbLine
 10
118.3622430917862
 20
108.3543083121058
 30
0.0
 11
118.2984133037793
 21
108.4494611923364
 31
0.0
210
-1.0
220
-0.0000000000000002
230
0.0000000000000003
  0
LINE
  5
33E
330
2E7
100
AcDbEntity
  8
MD_可視
100
AcDbLine
 10
118.3941579843927
 20
108.2353673139041
 30
0.0
 11
118.3622430917862
 21
108.3543083121058
 31
0.0
210
-1.0
220
-0.0000000000000002
230
0.0000000000000003
  0
LINE
  5
33F
330
2E7
100
AcDbEntity
  8
MD_可視
100
AcDbLine
 10
118.0750090415644
 20
107.8785441831824
 30
0.0
 11
117.979264372127
 21
107.8547559290964
 31
0.0
210
-1.0
220
-0.0000000000000002
230
0.0000000000000003
  0
LINE
  5
340
330
2E7
100
AcDbEntity
  8
MD_可視
100
AcDbLine
 10
118.1707537333537
 20
107.9499088093271
 30
0.0
 11
118.0750090415644
 21
107.8785441831824
 31
0.0
210
-1.0
220
-0.0000000000000002
230
0.0000000000000003
  0
LINE
  5
341
330
2E7
100
AcDbEntity
  8
MD_可視
100
AcDbLine
 10
118.2026686231661
 20
108.045061553441
 30
0.0
 11
118.1707537333537
 21
107.9499088093271
 31
0.0
210
-1.0
220
-0.0000000000000002
230
0.0000000000000003
  0
LINE
  5
342
330
2E7
100
AcDbEntity
  8
MD_可視
100
AcDbLine
 10
116.9260728742052
 20
108.330520058018
 30
0.0
 11
116.8941579843927
 21
108.2115790598163
 31
0.0
210
-1.0
220
-0.0000000000000002
230
0.0000000000000003
  0
LINE
  5
343
330
2E7
100
AcDbEntity
  8
MD_可視
100
AcDbLine
 10
117.0218175436426
 20
108.4256729382486
 30
0.0
 11
116.9260728742052
 21
108.330520058018
 31
0.0
210
-1.0
220
-0.0000000000000002
230
0.0000000000000003
  0
LINE
  5
344
330
2E7
100
AcDbEntity
  8
MD_可視
100
AcDbLine
 10
117.1494771028924
 20
108.4970375643934
 30
0.0
 11
117.0218175436426
 21
108.4256729382486
 31
0.0
210
-1.0
220
-0.0000000000000002
230
0.0000000000000003
  0
LINE
  5
345
330
2E7
100
AcDbEntity
  8
MD_可視
100
AcDbLine
 10
117.2452217723298
 20
108.5208258184811
 30
0.0
 11
117.1494771028924
 21
108.4970375643934
 31
0.0
210
-1.0
220
-0.0000000000000002
230
0.0000000000000003
  0
LINE
  5
346
330
2E7
100
AcDbEntity
  8
MD_可視
100
AcDbLine
 10
118.1707537333537
 20
109.6864480908752
 30
0.0
 11
118.0111792619396
 21
109.7102362088444
 31
0.0
210
-1.0
220
-0.0000000000000002
230
0.0000000000000003
  0
LINE
  5
347
330
2E7
100
AcDbEntity
  8
MD_可視
100
AcDbLine
 10
118.2984133037793
 20
109.591295074526
 30
0.0
 11
118.1707537333537
 21
109.6864480908752
 31
0.0
210
-1.0
220
-0.0000000000000002
230
0.0000000000000003
  0
LINE
  5
348
330
2E7
100
AcDbEntity
  8
MD_可視
100
AcDbLine
 10
118.3622430917862
 20
109.4961423304121
 30
0.0
 11
118.2984133037793
 21
109.591295074526
 31
0.0
210
-1.0
220
-0.0000000000000002
230
0.0000000000000003
  0
LINE
  5
349
330
2E7
100
AcDbEntity
  8
MD_可視
100
AcDbLine
 10
118.3941579843927
 20
109.3772011960936
 30
0.0
 11
118.3622430917862
 21
109.4961423304121
 31
0.0
210
-1.0
220
-0.0000000000000002
230
0.0000000000000003
  0
LINE
  5
34A
330
2E7
100
AcDbEntity
  8
MD_可視
100
AcDbLine
 10
116.9260728742052
 20
109.4961423304121
 30
0.0
 11
116.8941579843927
 21
109.3772011960936
 31
0.0
210
-1.0
220
-0.0000000000000002
230
0.0000000000000003
  0
LINE
  5
34B
330
2E7
100
AcDbEntity
  8
MD_可視
100
AcDbLine
 10
116.98990265383
 20
109.591295074526
 30
0.0
 11
116.9260728742052
 21
109.4961423304121
 31
0.0
210
-1.0
220
-0.0000000000000002
230
0.0000000000000003
  0
LINE
  5
34C
330
2E7
100
AcDbEntity
  8
MD_可視
100
AcDbLine
 10
117.11756221308
 20
109.6864480908752
 30
0.0
 11
116.98990265383
 21
109.591295074526
 31
0.0
210
-1.0
220
-0.0000000000000002
230
0.0000000000000003
  0
LINE
  5
34D
330
2E7
100
AcDbEntity
  8
MD_可視
100
AcDbLine
 10
117.2771367515492
 20
109.7102362088444
 30
0.0
 11
117.11756221308
 21
109.6864480908752
 31
0.0
210
-1.0
220
-0.0000000000000002
230
0.0000000000000003
  0
LINE
  5
34E
330
2E7
100
AcDbEntity
  8
MD_可視
100
AcDbLine
 10
117.11756221308
 20
109.0679545735474
 30
0.0
 11
117.0856473232674
 21
109.1631073176613
 31
0.0
210
-1.0
220
-0.0000000000000002
230
0.0000000000000003
  0
LINE
  5
34F
330
2E7
100
AcDbEntity
  8
MD_可視
100
AcDbLine
 10
117.1813919927048
 20
108.9965899474027
 30
0.0
 11
117.11756221308
 21
109.0679545735474
 31
0.0
210
-1.0
220
-0.0000000000000002
230
0.0000000000000003
  0
LINE
  5
350
330
2E7
100
AcDbEntity
  8
MD_可視
100
AcDbLine
 10
117.2771367515492
 20
108.9490134392272
 30
0.0
 11
117.1813919927048
 21
108.9965899474027
 31
0.0
210
-1.0
220
-0.0000000000000002
230
0.0000000000000003
  0
LINE
  5
351
330
2E7
100
AcDbEntity
  8
MD_可視
100
AcDbLine
 10
117.4047963107991
 20
108.9252253212598
 30
0.0
 11
117.2771367515492
 21
108.9490134392272
 31
0.0
210
-1.0
220
-0.0000000000000002
230
0.0000000000000003
  0
LINE
  5
352
330
2E7
100
AcDbEntity
  8
MD_可視
100
AcDbLine
 10
117.8835197026896
 20
108.9252253212598
 30
0.0
 11
117.4047963107991
 21
108.9252253212598
 31
0.0
210
-1.0
220
-0.0000000000000002
230
0.0000000000000003
  0
LINE
  5
353
330
2E7
100
AcDbEntity
  8
MD_可視
100
AcDbLine
 10
118.0111792619396
 20
108.9490134392272
 30
0.0
 11
117.8835197026896
 21
108.9252253212598
 31
0.0
210
-1.0
220
-0.0000000000000002
230
0.0000000000000003
  0
LINE
  5
354
330
2E7
100
AcDbEntity
  8
MD_可視
100
AcDbLine
 10
118.1069239313769
 20
108.9965899474027
 30
0.0
 11
118.0111792619396
 21
108.9490134392272
 31
0.0
210
-1.0
220
-0.0000000000000002
230
0.0000000000000003
  0
LINE
  5
355
330
2E7
100
AcDbEntity
  8
MD_可視
100
AcDbLine
 10
118.1707537333537
 20
109.0679545735474
 30
0.0
 11
118.1069239313769
 21
108.9965899474027
 31
0.0
210
-1.0
220
-0.0000000000000002
230
0.0000000000000003
  0
LINE
  5
356
330
2E7
100
AcDbEntity
  8
MD_可視
100
AcDbLine
 10
118.2026686231661
 20
109.1631073176613
 30
0.0
 11
118.1707537333537
 21
109.0679545735474
 31
0.0
210
-1.0
220
-0.0000000000000002
230
0.0000000000000003
  0
ELLIPSE
  5
357
330
2E7
100
AcDbEntity
  8
MD_可視
100
AcDbEllipse
 10
117.5965024663158
 20
110.294017505943
 30
0.0
 11
-0.7250000000000002
 21
-0.0000000000000001
 31
0.0
210
0.0
220
0.0000000000000001
230
1.0
 40
0.2856883674050071
 41
0.8097835725699834
 42
2.331809081019834
  0
LINE
  5
358
330
2E7
100
AcDbEntity
  8
MD_可視
100
AcDbLine
 10
114.5941579843926
 20
107.0340311130548
 30
0.0
 11
116.0191579843927
 21
107.0340311130548
 31
0.0
210
-1.0
220
-0.0000000000000002
230
0.0000000000000003
  0
LINE
  5
359
330
2E7
100
AcDbEntity
  8
MD_可視
100
AcDbLine
 10
119.2691579843927
 20
107.0340311130548
 30
0.0
 11
120.6941579843926
 21
107.0340311130548
 31
0.0
210
-1.0
220
-0.0000000000000002
230
0.0000000000000003
  0
LINE
  5
35A
330
2E7
100
AcDbEntity
  8
MD_可視
100
AcDbLine
 10
114.5941579843926
 20
106.8340311130541
 30
0.0
 11
116.0191579843927
 21
106.8340311130541
 31
0.0
210
-1.0
220
-0.0000000000000002
230
0.0000000000000003
  0
LINE
  5
35B
330
2E7
100
AcDbEntity
  8
MD_可視
100
AcDbLine
 10
119.2691579843927
 20
106.8340311130541
 30
0.0
 11
120.6941579843926
 21
106.8340311130541
 31
0.0
210
-1.0
220
-0.0000000000000002
230
0.0000000000000003
  0
LINE
  5
35C
330
2E7
100
AcDbEntity
  8
MD_可視
100
AcDbLine
 10
118.3941579843927
 20
106.6843530740479
 30
0.0
 11
117.0856473232674
 21
106.6843530740479
 31
0.0
210
-1.0
220
-0.0000000000000002
230
0.0000000000000003
  0
LINE
  5
35D
330
2E7
100
AcDbEntity
  8
MD_可視
100
AcDbLine
 10
118.3941579843927
 20
106.7129219107883
 30
0.0
 11
118.3941579843927
 21
106.6843530740479
 31
0.0
210
-1.0
220
-0.0000000000000002
230
0.0000000000000003
  0
LINE
  5
35E
330
2E7
100
AcDbEntity
  8
MD_可視
100
AcDbLine
 10
118.3941579843927
 20
106.5416238217604
 30
0.0
 11
118.3941579843927
 21
106.6843530740479
 31
0.0
210
-1.0
220
-0.0000000000000002
230
0.0000000000000003
  0
LINE
  5
35F
330
2E7
100
AcDbEntity
  8
MD_可視
100
AcDbLine
 10
116.8941579843927
 20
106.5416238217604
 30
0.0
 11
118.3941579843927
 21
106.5416238217604
 31
0.0
210
-1.0
220
-0.0000000000000002
230
0.0000000000000003
  0
LINE
  5
360
330
2E7
100
AcDbEntity
  8
MD_可視
100
AcDbLine
 10
116.8941579843927
 20
106.7557177001927
 30
0.0
 11
116.8941579843927
 21
106.5416238217604
 31
0.0
210
-1.0
220
-0.0000000000000002
230
0.0000000000000003
  0
LINE
  5
361
330
2E7
100
AcDbEntity
  8
MD_可視
100
AcDbLine
 10
116.8941579843927
 20
106.784286536933
 30
0.0
 11
116.8941579843927
 21
106.7557177001927
 31
0.0
210
-1.0
220
-0.0000000000000002
230
0.0000000000000003
  0
LINE
  5
362
330
2E7
100
AcDbEntity
  8
MD_可視
100
AcDbLine
 10
118.1707537333537
 20
107.3504228953734
 30
0.0
 11
116.8941579843927
 21
106.7557177001927
 31
0.0
210
-1.0
220
-0.0000000000000002
230
0.0000000000000003
  0
LINE
  5
363
330
2E7
100
AcDbEntity
  8
MD_可視
100
AcDbLine
 10
116.8941579843927
 20
107.3504228953734
 30
0.0
 11
118.1707537333537
 21
107.3504228953734
 31
0.0
210
-1.0
220
-0.0000000000000002
230
0.0000000000000003
  0
LINE
  5
364
330
2E7
100
AcDbEntity
  8
MD_可視
100
AcDbLine
 10
116.8941579843927
 20
107.4931521476628
 30
0.0
 11
116.8941579843927
 21
107.3504228953734
 31
0.0
210
-1.0
220
-0.0000000000000002
230
0.0000000000000003
  0
LINE
  5
365
330
2E7
100
AcDbEntity
  8
MD_可視
100
AcDbLine
 10
116.8941579843927
 20
107.5217209844031
 30
0.0
 11
116.8941579843927
 21
107.4931521476628
 31
0.0
210
-1.0
220
-0.0000000000000002
230
0.0000000000000003
  0
LINE
  5
366
330
2E7
100
AcDbEntity
  8
MD_可視
100
AcDbLine
 10
118.3941579843927
 20
107.4931521476628
 30
0.0
 11
116.8941579843927
 21
107.4931521476628
 31
0.0
210
-1.0
220
-0.0000000000000002
230
0.0000000000000003
  0
LINE
  5
367
330
2E7
100
AcDbEntity
  8
MD_可視
100
AcDbLine
 10
118.3941579843927
 20
107.5217209844031
 30
0.0
 11
118.3941579843927
 21
107.4931521476628
 31
0.0
210
-1.0
220
-0.0000000000000002
230
0.0000000000000003
  0
LINE
  5
368
330
2E7
100
AcDbEntity
  8
MD_可視
100
AcDbLine
 10
118.3941579843927
 20
107.2790582692305
 30
0.0
 11
118.3941579843927
 21
107.4931521476628
 31
0.0
210
-1.0
220
-0.0000000000000002
230
0.0000000000000003
  0
LINE
  5
369
330
2E7
100
AcDbEntity
  8
MD_可視
100
AcDbLine
 10
117.0856473232674
 20
106.6843530740479
 30
0.0
 11
118.3941579843927
 21
107.2790582692305
 31
0.0
210
-1.0
220
-0.0000000000000002
230
0.0000000000000003
  0
LINE
  5
36A
330
2E7
100
AcDbEntity
  8
MD_可視
100
AcDbLine
 10
117.2452217723298
 20
108.3495277294514
 30
0.0
 11
117.2452217723298
 21
108.4922569817408
 31
0.0
210
-1.0
220
-0.0000000000000002
230
0.0000000000000003
  0
LINE
  5
36B
330
2E7
100
AcDbEntity
  8
MD_可視
100
AcDbLine
 10
117.2452217723298
 20
108.4922569817408
 30
0.0
 11
117.1494771028924
 21
108.4684687276531
 31
0.0
210
-1.0
220
-0.0000000000000002
230
0.0000000000000003
  0
LINE
  5
36C
330
2E7
100
AcDbEntity
  8
MD_可視
100
AcDbLine
 10
117.1494771028924
 20
108.4684687276531
 30
0.0
 11
117.0218175436426
 21
108.3971041015084
 31
0.0
210
-1.0
220
-0.0000000000000002
230
0.0000000000000003
  0
LINE
  5
36D
330
2E7
100
AcDbEntity
  8
MD_可視
100
AcDbLine
 10
117.0218175436426
 20
108.3971041015084
 30
0.0
 11
116.9260728742052
 21
108.3019512212777
 31
0.0
210
-1.0
220
-0.0000000000000002
230
0.0000000000000003
  0
LINE
  5
36E
330
2E7
100
AcDbEntity
  8
MD_可視
100
AcDbLine
 10
116.9260728742052
 20
108.3019512212777
 30
0.0
 11
116.8941579843927
 21
108.183010223076
 31
0.0
210
-1.0
220
-0.0000000000000002
230
0.0000000000000003
  0
LINE
  5
36F
330
2E7
100
AcDbEntity
  8
MD_可視
100
AcDbLine
 10
116.8941579843927
 20
108.183010223076
 30
0.0
 11
116.8941579843927
 21
108.0640692248744
 31
0.0
210
-1.0
220
-0.0000000000000002
230
0.0000000000000003
  0
LINE
  5
370
330
2E7
100
AcDbEntity
  8
MD_可視
100
AcDbLine
 10
116.8941579843927
 20
108.0640692248744
 30
0.0
 11
116.9260728742052
 21
107.9689163446437
 31
0.0
210
-1.0
220
-0.0000000000000002
230
0.0000000000000003
  0
LINE
  5
371
330
2E7
100
AcDbEntity
  8
MD_可視
100
AcDbLine
 10
116.9260728742052
 20
107.9689163446437
 30
0.0
 11
116.98990265383
 21
107.8737634644112
 31
0.0
210
-1.0
220
-0.0000000000000002
230
0.0000000000000003
  0
LINE
  5
372
330
2E7
100
AcDbEntity
  8
MD_可視
100
AcDbLine
 10
116.98990265383
 20
107.8737634644112
 30
0.0
 11
117.11756221308
 21
107.7786107202973
 31
0.0
210
-1.0
220
-0.0000000000000002
230
0.0000000000000003
  0
LINE
  5
373
330
2E7
100
AcDbEntity
  8
MD_可視
100
AcDbLine
 10
117.11756221308
 20
107.7786107202973
 30
0.0
 11
117.2452217723298
 21
107.7548224662114
 31
0.0
210
-1.0
220
-0.0000000000000002
230
0.0000000000000003
  0
LINE
  5
374
330
2E7
100
AcDbEntity
  8
MD_可視
100
AcDbLine
 10
117.2452217723298
 20
107.7548224662114
 30
0.0
 11
117.3728814209866
 21
107.7548224662114
 31
0.0
210
-1.0
220
-0.0000000000000002
230
0.0000000000000003
  0
LINE
  5
375
330
2E7
100
AcDbEntity
  8
MD_可視
100
AcDbLine
 10
117.3728814209866
 20
107.7548224662114
 30
0.0
 11
117.5005409802366
 21
107.7786107202973
 31
0.0
210
-1.0
220
-0.0000000000000002
230
0.0000000000000003
  0
LINE
  5
376
330
2E7
100
AcDbEntity
  8
MD_可視
100
AcDbLine
 10
117.5005409802366
 20
107.7786107202973
 30
0.0
 11
117.6282005394864
 21
107.8737634644112
 31
0.0
210
-1.0
220
-0.0000000000000002
230
0.0000000000000003
  0
LINE
  5
377
330
2E7
100
AcDbEntity
  8
MD_可視
100
AcDbLine
 10
117.6282005394864
 20
107.8737634644112
 30
0.0
 11
117.6920303191113
 21
107.9689163446437
 31
0.0
210
-1.0
220
-0.0000000000000002
230
0.0000000000000003
  0
LINE
  5
378
330
2E7
100
AcDbEntity
  8
MD_可視
100
AcDbLine
 10
117.6920303191113
 20
107.9689163446437
 30
0.0
 11
117.7239452089238
 21
108.0640692248744
 31
0.0
210
-1.0
220
-0.0000000000000002
230
0.0000000000000003
  0
LINE
  5
379
330
2E7
100
AcDbEntity
  8
MD_可視
100
AcDbLine
 10
117.7239452089238
 20
108.0640692248744
 30
0.0
 11
117.7239452089238
 21
108.2067984771638
 31
0.0
210
-1.0
220
-0.0000000000000002
230
0.0000000000000003
  0
LINE
  5
37A
330
2E7
100
AcDbEntity
  8
MD_可視
100
AcDbLine
 10
117.7239452089238
 20
108.2067984771638
 30
0.0
 11
117.7558600987363
 21
108.3019512212777
 31
0.0
210
-1.0
220
-0.0000000000000002
230
0.0000000000000003
  0
LINE
  5
37B
330
2E7
100
AcDbEntity
  8
MD_可視
100
AcDbLine
 10
117.7558600987363
 20
108.3019512212777
 30
0.0
 11
117.8196898783612
 21
108.3733158474224
 31
0.0
210
-1.0
220
-0.0000000000000002
230
0.0000000000000003
  0
LINE
  5
37C
330
2E7
100
AcDbEntity
  8
MD_可視
100
AcDbLine
 10
117.8196898783612
 20
108.3733158474224
 30
0.0
 11
117.9154345925021
 21
108.4208923555961
 31
0.0
210
-1.0
220
-0.0000000000000002
230
0.0000000000000003
  0
LINE
  5
37D
330
2E7
100
AcDbEntity
  8
MD_可視
100
AcDbLine
 10
117.9154345925021
 20
108.4208923555961
 30
0.0
 11
118.0111792619396
 21
108.4208923555961
 31
0.0
210
-1.0
220
-0.0000000000000002
230
0.0000000000000003
  0
LINE
  5
37E
330
2E7
100
AcDbEntity
  8
MD_可視
100
AcDbLine
 10
118.0111792619396
 20
108.4208923555961
 30
0.0
 11
118.1069239313769
 21
108.3733158474224
 31
0.0
210
-1.0
220
-0.0000000000000002
230
0.0000000000000003
  0
LINE
  5
37F
330
2E7
100
AcDbEntity
  8
MD_可視
100
AcDbLine
 10
118.1069239313769
 20
108.3733158474224
 30
0.0
 11
118.1707537333537
 21
108.3019512212777
 31
0.0
210
-1.0
220
-0.0000000000000002
230
0.0000000000000003
  0
LINE
  5
380
330
2E7
100
AcDbEntity
  8
MD_可視
100
AcDbLine
 10
118.1707537333537
 20
108.3019512212777
 30
0.0
 11
118.2026686231661
 21
108.2067984771638
 31
0.0
210
-1.0
220
-0.0000000000000002
230
0.0000000000000003
  0
LINE
  5
381
330
2E7
100
AcDbEntity
  8
MD_可視
100
AcDbLine
 10
118.2026686231661
 20
108.2067984771638
 30
0.0
 11
118.2026686231661
 21
108.0164927167006
 31
0.0
210
-1.0
220
-0.0000000000000002
230
0.0000000000000003
  0
LINE
  5
382
330
2E7
100
AcDbEntity
  8
MD_可視
100
AcDbLine
 10
118.2026686231661
 20
108.0164927167006
 30
0.0
 11
118.1707537333537
 21
107.9213399725868
 31
0.0
210
-1.0
220
-0.0000000000000002
230
0.0000000000000003
  0
LINE
  5
383
330
2E7
100
AcDbEntity
  8
MD_可視
100
AcDbLine
 10
118.1707537333537
 20
107.9213399725868
 30
0.0
 11
118.0750090415644
 21
107.849975346442
 31
0.0
210
-1.0
220
-0.0000000000000002
230
0.0000000000000003
  0
LINE
  5
384
330
2E7
100
AcDbEntity
  8
MD_可視
100
AcDbLine
 10
118.0750090415644
 20
107.849975346442
 30
0.0
 11
117.979264372127
 21
107.8261870923543
 31
0.0
210
-1.0
220
-0.0000000000000002
230
0.0000000000000003
  0
LINE
  5
385
330
2E7
100
AcDbEntity
  8
MD_可視
100
AcDbLine
 10
117.979264372127
 20
107.8261870923543
 30
0.0
 11
117.979264372127
 21
107.6834578400667
 31
0.0
210
-1.0
220
-0.0000000000000002
230
0.0000000000000003
  0
LINE
  5
386
330
2E7
100
AcDbEntity
  8
MD_可視
100
AcDbLine
 10
117.979264372127
 20
107.6834578400667
 30
0.0
 11
118.1069239313769
 21
107.7072460941544
 31
0.0
210
-1.0
220
-0.0000000000000002
230
0.0000000000000003
  0
LINE
  5
387
330
2E7
100
AcDbEntity
  8
MD_可視
100
AcDbLine
 10
118.1069239313769
 20
107.7072460941544
 30
0.0
 11
118.2664984139669
 21
107.7786107202973
 31
0.0
210
-1.0
220
-0.0000000000000002
230
0.0000000000000003
  0
LINE
  5
388
330
2E7
100
AcDbEntity
  8
MD_可視
100
AcDbLine
 10
118.2664984139669
 20
107.7786107202973
 30
0.0
 11
118.3622430917862
 21
107.897551718499
 31
0.0
210
-1.0
220
-0.0000000000000002
230
0.0000000000000003
  0
LINE
  5
389
330
2E7
100
AcDbEntity
  8
MD_可視
100
AcDbLine
 10
118.3622430917862
 20
107.897551718499
 30
0.0
 11
118.3941579843927
 21
108.0164927167006
 31
0.0
210
-1.0
220
-0.0000000000000002
230
0.0000000000000003
  0
LINE
  5
38A
330
2E7
100
AcDbEntity
  8
MD_可視
100
AcDbLine
 10
118.3941579843927
 20
108.0164927167006
 30
0.0
 11
118.3941579843927
 21
108.2067984771638
 31
0.0
210
-1.0
220
-0.0000000000000002
230
0.0000000000000003
  0
LINE
  5
38B
330
2E7
100
AcDbEntity
  8
MD_可視
100
AcDbLine
 10
118.3941579843927
 20
108.2067984771638
 30
0.0
 11
118.3622430917862
 21
108.3257394753655
 31
0.0
210
-1.0
220
-0.0000000000000002
230
0.0000000000000003
  0
LINE
  5
38C
330
2E7
100
AcDbEntity
  8
MD_可視
100
AcDbLine
 10
118.3622430917862
 20
108.3257394753655
 30
0.0
 11
118.2984133037793
 21
108.4208923555961
 31
0.0
210
-1.0
220
-0.0000000000000002
230
0.0000000000000003
  0
LINE
  5
38D
330
2E7
100
AcDbEntity
  8
MD_可視
100
AcDbLine
 10
118.2984133037793
 20
108.4208923555961
 30
0.0
 11
118.1707537333537
 21
108.51604509971
 31
0.0
210
-1.0
220
-0.0000000000000002
230
0.0000000000000003
  0
LINE
  5
38E
330
2E7
100
AcDbEntity
  8
MD_可視
100
AcDbLine
 10
118.1707537333537
 20
108.51604509971
 30
0.0
 11
118.043094151752
 21
108.5636216078837
 31
0.0
210
-1.0
220
-0.0000000000000002
230
0.0000000000000003
  0
LINE
  5
38F
330
2E7
100
AcDbEntity
  8
MD_可視
100
AcDbLine
 10
118.043094151752
 20
108.5636216078837
 30
0.0
 11
117.8835197026896
 21
108.5636216078837
 31
0.0
210
-1.0
220
-0.0000000000000002
230
0.0000000000000003
  0
LINE
  5
390
330
2E7
100
AcDbEntity
  8
MD_可視
100
AcDbLine
 10
117.8835197026896
 20
108.5636216078837
 30
0.0
 11
117.7558600987363
 21
108.51604509971
 31
0.0
210
-1.0
220
-0.0000000000000002
230
0.0000000000000003
  0
LINE
  5
391
330
2E7
100
AcDbEntity
  8
MD_可視
100
AcDbLine
 10
117.7558600987363
 20
108.51604509971
 30
0.0
 11
117.6282005394864
 21
108.4208923555961
 31
0.0
210
-1.0
220
-0.0000000000000002
230
0.0000000000000003
  0
LINE
  5
392
330
2E7
100
AcDbEntity
  8
MD_可視
100
AcDbLine
 10
117.6282005394864
 20
108.4208923555961
 30
0.0
 11
117.5643707598615
 21
108.3257394753655
 31
0.0
210
-1.0
220
-0.0000000000000002
230
0.0000000000000003
  0
LINE
  5
393
330
2E7
100
AcDbEntity
  8
MD_可視
100
AcDbLine
 10
117.5643707598615
 20
108.3257394753655
 30
0.0
 11
117.5324558700491
 21
108.2067984771638
 31
0.0
210
-1.0
220
-0.0000000000000002
230
0.0000000000000003
  0
LINE
  5
394
330
2E7
100
AcDbEntity
  8
MD_可視
100
AcDbLine
 10
117.5324558700491
 20
108.2067984771638
 30
0.0
 11
117.5324558700491
 21
108.0640692248744
 31
0.0
210
-1.0
220
-0.0000000000000002
230
0.0000000000000003
  0
LINE
  5
395
330
2E7
100
AcDbEntity
  8
MD_可視
100
AcDbLine
 10
117.5324558700491
 20
108.0640692248744
 30
0.0
 11
117.5005409802366
 21
107.9927045987315
 31
0.0
210
-1.0
220
-0.0000000000000002
230
0.0000000000000003
  0
LINE
  5
396
330
2E7
100
AcDbEntity
  8
MD_可視
100
AcDbLine
 10
117.5005409802366
 20
107.9927045987315
 30
0.0
 11
117.4367112006115
 21
107.9213399725868
 31
0.0
210
-1.0
220
-0.0000000000000002
230
0.0000000000000003
  0
LINE
  5
397
330
2E7
100
AcDbEntity
  8
MD_可視
100
AcDbLine
 10
117.4367112006115
 20
107.9213399725868
 30
0.0
 11
117.3409665311742
 21
107.897551718499
 31
0.0
210
-1.0
220
-0.0000000000000002
230
0.0000000000000003
  0
LINE
  5
398
330
2E7
100
AcDbEntity
  8
MD_可視
100
AcDbLine
 10
117.3409665311742
 20
107.897551718499
 30
0.0
 11
117.2771367515492
 21
107.897551718499
 31
0.0
210
-1.0
220
-0.0000000000000002
230
0.0000000000000003
  0
LINE
  5
399
330
2E7
100
AcDbEntity
  8
MD_可視
100
AcDbLine
 10
117.2771367515492
 20
107.897551718499
 30
0.0
 11
117.1813919927048
 21
107.9213399725868
 31
0.0
210
-1.0
220
-0.0000000000000002
230
0.0000000000000003
  0
LINE
  5
39A
330
2E7
100
AcDbEntity
  8
MD_可視
100
AcDbLine
 10
117.1813919927048
 20
107.9213399725868
 30
0.0
 11
117.11756221308
 21
107.9927045987315
 31
0.0
210
-1.0
220
-0.0000000000000002
230
0.0000000000000003
  0
LINE
  5
39B
330
2E7
100
AcDbEntity
  8
MD_可視
100
AcDbLine
 10
117.11756221308
 20
107.9927045987315
 30
0.0
 11
117.0856473232674
 21
108.0640692248744
 31
0.0
210
-1.0
220
-0.0000000000000002
230
0.0000000000000003
  0
LINE
  5
39C
330
2E7
100
AcDbEntity
  8
MD_可視
100
AcDbLine
 10
117.0856473232674
 20
108.0640692248744
 30
0.0
 11
117.0856473232674
 21
108.2067984771638
 31
0.0
210
-1.0
220
-0.0000000000000002
230
0.0000000000000003
  0
LINE
  5
39D
330
2E7
100
AcDbEntity
  8
MD_可視
100
AcDbLine
 10
117.0856473232674
 20
108.2067984771638
 30
0.0
 11
117.11756221308
 21
108.2781631033085
 31
0.0
210
-1.0
220
-0.0000000000000002
230
0.0000000000000003
  0
LINE
  5
39E
330
2E7
100
AcDbEntity
  8
MD_可視
100
AcDbLine
 10
117.11756221308
 20
108.2781631033085
 30
0.0
 11
117.1813919927048
 21
108.3257394753655
 31
0.0
210
-1.0
220
-0.0000000000000002
230
0.0000000000000003
  0
LINE
  5
39F
330
2E7
100
AcDbEntity
  8
MD_可視
100
AcDbLine
 10
117.1813919927048
 20
108.3257394753655
 30
0.0
 11
117.2452217723298
 21
108.3495277294514
 31
0.0
210
-1.0
220
-0.0000000000000002
230
0.0000000000000003
  0
LINE
  5
3A0
330
2E7
100
AcDbEntity
  8
MD_可視
100
AcDbLine
 10
118.0111792619396
 20
109.6816673721041
 30
0.0
 11
118.0111792619396
 21
109.5389381198165
 31
0.0
210
-1.0
220
-0.0000000000000002
230
0.0000000000000003
  0
LINE
  5
3A1
330
2E7
100
AcDbEntity
  8
MD_可視
100
AcDbLine
 10
118.0111792619396
 20
109.5389381198165
 30
0.0
 11
118.1069239313769
 21
109.5151500018455
 31
0.0
210
-1.0
220
-0.0000000000000002
230
0.0000000000000003
  0
LINE
  5
3A2
330
2E7
100
AcDbEntity
  8
MD_可視
100
AcDbLine
 10
118.1069239313769
 20
109.5151500018455
 30
0.0
 11
118.1707537333537
 21
109.4437853757026
 31
0.0
210
-1.0
220
-0.0000000000000002
230
0.0000000000000003
  0
LINE
  5
3A3
330
2E7
100
AcDbEntity
  8
MD_可視
100
AcDbLine
 10
118.1707537333537
 20
109.4437853757026
 30
0.0
 11
118.2026686231661
 21
109.3486323593533
 31
0.0
210
-1.0
220
-0.0000000000000002
230
0.0000000000000003
  0
LINE
  5
3A4
330
2E7
100
AcDbEntity
  8
MD_可視
100
AcDbLine
 10
118.2026686231661
 20
109.3486323593533
 30
0.0
 11
118.2026686231661
 21
109.134538480921
 31
0.0
210
-1.0
220
-0.0000000000000002
230
0.0000000000000003
  0
LINE
  5
3A5
330
2E7
100
AcDbEntity
  8
MD_可視
100
AcDbLine
 10
118.2026686231661
 20
109.134538480921
 30
0.0
 11
118.1707537333537
 21
109.0393857368053
 31
0.0
210
-1.0
220
-0.0000000000000002
230
0.0000000000000003
  0
LINE
  5
3A6
330
2E7
100
AcDbEntity
  8
MD_可視
100
AcDbLine
 10
118.1707537333537
 20
109.0393857368053
 30
0.0
 11
118.1069239313769
 21
108.9680211106624
 31
0.0
210
-1.0
220
-0.0000000000000002
230
0.0000000000000003
  0
LINE
  5
3A7
330
2E7
100
AcDbEntity
  8
MD_可視
100
AcDbLine
 10
118.1069239313769
 20
108.9680211106624
 30
0.0
 11
118.0111792619396
 21
108.9204446024887
 31
0.0
210
-1.0
220
-0.0000000000000002
230
0.0000000000000003
  0
LINE
  5
3A8
330
2E7
100
AcDbEntity
  8
MD_可視
100
AcDbLine
 10
118.0111792619396
 20
108.9204446024887
 30
0.0
 11
117.8835197026896
 21
108.8966564845177
 31
0.0
210
-1.0
220
-0.0000000000000002
230
0.0000000000000003
  0
LINE
  5
3A9
330
2E7
100
AcDbEntity
  8
MD_可視
100
AcDbLine
 10
117.8835197026896
 20
108.8966564845177
 30
0.0
 11
117.4047963107991
 21
108.8966564845177
 31
0.0
210
-1.0
220
-0.0000000000000002
230
0.0000000000000003
  0
LINE
  5
3AA
330
2E7
100
AcDbEntity
  8
MD_可視
100
AcDbLine
 10
117.4047963107991
 20
108.8966564845177
 30
0.0
 11
117.2771367515492
 21
108.9204446024887
 31
0.0
210
-1.0
220
-0.0000000000000002
230
0.0000000000000003
  0
LINE
  5
3AB
330
2E7
100
AcDbEntity
  8
MD_可視
100
AcDbLine
 10
117.2771367515492
 20
108.9204446024887
 30
0.0
 11
117.1813919927048
 21
108.9680211106624
 31
0.0
210
-1.0
220
-0.0000000000000002
230
0.0000000000000003
  0
LINE
  5
3AC
330
2E7
100
AcDbEntity
  8
MD_可視
100
AcDbLine
 10
117.1813919927048
 20
108.9680211106624
 30
0.0
 11
117.11756221308
 21
109.0393857368053
 31
0.0
210
-1.0
220
-0.0000000000000002
230
0.0000000000000003
  0
LINE
  5
3AD
330
2E7
100
AcDbEntity
  8
MD_可視
100
AcDbLine
 10
117.11756221308
 20
109.0393857368053
 30
0.0
 11
117.0856473232674
 21
109.134538480921
 31
0.0
210
-1.0
220
-0.0000000000000002
230
0.0000000000000003
  0
LINE
  5
3AE
330
2E7
100
AcDbEntity
  8
MD_可視
100
AcDbLine
 10
117.0856473232674
 20
109.134538480921
 30
0.0
 11
117.0856473232674
 21
109.3486323593533
 31
0.0
210
-1.0
220
-0.0000000000000002
230
0.0000000000000003
  0
LINE
  5
3AF
330
2E7
100
AcDbEntity
  8
MD_可視
100
AcDbLine
 10
117.0856473232674
 20
109.3486323593533
 30
0.0
 11
117.11756221308
 21
109.4437853757026
 31
0.0
210
-1.0
220
-0.0000000000000002
230
0.0000000000000003
  0
LINE
  5
3B0
330
2E7
100
AcDbEntity
  8
MD_可視
100
AcDbLine
 10
117.11756221308
 20
109.4437853757026
 30
0.0
 11
117.1813919927048
 21
109.5151500018455
 31
0.0
210
-1.0
220
-0.0000000000000002
230
0.0000000000000003
  0
LINE
  5
3B1
330
2E7
100
AcDbEntity
  8
MD_可視
100
AcDbLine
 10
117.1813919927048
 20
109.5151500018455
 30
0.0
 11
117.2771367515492
 21
109.5389381198165
 31
0.0
210
-1.0
220
-0.0000000000000002
230
0.0000000000000003
  0
LINE
  5
3B2
330
2E7
100
AcDbEntity
  8
MD_可視
100
AcDbLine
 10
117.2771367515492
 20
109.5389381198165
 30
0.0
 11
117.2771367515492
 21
109.6816673721041
 31
0.0
210
-1.0
220
-0.0000000000000002
230
0.0000000000000003
  0
LINE
  5
3B3
330
2E7
100
AcDbEntity
  8
MD_可視
100
AcDbLine
 10
117.2771367515492
 20
109.6816673721041
 30
0.0
 11
117.11756221308
 21
109.6578792541331
 31
0.0
210
-1.0
220
-0.0000000000000002
230
0.0000000000000003
  0
LINE
  5
3B4
330
2E7
100
AcDbEntity
  8
MD_可視
100
AcDbLine
 10
117.11756221308
 20
109.6578792541331
 30
0.0
 11
116.98990265383
 21
109.5627262377857
 31
0.0
210
-1.0
220
-0.0000000000000002
230
0.0000000000000003
  0
LINE
  5
3B5
330
2E7
100
AcDbEntity
  8
MD_可視
100
AcDbLine
 10
116.98990265383
 20
109.5627262377857
 30
0.0
 11
116.9260728742052
 21
109.4675734936718
 31
0.0
210
-1.0
220
-0.0000000000000002
230
0.0000000000000003
  0
LINE
  5
3B6
330
2E7
100
AcDbEntity
  8
MD_可視
100
AcDbLine
 10
116.9260728742052
 20
109.4675734936718
 30
0.0
 11
116.8941579843927
 21
109.3486323593533
 31
0.0
210
-1.0
220
-0.0000000000000002
230
0.0000000000000003
  0
LINE
  5
3B7
330
2E7
100
AcDbEntity
  8
MD_可視
100
AcDbLine
 10
116.8941579843927
 20
109.3486323593533
 30
0.0
 11
116.8941579843927
 21
109.134538480921
 31
0.0
210
-1.0
220
-0.0000000000000002
230
0.0000000000000003
  0
LINE
  5
3B8
330
2E7
100
AcDbEntity
  8
MD_可視
100
AcDbLine
 10
116.8941579843927
 20
109.134538480921
 30
0.0
 11
116.9260728742052
 21
109.0155976188362
 31
0.0
210
-1.0
220
-0.0000000000000002
230
0.0000000000000003
  0
LINE
  5
3B9
330
2E7
100
AcDbEntity
  8
MD_可視
100
AcDbLine
 10
116.9260728742052
 20
109.0155976188362
 30
0.0
 11
116.98990265383
 21
108.9204446024887
 31
0.0
210
-1.0
220
-0.0000000000000002
230
0.0000000000000003
  0
LINE
  5
3BA
330
2E7
100
AcDbEntity
  8
MD_可視
100
AcDbLine
 10
116.98990265383
 20
108.9204446024887
 30
0.0
 11
117.11756221308
 21
108.8252918583748
 31
0.0
210
-1.0
220
-0.0000000000000002
230
0.0000000000000003
  0
LINE
  5
3BB
330
2E7
100
AcDbEntity
  8
MD_可視
100
AcDbLine
 10
117.11756221308
 20
108.8252918583748
 30
0.0
 11
117.2452217723298
 21
108.7777154863179
 31
0.0
210
-1.0
220
-0.0000000000000002
230
0.0000000000000003
  0
LINE
  5
3BC
330
2E7
100
AcDbEntity
  8
MD_可視
100
AcDbLine
 10
117.2452217723298
 20
108.7777154863179
 30
0.0
 11
117.4047963107991
 21
108.7539272322301
 31
0.0
210
-1.0
220
-0.0000000000000002
230
0.0000000000000003
  0
LINE
  5
3BD
330
2E7
100
AcDbEntity
  8
MD_可視
100
AcDbLine
 10
117.4047963107991
 20
108.7539272322301
 30
0.0
 11
117.8835197026896
 21
108.7539272322301
 31
0.0
210
-1.0
220
-0.0000000000000002
230
0.0000000000000003
  0
LINE
  5
3BE
330
2E7
100
AcDbEntity
  8
MD_可視
100
AcDbLine
 10
117.8835197026896
 20
108.7539272322301
 30
0.0
 11
118.043094151752
 21
108.7777154863179
 31
0.0
210
-1.0
220
-0.0000000000000002
230
0.0000000000000003
  0
LINE
  5
3BF
330
2E7
100
AcDbEntity
  8
MD_可視
100
AcDbLine
 10
118.043094151752
 20
108.7777154863179
 30
0.0
 11
118.1707537333537
 21
108.8252918583748
 31
0.0
210
-1.0
220
-0.0000000000000002
230
0.0000000000000003
  0
LINE
  5
3C0
330
2E7
100
AcDbEntity
  8
MD_可視
100
AcDbLine
 10
118.1707537333537
 20
108.8252918583748
 30
0.0
 11
118.2984133037793
 21
108.9204446024887
 31
0.0
210
-1.0
220
-0.0000000000000002
230
0.0000000000000003
  0
LINE
  5
3C1
330
2E7
100
AcDbEntity
  8
MD_可視
100
AcDbLine
 10
118.2984133037793
 20
108.9204446024887
 30
0.0
 11
118.3622430917862
 21
109.0155976188362
 31
0.0
210
-1.0
220
-0.0000000000000002
230
0.0000000000000003
  0
LINE
  5
3C2
330
2E7
100
AcDbEntity
  8
MD_可視
100
AcDbLine
 10
118.3622430917862
 20
109.0155976188362
 30
0.0
 11
118.3941579843927
 21
109.134538480921
 31
0.0
210
-1.0
220
-0.0000000000000002
230
0.0000000000000003
  0
LINE
  5
3C3
330
2E7
100
AcDbEntity
  8
MD_可視
100
AcDbLine
 10
118.3941579843927
 20
109.134538480921
 30
0.0
 11
118.3941579843927
 21
109.3486323593533
 31
0.0
210
-1.0
220
-0.0000000000000002
230
0.0000000000000003
  0
LINE
  5
3C4
330
2E7
100
AcDbEntity
  8
MD_可視
100
AcDbLine
 10
118.3941579843927
 20
109.3486323593533
 30
0.0
 11
118.3622430917862
 21
109.4675734936718
 31
0.0
210
-1.0
220
-0.0000000000000002
230
0.0000000000000003
  0
LINE
  5
3C5
330
2E7
100
AcDbEntity
  8
MD_可視
100
AcDbLine
 10
118.3622430917862
 20
109.4675734936718
 30
0.0
 11
118.2984133037793
 21
109.5627262377857
 31
0.0
210
-1.0
220
-0.0000000000000002
230
0.0000000000000003
  0
LINE
  5
3C6
330
2E7
100
AcDbEntity
  8
MD_可視
100
AcDbLine
 10
118.2984133037793
 20
109.5627262377857
 30
0.0
 11
118.1707537333537
 21
109.6578792541331
 31
0.0
210
-1.0
220
-0.0000000000000002
230
0.0000000000000003
  0
LINE
  5
3C7
330
2E7
100
AcDbEntity
  8
MD_可視
100
AcDbLine
 10
118.1707537333537
 20
109.6578792541331
 30
0.0
 11
118.0111792619396
 21
109.6816673721041
 31
0.0
210
-1.0
220
-0.0000000000000002
230
0.0000000000000003
  0
LINE
  5
3C8
330
2E7
100
AcDbEntity
  8
MD_可視
100
AcDbLine
 10
117.2452217723298
 20
108.5208258184811
 30
0.0
 11
117.2452217723298
 21
108.4922569817408
 31
0.0
210
-1.0
220
-0.0000000000000002
230
0.0000000000000003
  0
LINE
  5
3C9
330
2E7
100
AcDbEntity
  8
MD_可視
100
AcDbLine
 10
117.11756221308
 20
108.0212734354718
 30
0.0
 11
117.11756221308
 21
107.9927045987315
 31
0.0
210
-1.0
220
-0.0000000000000002
230
0.0000000000000003
  0
LINE
  5
3CA
330
2E7
100
AcDbEntity
  8
MD_可視
100
AcDbLine
 10
117.1813919927048
 20
107.9499088093271
 30
0.0
 11
117.1813919927048
 21
107.9213399725868
 31
0.0
210
-1.0
220
-0.0000000000000002
230
0.0000000000000003
  0
LINE
  5
3CB
330
2E7
100
AcDbEntity
  8
MD_可視
100
AcDbLine
 10
117.2771367515492
 20
107.9261205552393
 30
0.0
 11
117.2771367515492
 21
107.897551718499
 31
0.0
210
-1.0
220
-0.0000000000000002
230
0.0000000000000003
  0
LINE
  5
3CC
330
2E7
100
AcDbEntity
  8
MD_可視
100
AcDbLine
 10
117.3409665311742
 20
107.9261205552393
 30
0.0
 11
117.3409665311742
 21
107.897551718499
 31
0.0
210
-1.0
220
-0.0000000000000002
230
0.0000000000000003
  0
LINE
  5
3CD
330
2E7
100
AcDbEntity
  8
MD_可視
100
AcDbLine
 10
117.4367112006115
 20
107.9499088093271
 30
0.0
 11
117.4367112006115
 21
107.9213399725868
 31
0.0
210
-1.0
220
-0.0000000000000002
230
0.0000000000000003
  0
LINE
  5
3CE
330
2E7
100
AcDbEntity
  8
MD_可視
100
AcDbLine
 10
117.5005409802366
 20
108.0212734354718
 30
0.0
 11
117.5005409802366
 21
107.9927045987315
 31
0.0
210
-1.0
220
-0.0000000000000002
230
0.0000000000000003
  0
LINE
  5
3CF
330
2E7
100
AcDbEntity
  8
MD_可視
100
AcDbLine
 10
117.5324558700491
 20
108.2353673139041
 30
0.0
 11
117.5324558700491
 21
108.2067984771638
 31
0.0
210
-1.0
220
-0.0000000000000002
230
0.0000000000000003
  0
LINE
  5
3D0
330
2E7
100
AcDbEntity
  8
MD_可視
100
AcDbLine
 10
117.5643707598615
 20
108.3543083121058
 30
0.0
 11
117.5643707598615
 21
108.3257394753655
 31
0.0
210
-1.0
220
-0.0000000000000002
230
0.0000000000000003
  0
LINE
  5
3D1
330
2E7
100
AcDbEntity
  8
MD_可視
100
AcDbLine
 10
117.6282005394864
 20
108.4494611923364
 30
0.0
 11
117.6282005394864
 21
108.4208923555961
 31
0.0
210
-1.0
220
-0.0000000000000002
230
0.0000000000000003
  0
LINE
  5
3D2
330
2E7
100
AcDbEntity
  8
MD_可視
100
AcDbLine
 10
117.7558600987363
 20
108.5446139364503
 30
0.0
 11
117.7558600987363
 21
108.51604509971
 31
0.0
210
-1.0
220
-0.0000000000000002
230
0.0000000000000003
  0
LINE
  5
3D3
330
2E7
100
AcDbEntity
  8
MD_可視
100
AcDbLine
 10
117.8835197026896
 20
108.5921904446259
 30
0.0
 11
117.8835197026896
 21
108.5636216078837
 31
0.0
210
-1.0
220
-0.0000000000000002
230
0.0000000000000003
  0
LINE
  5
3D4
330
2E7
100
AcDbEntity
  8
MD_可視
100
AcDbLine
 10
118.043094151752
 20
108.5921904446259
 30
0.0
 11
118.043094151752
 21
108.5636216078837
 31
0.0
210
-1.0
220
-0.0000000000000002
230
0.0000000000000003
  0
LINE
  5
3D5
330
2E7
100
AcDbEntity
  8
MD_可視
100
AcDbLine
 10
118.1707537333537
 20
108.5446139364503
 30
0.0
 11
118.1707537333537
 21
108.51604509971
 31
0.0
210
-1.0
220
-0.0000000000000002
230
0.0000000000000003
  0
LINE
  5
3D6
330
2E7
100
AcDbEntity
  8
MD_可視
100
AcDbLine
 10
118.2984133037793
 20
108.4494611923364
 30
0.0
 11
118.2984133037793
 21
108.4208923555961
 31
0.0
210
-1.0
220
-0.0000000000000002
230
0.0000000000000003
  0
LINE
  5
3D7
330
2E7
100
AcDbEntity
  8
MD_可視
100
AcDbLine
 10
118.3622430917862
 20
108.3543083121058
 30
0.0
 11
118.3622430917862
 21
108.3257394753655
 31
0.0
210
-1.0
220
-0.0000000000000002
230
0.0000000000000003
  0
LINE
  5
3D8
330
2E7
100
AcDbEntity
  8
MD_可視
100
AcDbLine
 10
118.3941579843927
 20
108.2353673139041
 30
0.0
 11
118.3941579843927
 21
108.2067984771638
 31
0.0
210
-1.0
220
-0.0000000000000002
230
0.0000000000000003
  0
LINE
  5
3D9
330
2E7
100
AcDbEntity
  8
MD_可視
100
AcDbLine
 10
117.979264372127
 20
107.8547559290964
 30
0.0
 11
117.979264372127
 21
107.8261870923543
 31
0.0
210
-1.0
220
-0.0000000000000002
230
0.0000000000000003
  0
LINE
  5
3DA
330
2E7
100
AcDbEntity
  8
MD_可視
100
AcDbLine
 10
118.0750090415644
 20
107.8785441831824
 30
0.0
 11
118.0750090415644
 21
107.849975346442
 31
0.0
210
-1.0
220
-0.0000000000000002
230
0.0000000000000003
  0
LINE
  5
3DB
330
2E7
100
AcDbEntity
  8
MD_可視
100
AcDbLine
 10
118.1707537333537
 20
107.9499088093271
 30
0.0
 11
118.1707537333537
 21
107.9213399725868
 31
0.0
210
-1.0
220
-0.0000000000000002
230
0.0000000000000003
  0
LINE
  5
3DC
330
2E7
100
AcDbEntity
  8
MD_可視
100
AcDbLine
 10
116.8941579843927
 20
108.2115790598163
 30
0.0
 11
116.8941579843927
 21
108.183010223076
 31
0.0
210
-1.0
220
-0.0000000000000002
230
0.0000000000000003
  0
LINE
  5
3DD
330
2E7
100
AcDbEntity
  8
MD_可視
100
AcDbLine
 10
116.9260728742052
 20
108.330520058018
 30
0.0
 11
116.9260728742052
 21
108.3019512212777
 31
0.0
210
-1.0
220
-0.0000000000000002
230
0.0000000000000003
  0
LINE
  5
3DE
330
2E7
100
AcDbEntity
  8
MD_可視
100
AcDbLine
 10
117.0218175436426
 20
108.4256729382486
 30
0.0
 11
117.0218175436426
 21
108.3971041015084
 31
0.0
210
-1.0
220
-0.0000000000000002
230
0.0000000000000003
  0
LINE
  5
3DF
330
2E7
100
AcDbEntity
  8
MD_可視
100
AcDbLine
 10
117.1494771028924
 20
108.4970375643934
 30
0.0
 11
117.1494771028924
 21
108.4684687276531
 31
0.0
210
-1.0
220
-0.0000000000000002
230
0.0000000000000003
  0
LINE
  5
3E0
330
2E7
100
AcDbEntity
  8
MD_可視
100
AcDbLine
 10
118.0111792619396
 20
109.7102362088444
 30
0.0
 11
118.0111792619396
 21
109.6816673721041
 31
0.0
210
-1.0
220
-0.0000000000000002
230
0.0000000000000003
  0
LINE
  5
3E1
330
2E7
100
AcDbEntity
  8
MD_可視
100
AcDbLine
 10
118.1707537333537
 20
109.6864480908752
 30
0.0
 11
118.1707537333537
 21
109.6578792541331
 31
0.0
210
-1.0
220
-0.0000000000000002
230
0.0000000000000003
  0
LINE
  5
3E2
330
2E7
100
AcDbEntity
  8
MD_可視
100
AcDbLine
 10
118.2984133037793
 20
109.591295074526
 30
0.0
 11
118.2984133037793
 21
109.5627262377857
 31
0.0
210
-1.0
220
-0.0000000000000002
230
0.0000000000000003
  0
LINE
  5
3E3
330
2E7
100
AcDbEntity
  8
MD_可視
100
AcDbLine
 10
118.3622430917862
 20
109.4961423304121
 30
0.0
 11
118.3622430917862
 21
109.4675734936718
 31
0.0
210
-1.0
220
-0.0000000000000002
230
0.0000000000000003
  0
LINE
  5
3E4
330
2E7
100
AcDbEntity
  8
MD_可視
100
AcDbLine
 10
118.3941579843927
 20
109.3772011960936
 30
0.0
 11
118.3941579843927
 21
109.3486323593533
 31
0.0
210
-1.0
220
-0.0000000000000002
230
0.0000000000000003
  0
LINE
  5
3E5
330
2E7
100
AcDbEntity
  8
MD_可視
100
AcDbLine
 10
116.8941579843927
 20
109.3772011960936
 30
0.0
 11
116.8941579843927
 21
109.3486323593533
 31
0.0
210
-1.0
220
-0.0000000000000002
230
0.0000000000000003
  0
LINE
  5
3E6
330
2E7
100
AcDbEntity
  8
MD_可視
100
AcDbLine
 10
116.9260728742052
 20
109.4961423304121
 30
0.0
 11
116.9260728742052
 21
109.4675734936718
 31
0.0
210
-1.0
220
-0.0000000000000002
230
0.0000000000000003
  0
LINE
  5
3E7
330
2E7
100
AcDbEntity
  8
MD_可視
100
AcDbLine
 10
116.98990265383
 20
109.591295074526
 30
0.0
 11
116.98990265383
 21
109.5627262377857
 31
0.0
210
-1.0
220
-0.0000000000000002
230
0.0000000000000003
  0
LINE
  5
3E8
330
2E7
100
AcDbEntity
  8
MD_可視
100
AcDbLine
 10
117.11756221308
 20
109.6864480908752
 30
0.0
 11
117.11756221308
 21
109.6578792541331
 31
0.0
210
-1.0
220
-0.0000000000000002
230
0.0000000000000003
  0
LINE
  5
3E9
330
2E7
100
AcDbEntity
  8
MD_可視
100
AcDbLine
 10
117.2771367515492
 20
109.7102362088444
 30
0.0
 11
117.2771367515492
 21
109.6816673721041
 31
0.0
210
-1.0
220
-0.0000000000000002
230
0.0000000000000003
  0
LINE
  5
3EA
330
2E7
100
AcDbEntity
  8
MD_可視
100
AcDbLine
 10
117.11756221308
 20
109.0679545735474
 30
0.0
 11
117.11756221308
 21
109.0393857368053
 31
0.0
210
-1.0
220
-0.0000000000000002
230
0.0000000000000003
  0
LINE
  5
3EB
330
2E7
100
AcDbEntity
  8
MD_可視
100
AcDbLine
 10
117.1813919927048
 20
108.9965899474027
 30
0.0
 11
117.1813919927048
 21
108.9680211106624
 31
0.0
210
-1.0
220
-0.0000000000000002
230
0.0000000000000003
  0
LINE
  5
3EC
330
2E7
100
AcDbEntity
  8
MD_可視
100
AcDbLine
 10
117.2771367515492
 20
108.9490134392272
 30
0.0
 11
117.2771367515492
 21
108.9204446024887
 31
0.0
210
-1.0
220
-0.0000000000000002
230
0.0000000000000003
  0
LINE
  5
3ED
330
2E7
100
AcDbEntity
  8
MD_可視
100
AcDbLine
 10
117.4047963107991
 20
108.9252253212598
 30
0.0
 11
117.4047963107991
 21
108.8966564845177
 31
0.0
210
-1.0
220
-0.0000000000000002
230
0.0000000000000003
  0
LINE
  5
3EE
330
2E7
100
AcDbEntity
  8
MD_可視
100
AcDbLine
 10
117.8835197026896
 20
108.9252253212598
 30
0.0
 11
117.8835197026896
 21
108.8966564845177
 31
0.0
210
-1.0
220
-0.0000000000000002
230
0.0000000000000003
  0
LINE
  5
3EF
330
2E7
100
AcDbEntity
  8
MD_可視
100
AcDbLine
 10
118.0111792619396
 20
108.9490134392272
 30
0.0
 11
118.0111792619396
 21
108.9204446024887
 31
0.0
210
-1.0
220
-0.0000000000000002
230
0.0000000000000003
  0
LINE
  5
3F0
330
2E7
100
AcDbEntity
  8
MD_可視
100
AcDbLine
 10
118.1069239313769
 20
108.9965899474027
 30
0.0
 11
118.1069239313769
 21
108.9680211106624
 31
0.0
210
-1.0
220
-0.0000000000000002
230
0.0000000000000003
  0
LINE
  5
3F1
330
2E7
100
AcDbEntity
  8
MD_可視
100
AcDbLine
 10
118.1707537333537
 20
109.0679545735474
 30
0.0
 11
118.1707537333537
 21
109.0393857368053
 31
0.0
210
-1.0
220
-0.0000000000000002
230
0.0000000000000003
  0
LINE
  5
3F2
330
2E7
100
AcDbEntity
  8
MD_可視
100
AcDbLine
 10
114.5941579843926
 20
100.7440311130558
 30
0.0
 11
112.8941579843927
 21
100.7440311130558
 31
0.0
210
-1.0
220
-0.0000000000000002
230
0.0000000000000003
  0
LINE
  5
3F3
330
2E7
100
AcDbEntity
  8
MD_可視
100
AcDbLine
 10
122.2441579843926
 20
100.7440311130558
 30
0.0
 11
120.6941579843926
 21
100.7440311130558
 31
0.0
210
-1.0
220
-0.0000000000000002
230
0.0000000000000003
  0
LINE
  5
3F4
330
2E7
100
AcDbEntity
  8
MD_可視
100
AcDbLine
 10
122.2441579843926
 20
101.1640311130559
 30
0.0
 11
122.2441579843926
 21
100.7440311130558
 31
0.0
210
-1.0
220
-0.0000000000000002
230
0.0000000000000003
  0
LINE
  5
3F5
330
2E7
100
AcDbEntity
  8
MD_可視
100
AcDbLine
 10
122.3941579843927
 20
100.7440311130558
 30
0.0
 11
122.3941579843927
 21
101.1640311130559
 31
0.0
210
-1.0
220
-0.0000000000000002
230
0.0000000000000003
  0
LINE
  5
3F6
330
2E7
100
AcDbEntity
  8
MD_可視
100
AcDbLine
 10
122.3941579843927
 20
100.7440311130558
 30
0.0
 11
122.2441579843926
 21
100.7440311130558
 31
0.0
210
-1.0
220
-0.0000000000000002
230
0.0000000000000003
  0
ARC
  5
3F7
330
2E7
100
AcDbEntity
  8
MD_可視
100
AcDbCircle
 10
112.0991579843926
 20
100.4440311130547
 30
0.0
 40
0.3
100
AcDbArc
 50
180.0
 51
270.0
  0
LINE
  5
3F8
330
2E7
100
AcDbEntity
  8
MD_可視
100
AcDbLine
 10
113.1441579843927
 20
99.94403111305473
 30
0.0
 11
113.1441579843927
 21
100.1440311130554
 31
0.0
210
-1.0
220
-0.0000000000000002
230
0.0000000000000003
  0
LINE
  5
3F9
330
2E7
100
AcDbEntity
  8
MD_可視
100
AcDbLine
 10
114.5941579843926
 20
99.94403111305473
 30
0.0
 11
113.1441579843927
 21
99.94403111305473
 31
0.0
210
-1.0
220
-0.0000000000000002
230
0.0000000000000003
  0
LINE
  5
3FA
330
2E7
100
AcDbEntity
  8
MD_可視
100
AcDbLine
 10
111.7991579843927
 20
100.4440311130547
 30
0.0
 11
111.7991579843927
 21
101.1640311130559
 31
0.0
210
-1.0
220
-0.0000000000000002
230
0.0000000000000003
  0
LINE
  5
3FB
330
2E7
100
AcDbEntity
  8
MD_可視
100
AcDbLine
 10
122.1441579843927
 20
99.94403111305473
 30
0.0
 11
120.6941579843926
 21
99.94403111305473
 31
0.0
210
-1.0
220
-0.0000000000000002
230
0.0000000000000003
  0
LINE
  5
3FC
330
2E7
100
AcDbEntity
  8
MD_可視
100
AcDbLine
 10
122.1441579843927
 20
99.94403111305473
 30
0.0
 11
122.1441579843927
 21
100.1440311130554
 31
0.0
210
-1.0
220
-0.0000000000000002
230
0.0000000000000003
  0
ARC
  5
3FD
330
2E7
100
AcDbEntity
  8
MD_可視
100
AcDbCircle
 10
123.1891579843926
 20
100.4440311130547
 30
0.0
 40
0.3
100
AcDbArc
 50
270.0
 51
0.0
  0
LINE
  5
3FE
330
2E7
100
AcDbEntity
  8
MD_可視
100
AcDbLine
 10
119.2691579843926
 20
122.1708005347645
 30
0.0
 11
117.9881791267935
 21
122.1708005347645
 31
0.0
210
-1.0
220
-0.0000000000000002
230
0.0000000000000003
  0
LINE
  5
3FF
330
2E7
100
AcDbEntity
  8
MD_可視
100
AcDbLine
 10
117.2048258058381
 20
122.1708005347645
 30
0.0
 11
116.0191579843926
 21
122.1708005347645
 31
0.0
210
-1.0
220
-0.0000000000000002
230
0.0000000000000003
  0
ENDBLK
  5
400
330
2E7
100
AcDbEntity
  8
0
100
AcDbBlockEnd
  0
BLOCK
  5
404
330
403
100
AcDbEntity
  8
0
100
AcDbBlockBegin
  2
CustomObjectsInViewport8_0
 70
     0
 10
0.0
 20
0.0
 30
0.0
  3
CustomObjectsInViewport8_0
  1

  0
LINE
  5
405
330
403
100
AcDbEntity
  8
MD_可視
100
AcDbLine
 10
139.5358021035881
 20
80.54373068024323
 30
0.0000000000000027
 11
139.5358021035881
 21
76.24373068109526
 31
0.0000000000000036
210
0.0
220
0.0
230
-1.0
  0
LINE
  5
406
330
403
100
AcDbEntity
  8
MD_可視
100
AcDbLine
 10
160.9958021035872
 20
74.64373068024361
 30
-0.0000000000000009
 11
160.9958021035872
 21
82.04373068024324
 31
-0.0000000000000027
210
0.0
220
0.0
230
-1.0
  0
LINE
  5
407
330
403
100
AcDbEntity
  8
MD_可視
100
AcDbLine
 10
153.3458021035876
 20
74.34373068024251
 30
0.0000000000000009
 11
160.695802103588
 21
74.34373068024251
 31
-0.0000000000000009
210
0.0
220
0.0
230
-1.0
  0
ARC
  5
408
330
403
100
AcDbEntity
  8
MD_可視
100
AcDbCircle
 10
160.695802103588
 20
74.64373068024361
 30
-0.0000000000000009
 40
0.3
100
AcDbArc
 50
270.0
 51
0.0
  0
LINE
  5
409
330
403
100
AcDbEntity
  8
MD_狭い可視
100
AcDbLine
 10
160.695802103588
 20
74.64373068024361
 30
-0.0000000000000007
 11
160.695802103588
 21
74.34373068024433
 31
-0.0000000000000006
210
0.0
220
0.0
230
-1.0
  0
LINE
  5
40A
330
403
100
AcDbEntity
  8
MD_狭い可視
100
AcDbLine
 10
160.9958021035872
 20
74.64373068024361
 30
-0.0000000000000007
 11
160.695802103588
 21
74.64373068024361
 31
-0.0000000000000007
210
0.0
220
0.0
230
-1.0
  0
LINE
  5
40B
330
403
100
AcDbEntity
  8
MD_狭い可視
100
AcDbLine
 10
153.3458021035876
 20
74.64373068024361
 30
0.0000000000000009
 11
160.695802103588
 21
74.64373068024361
 31
-0.0000000000000009
210
0.0
220
0.0
230
-1.0
  0
LINE
  5
40C
330
403
100
AcDbEntity
  8
MD_狭い可視
100
AcDbLine
 10
153.3458021035876
 20
74.34373068024433
 30
0.0000000000000011
 11
153.3458021035876
 21
74.64373068024361
 31
0.000000000000001
210
0.0
220
0.0
230
-1.0
  0
LINE
  5
40D
330
403
100
AcDbEntity
  8
MD_狭い可視
100
AcDbLine
 10
153.0458021035883
 20
74.64373068024361
 30
0.000000000000001
 11
153.3458021035876
 21
74.64373068024361
 31
0.000000000000001
210
0.0
220
0.0
230
-1.0
  0
ARC
  5
40E
330
403
100
AcDbEntity
  8
MD_可視
100
AcDbCircle
 10
-153.3458021035876
 20
74.64373068024361
 30
-0.0000000000000009
 40
0.3
210
0.0
220
0.0
230
-1.0
100
AcDbArc
 50
270.0
 51
0.0
  0
LINE
  5
40F
330
403
100
AcDbEntity
  8
MD_可視
100
AcDbLine
 10
153.0458021035883
 20
75.74373068024215
 30
0.0000000000000009
 11
153.0458021035883
 21
74.64373068024361
 31
0.0000000000000009
210
0.0
220
0.0
230
-1.0
  0
LINE
  5
410
330
403
100
AcDbEntity
  8
MD_可視
100
AcDbLine
 10
140.0358021035881
 20
75.74373068024215
 30
0.0000000000000036
 11
153.0458021035883
 21
75.74373068024215
 31
0.0000000000000009
210
0.0
220
0.0
230
-1.0
  0
ARC
  5
411
330
403
100
AcDbEntity
  8
MD_可視
100
AcDbCircle
 10
140.0358021035881
 20
76.24373068024215
 30
0.0000000000000036
 40
0.5000000000000001
100
AcDbArc
 50
180.0
 51
270.0
  0
ARC
  5
412
330
403
100
AcDbEntity
  8
MD_狭い可視
100
AcDbCircle
 10
140.0358021035881
 20
76.24373068024215
 30
0.0000000000000036
 40
0.2000000000000001
100
AcDbArc
 50
180.0
 51
270.0
  0
LINE
  5
413
330
403
100
AcDbEntity
  8
MD_狭い可視
100
AcDbLine
 10
139.5358021035881
 20
76.24373068024215
 30
0.0000000000000036
 11
139.8358021035874
 21
76.24373068024215
 31
0.0000000000000035
210
0.0
220
0.0
230
-1.0
  0
LINE
  5
414
330
403
100
AcDbEntity
  8
MD_狭い可視
100
AcDbLine
 10
140.0358021035881
 20
75.74373068024397
 30
0.0000000000000036
 11
140.0358021035881
 21
76.04373068024324
 31
0.0000000000000035
210
0.0
220
0.0
230
-1.0
  0
LINE
  5
415
330
403
100
AcDbEntity
  8
MD_狭い可視
100
AcDbLine
 10
160.695802103588
 20
74.64373068024361
 30
-0.0000000000000009
 11
160.695802103588
 21
82.04373068024324
 31
-0.0000000000000027
210
0.0
220
0.0
230
-1.0
  0
LINE
  5
416
330
403
100
AcDbEntity
  8
MD_狭い可視
100
AcDbLine
 10
160.695802103588
 20
82.04373068024324
 30
-0.0000000000000027
 11
140.5558021035886
 21
82.04373068024324
 31
0.0000000000000018
210
0.0
220
0.0
230
-1.0
  0
LINE
  5
417
330
403
100
AcDbEntity
  8
MD_可視
100
AcDbLine
 10
140.5558021035886
 20
80.54373068024323
 30
0.0000000000000018
 11
140.5558021035886
 21
82.04373068024324
 31
0.0000000000000018
210
0.0
220
0.0
230
-1.0
  0
LINE
  5
418
330
403
100
AcDbEntity
  8
MD_可視
100
AcDbLine
 10
140.5558021035886
 20
80.54373068024323
 30
0.0000000000000018
 11
139.8358021035874
 21
80.54373068024323
 31
0.0000000000000027
210
0.0
220
0.0
230
-1.0
  0
LINE
  5
419
330
403
100
AcDbEntity
  8
MD_狭い可視
100
AcDbLine
 10
139.8358021035874
 20
80.54373068024323
 30
0.0000000000000027
 11
139.8358021035874
 21
76.24373068024215
 31
0.0000000000000036
210
0.0
220
0.0
230
-1.0
  0
LINE
  5
41A
330
403
100
AcDbEntity
  8
MD_狭い可視
100
AcDbLine
 10
140.0358021035881
 20
76.04373068024324
 30
0.0000000000000036
 11
153.3458021035876
 21
76.04373068024324
 31
0.0000000000000009
210
0.0
220
0.0
230
-1.0
  0
LINE
  5
41B
330
403
100
AcDbEntity
  8
MD_狭い可視
100
AcDbLine
 10
153.3458021035876
 20
76.04373068024324
 30
0.0000000000000009
 11
153.3458021035876
 21
74.64373068024361
 31
0.0000000000000009
210
0.0
220
0.0
230
-1.0
  0
LINE
  5
41C
330
403
100
AcDbEntity
  8
MD_狭い可視
100
AcDbLine
 10
160.9958021035872
 20
82.04373068024324
 30
-0.0000000000000028
 11
160.695802103588
 21
82.04373068024324
 31
-0.0000000000000027
210
0.0
220
0.0
230
-1.0
  0
LINE
  5
41D
330
403
100
AcDbEntity
  8
MD_狭い可視
100
AcDbLine
 10
160.695802103588
 20
82.34373068024252
 30
-0.0000000000000028
 11
160.695802103588
 21
82.04373068024324
 31
-0.0000000000000027
210
0.0
220
0.0
230
-1.0
  0
ARC
  5
41E
330
403
100
AcDbEntity
  8
MD_可視
100
AcDbCircle
 10
-160.695802103588
 20
82.04373068024324
 30
0.0000000000000027
 40
0.3
210
0.0
220
0.0
230
-1.0
100
AcDbArc
 50
90.0
 51
180.0
  0
LINE
  5
41F
330
403
100
AcDbEntity
  8
MD_可視
100
AcDbLine
 10
160.695802103588
 20
82.34373068024252
 30
-0.0000000000000027
 11
140.8558021035878
 21
82.34373068024252
 31
0.0000000000000018
210
0.0
220
0.0
230
-1.0
  0
ELLIPSE
  5
420
330
403
100
AcDbEntity
  8
MD_可視
100
AcDbEllipse
 10
140.8558021035878
 20
82.04373068024324
 30
0.0000000000000018
 11
0.0
 21
-0.3000000000000001
 31
0.0000000000000001
210
0.0000000000000002
220
0.0000000000000003
230
1.0
 40
1.0
 41
3.141592653589796
 42
4.712388980384689
  0
LINE
  5
421
330
403
100
AcDbEntity
  8
MD_可視
100
AcDbLine
 10
142.0958021035876
 20
83.48373068024375
 30
0.0000000000000009
 11
138.9958021035872
 21
83.48373068024375
 31
0.0000000000000018
210
0.0
220
0.0
230
-1.0
  0
ELLIPSE
  5
422
330
403
100
AcDbEntity
  8
MD_可視
100
AcDbEllipse
 10
138.9958021036836
 20
82.98373068016735
 30
0.0000000000000018
 11
0.3988735953211981
 21
-0.3014960282969521
 31
0.0
210
-0.0000000000000002
220
-0.0000000000000002
230
-1.0
 40
0.9999999998484039
 41
2.494346205229263
 42
4.065142531828422
  0
LINE
  5
423
330
403
100
AcDbEntity
  8
MD_可視
100
AcDbLine
 10
138.4958021035872
 20
80.54373068024323
 30
0.0000000000000026
 11
138.9958021035872
 21
80.54373068024323
 31
0.0000000000000025
210
0.0
220
0.0
230
-1.0
  0
LINE
  5
424
330
403
100
AcDbEntity
  8
MD_狭い可視
100
AcDbLine
 10
138.9958021035872
 20
83.48373068024375
 30
0.0000000000000018
 11
138.9958021035872
 21
80.54373068024323
 31
0.0000000000000027
210
0.0
220
0.0
230
-1.0
  0
LINE
  5
425
330
403
100
AcDbEntity
  8
MD_可視
100
AcDbLine
 10
138.4958021035872
 20
82.98373068024375
 30
0.0000000000000018
 11
138.4958021035872
 21
80.54373068024323
 31
0.0000000000000027
210
0.0
220
0.0
230
-1.0
  0
LINE
  5
426
330
403
100
AcDbEntity
  8
MD_可視
100
AcDbLine
 10
138.9958021035872
 20
80.54373068024323
 30
0.0000000000000027
 11
139.3358021035874
 21
80.54373068024323
 31
0.0000000000000022
210
0.0
220
0.0
230
-1.0
  0
ARC
  5
427
330
403
100
AcDbEntity
  8
MD_可視
100
AcDbCircle
 10
-142.6989562215913
 20
82.65981342361374
 30
-0.0000000000000009
 40
0.3169296670192001
210
0.0
220
0.0
230
-1.0
100
AcDbArc
 50
274.1896242382602
 51
5.723412407277209
  0
ARC
  5
428
330
403
100
AcDbEntity
  8
MD_可視
100
AcDbCircle
 10
-142.6836064798644
 20
82.69141966080679
 30
-0.0000000000000009
 40
0.3
210
0.0
220
0.0
230
-1.0
100
AcDbArc
 50
0.0
 51
76.99999999987304
  0
LINE
  5
429
330
403
100
AcDbEntity
  8
MD_可視
100
AcDbLine
 10
142.6161211635608
 20
82.98373068024375
 30
0.0000000000000009
 11
146.4258021035875
 21
83.86326482763251
 31
0.0
210
0.0
220
0.0
230
-1.0
  0
LINE
  5
42A
330
403
100
AcDbEntity
  8
MD_可視
100
AcDbLine
 10
146.4258021035875
 20
83.86326482763251
 30
0.0
 11
146.4258021035875
 21
85.12326482763274
 31
-0.0000000000000004
210
0.0
220
0.0
230
-1.0
  0
LINE
  5
42B
330
403
100
AcDbEntity
  8
MD_可視
100
AcDbLine
 10
146.4258021035875
 20
85.12326482763274
 30
-0.0000000000000004
 11
146.2258021035868
 21
85.12326482763274
 31
-0.0000000000000004
210
0.0
220
0.0
230
-1.0
  0
LINE
  5
42C
330
403
100
AcDbEntity
  8
MD_可視
100
AcDbLine
 10
146.2258021035868
 20
85.12326482763274
 30
-0.0000000000000004
 11
144.5058021035874
 21
84.04012302085538
 31
0.0000000000000004
210
0.0
220
0.0
230
-1.0
  0
LINE
  5
42D
330
403
100
AcDbEntity
  8
MD_可視
100
AcDbLine
 10
144.5058021035874
 20
84.04012302085538
 30
0.0000000000000004
 11
142.0958021035876
 21
83.48373068024375
 31
0.0000000000000009
210
0.0
220
0.0
230
-1.0
  0
LINE
  5
42E
330
403
100
AcDbEntity
  8
MD_可視
100
AcDbLine
 10
145.5058021035875
 20
85.10501486117936
 30
-0.0000000000000002
 11
144.5058021035874
 21
84.04012302085538
 31
0.0000000000000002
210
0.0
220
0.0
230
-1.0
  0
ARC
  5
42F
330
403
100
AcDbEntity
  8
MD_可視
100
AcDbCircle
 10
-153.6997763925556
 20
77.06096253973374
 30
-0.0000000000000002
 40
9.360000000000002
210
0.0
220
0.0
230
-1.0
100
AcDbArc
 50
76.56594506163123
 51
141.2725668104029
  0
ARC
  5
430
330
403
100
AcDbEntity
  8
MD_可視
100
AcDbCircle
 10
-161.2488021035878
 20
83.11023068024224
 30
0.0000000000000031
 40
0.3137694217096001
210
0.0
220
0.0
230
-1.0
100
AcDbArc
 50
141.9248222666247
 51
321.9248222666247
  0
LINE
  5
431
330
403
100
AcDbEntity
  8
MD_可視
100
AcDbLine
 10
161.4958021035872
 20
83.30373068024528
 30
-0.0000000000000032
 11
161.6527335242353
 21
83.42771668434398
 31
-0.0000000000000033
210
0.0
220
0.0
230
-1.0
  0
LINE
  5
432
330
403
100
AcDbEntity
  8
MD_狭い可視
100
AcDbLine
 10
150.7658021035877
 20
86.67308896544273
 30
-0.0000000000000018
 11
150.7082932006669
 21
86.8646428120337
 31
-0.0000000000000018
210
0.0
220
0.0
230
-1.0
  0
ARC
  5
433
330
403
100
AcDbEntity
  8
MD_可視
100
AcDbCircle
 10
153.6570776421067
 20
77.11062977544679
 30
0.0000000000000002
 40
9.990000000000005
100
AcDbArc
 50
38.31102438005277
 51
106.8230541411405
  0
LINE
  5
434
330
403
100
AcDbEntity
  8
MD_可視
100
AcDbLine
 10
150.7658021035877
 20
86.67308896544454
 30
-0.0000000000000018
 11
145.5058021035875
 21
85.10501486117936
 31
-0.0000000000000002
210
0.0
220
0.0
230
-1.0
  0
LINE
  5
435
330
403
100
AcDbEntity
  8
MD_可視
100
AcDbLine
 10
149.5358021035863
 20
86.30641003992241
 30
-0.0000000000000014
 11
149.4786644301057
 21
86.4980745548164
 31
-0.0000000000000015
210
0.0
220
0.0
230
-1.0
  0
LINE
  5
436
330
403
100
AcDbEntity
  8
MD_可視
100
AcDbLine
 10
146.4258021035875
 20
83.86326482763251
 30
0.0
 11
148.0627160473523
 21
84.24117618885611
 31
-0.0000000000000004
210
0.0
220
0.0
230
-1.0
  0
ARC
  5
437
330
403
100
AcDbEntity
  8
MD_可視
100
AcDbCircle
 10
147.215410783363
 20
88.12358790621875
 30
-0.0000000000000013
 40
3.973795031639001
100
AcDbArc
 50
282.3113067756499
 51
310.9722591598076
  0
LINE
  5
438
330
403
100
AcDbEntity
  8
MD_可視
100
AcDbLine
 10
149.8210025352673
 20
85.12326482763274
 30
-0.0000000000000011
 11
150.4931430005053
 21
85.70380868145184
 31
-0.0000000000000016
210
0.0
220
0.0
230
-1.0
  0
ARC
  5
439
330
403
100
AcDbEntity
  8
MD_可視
100
AcDbCircle
 10
-152.2365361729353
 20
83.18684886430128
 30
0.0000000000000011
 40
3.061781585094
210
0.0
220
0.0
230
-1.0
100
AcDbArc
 50
55.29126798892587
 51
76.56594506152988
  0
LINE
  5
43A
330
403
100
AcDbEntity
  8
MD_可視
100
AcDbLine
 10
146.1046929013209
 20
85.28355196217125
 30
-0.0000000000000003
 11
146.0761240645806
 21
85.37938421961735
 31
-0.0000000000000004
210
0.0
220
0.0
230
-1.0
  0
LINE
  5
43B
330
403
100
AcDbEntity
  8
MD_可視
100
AcDbLine
 10
145.933394812293
 20
85.33683478151216
 30
-0.0000000000000003
 11
146.0761240645806
 21
85.37938421961735
 31
-0.0000000000000004
210
0.0
220
0.0
230
-1.0
  0
LINE
  5
43C
330
403
100
AcDbEntity
  8
MD_可視
100
AcDbLine
 10
145.9619636490333
 20
85.24100252406425
 30
-0.0000000000000003
 11
145.933394812293
 21
85.33683478151216
 31
-0.0000000000000003
210
0.0
220
0.0
230
-1.0
  0
LINE
  5
43D
330
403
100
AcDbEntity
  8
MD_可視
100
AcDbLine
 10
146.9134919749358
 20
85.52466543800438
 30
-0.0000000000000007
 11
146.8849231381955
 21
85.62049769545046
 31
-0.0000000000000007
210
0.0
220
0.0
230
-1.0
  0
LINE
  5
43E
330
403
100
AcDbEntity
  8
MD_可視
100
AcDbLine
 10
146.6708292597632
 20
85.55667353829267
 30
-0.0000000000000006
 11
146.8849231381955
 21
85.62049769545046
 31
-0.0000000000000007
210
0.0
220
0.0
230
-1.0
  0
LINE
  5
43F
330
403
100
AcDbEntity
  8
MD_可視
100
AcDbLine
 10
146.6993980965035
 20
85.46084128084658
 30
-0.0000000000000006
 11
146.6708292597632
 21
85.55667353829267
 31
-0.0000000000000006
210
0.0
220
0.0
230
-1.0
  0
LINE
  5
440
330
403
100
AcDbEntity
  8
MD_可視
100
AcDbLine
 10
146.0761240645806
 20
85.37938421961735
 30
-0.0000000000000004
 11
146.6708292597632
 21
85.55667353829267
 31
-0.0000000000000006
210
0.0
220
0.0
230
-1.0
  0
LINE
  5
441
330
403
100
AcDbEntity
  8
MD_可視
100
AcDbLine
 10
147.0752288305994
 20
85.67723028635555
 30
-0.0000000000000007
 11
147.0990170846871
 21
85.68432187289728
 31
-0.0000000000000007
210
0.0
220
0.0
230
-1.0
  0
LINE
  5
442
330
403
100
AcDbEntity
  8
MD_可視
100
AcDbLine
 10
147.0990170846871
 20
85.68432187289728
 30
-0.0000000000000007
 11
147.17038171083
 21
85.70559659195168
 31
-0.0000000000000008
210
0.0
220
0.0
230
-1.0
  0
LINE
  5
443
330
403
100
AcDbEntity
  8
MD_可視
100
AcDbLine
 10
147.17038171083
 20
85.70559659195168
 30
-0.0000000000000008
 11
147.2893227090317
 21
85.74105444351335
 31
-0.0000000000000008
210
0.0
220
0.0
230
-1.0
  0
LINE
  5
444
330
403
100
AcDbEntity
  8
MD_可視
100
AcDbLine
 10
147.2893227090317
 20
85.74105444351335
 30
-0.0000000000000008
 11
147.4082637072333
 21
85.776512295075
 31
-0.0000000000000008
210
0.0
220
0.0
230
-1.0
  0
LINE
  5
445
330
403
100
AcDbEntity
  8
MD_可視
100
AcDbLine
 10
147.4082637072333
 20
85.776512295075
 30
-0.0000000000000008
 11
147.5985694676965
 21
85.83324490626727
 31
-0.0000000000000009
210
0.0
220
0.0
230
-1.0
  0
LINE
  5
446
330
403
100
AcDbEntity
  8
MD_可視
100
AcDbLine
 10
147.5985694676965
 20
85.83324490626727
 30
-0.0000000000000009
 11
147.7175104658981
 21
85.86870275782894
 31
-0.0000000000000009
210
0.0
220
0.0
230
-1.0
  0
LINE
  5
447
330
403
100
AcDbEntity
  8
MD_可視
100
AcDbLine
 10
147.7175104658981
 20
85.86870275782894
 30
-0.0000000000000009
 11
147.8126633461288
 21
85.89706906342508
 31
-0.0000000000000009
210
0.0
220
0.0
230
-1.0
  0
LINE
  5
448
330
403
100
AcDbEntity
  8
MD_可視
100
AcDbLine
 10
147.8126633461288
 20
85.89706906342508
 30
-0.0000000000000009
 11
147.9078160902427
 21
85.9254353284432
 31
-0.000000000000001
210
0.0
220
0.0
230
-1.0
  0
LINE
  5
449
330
403
100
AcDbEntity
  8
MD_可視
100
AcDbLine
 10
147.9078160902427
 20
85.9254353284432
 30
-0.000000000000001
 11
147.9553925984164
 21
85.93961850153027
 31
-0.0000000000000009
210
0.0
220
0.0
230
-1.0
  0
LINE
  5
44A
330
403
100
AcDbEntity
  8
MD_可視
100
AcDbLine
 10
148.1456982227628
 20
85.99635107214453
 30
-0.000000000000001
 11
148.1694864768505
 21
86.00344265868807
 31
-0.0000000000000011
210
0.0
220
0.0
230
-1.0
  0
LINE
  5
44B
330
403
100
AcDbEntity
  8
MD_可視
100
AcDbLine
 10
148.1694864768505
 20
86.00344265868807
 30
-0.0000000000000011
 11
148.2170628489075
 21
86.01762579119712
 31
-0.000000000000001
210
0.0
220
0.0
230
-1.0
  0
LINE
  5
44C
330
403
100
AcDbEntity
  8
MD_可視
100
AcDbLine
 10
148.2170628489075
 20
86.01762579119712
 30
-0.000000000000001
 11
148.3122155930214
 21
86.04599205621525
 31
-0.0000000000000011
210
0.0
220
0.0
230
-1.0
  0
LINE
  5
44D
330
403
100
AcDbEntity
  8
MD_可視
100
AcDbLine
 10
148.3122155930214
 20
86.04599205621525
 30
-0.0000000000000011
 11
148.4073686093688
 21
86.07435840239123
 31
-0.0000000000000011
210
0.0
220
0.0
230
-1.0
  0
LINE
  5
44E
330
403
100
AcDbEntity
  8
MD_可視
100
AcDbLine
 10
148.4073686093688
 20
86.07435840239123
 30
-0.0000000000000011
 11
148.5263094714537
 21
86.10981621337305
 31
-0.0000000000000011
210
0.0
220
0.0
230
-1.0
  0
LINE
  5
44F
330
403
100
AcDbEntity
  8
MD_可視
100
AcDbLine
 10
148.5263094714537
 20
86.10981621337305
 30
-0.0000000000000011
 11
148.740403349886
 21
86.17364037053267
 31
-0.0000000000000012
210
0.0
220
0.0
230
-1.0
  0
LINE
  5
450
330
403
100
AcDbEntity
  8
MD_可視
100
AcDbLine
 10
148.740403349886
 20
86.17364037053267
 30
-0.0000000000000012
 11
148.8593444842044
 21
86.20909826267235
 31
-0.0000000000000012
210
0.0
220
0.0
230
-1.0
  0
LINE
  5
451
330
403
100
AcDbEntity
  8
MD_可視
100
AcDbLine
 10
148.8593444842044
 20
86.20909826267235
 30
-0.0000000000000012
 11
148.9544972283183
 21
86.23746452769045
 31
-0.0000000000000012
210
0.0
220
0.0
230
-1.0
  0
LINE
  5
452
330
403
100
AcDbEntity
  8
MD_可視
100
AcDbLine
 10
148.9544972283183
 20
86.23746452769045
 30
-0.0000000000000012
 11
149.0496502446658
 21
86.26583087386462
 31
-0.0000000000000013
210
0.0
220
0.0
230
-1.0
  0
LINE
  5
453
330
403
100
AcDbEntity
  8
MD_可視
100
AcDbLine
 10
149.0496502446658
 20
86.26583087386462
 30
-0.0000000000000013
 11
149.0734383626368
 21
86.27292241983013
 31
-0.0000000000000013
210
0.0
220
0.0
230
-1.0
  0
LINE
  5
454
330
403
100
AcDbEntity
  8
MD_可視
100
AcDbLine
 10
147.9839614351585
 20
85.84378624408419
 30
-0.0000000000000009
 11
147.9553925984164
 21
85.93961850153027
 31
-0.0000000000000009
210
0.0
220
0.0
230
-1.0
  0
LINE
  5
455
330
403
100
AcDbEntity
  8
MD_可視
100
AcDbLine
 10
147.936384926983
 20
85.8296030709971
 30
-0.0000000000000009
 11
147.9078160902427
 21
85.9254353284432
 31
-0.000000000000001
210
0.0
220
0.0
230
-1.0
  0
LINE
  5
456
330
403
100
AcDbEntity
  8
MD_可視
100
AcDbLine
 10
147.8412321828691
 20
85.80123680597898
 30
-0.0000000000000009
 11
147.8126633461288
 21
85.89706906342508
 31
-0.0000000000000009
210
0.0
220
0.0
230
-1.0
  0
LINE
  5
457
330
403
100
AcDbEntity
  8
MD_可視
100
AcDbLine
 10
147.7460793026384
 20
85.77287050038284
 30
-0.0000000000000009
 11
147.7175104658981
 21
85.86870275782894
 31
-0.0000000000000009
210
0.0
220
0.0
230
-1.0
  0
LINE
  5
458
330
403
100
AcDbEntity
  8
MD_可視
100
AcDbLine
 10
147.6271383044368
 20
85.73741264882119
 30
-0.0000000000000009
 11
147.5985694676965
 21
85.83324490626727
 31
-0.0000000000000009
210
0.0
220
0.0
230
-1.0
  0
LINE
  5
459
330
403
100
AcDbEntity
  8
MD_可視
100
AcDbLine
 10
147.4368325439736
 20
85.68068003762709
 30
-0.0000000000000008
 11
147.4082637072333
 21
85.776512295075
 31
-0.0000000000000008
210
0.0
220
0.0
230
-1.0
  0
LINE
  5
45A
330
403
100
AcDbEntity
  8
MD_可視
100
AcDbLine
 10
147.317891545772
 20
85.64522218606544
 30
-0.0000000000000008
 11
147.2893227090317
 21
85.74105444351335
 31
-0.0000000000000008
210
0.0
220
0.0
230
-1.0
  0
LINE
  5
45B
330
403
100
AcDbEntity
  8
MD_可視
100
AcDbLine
 10
147.1989505475721
 20
85.6097643345056
 30
-0.0000000000000007
 11
147.17038171083
 21
85.70559659195168
 31
-0.0000000000000008
210
0.0
220
0.0
230
-1.0
  0
LINE
  5
45C
330
403
100
AcDbEntity
  8
MD_可視
100
AcDbLine
 10
147.1275859214274
 20
85.58848961545118
 30
-0.0000000000000007
 11
147.0990170846871
 21
85.68432187289728
 31
-0.0000000000000007
210
0.0
220
0.0
230
-1.0
  0
LINE
  5
45D
330
403
100
AcDbEntity
  8
MD_可視
100
AcDbLine
 10
147.1037976673397
 20
85.58139802890764
 30
-0.0000000000000007
 11
147.0752288305994
 21
85.67723028635555
 31
-0.0000000000000007
210
0.0
220
0.0
230
-1.0
  0
LINE
  5
45E
330
403
100
AcDbEntity
  8
MD_可視
100
AcDbLine
 10
149.1020071993771
 20
86.17709016238405
 30
-0.0000000000000013
 11
149.0734383626368
 21
86.27292241983013
 31
-0.0000000000000013
210
0.0
220
0.0
230
-1.0
  0
LINE
  5
45F
330
403
100
AcDbEntity
  8
MD_可視
100
AcDbLine
 10
149.0782190814079
 20
86.16999861641852
 30
-0.0000000000000013
 11
149.0496502446658
 21
86.26583087386462
 31
-0.0000000000000013
210
0.0
220
0.0
230
-1.0
  0
LINE
  5
460
330
403
100
AcDbEntity
  8
MD_可視
100
AcDbLine
 10
148.9830660650586
 20
86.14163227024437
 30
-0.0000000000000012
 11
148.9544972283183
 21
86.23746452769045
 31
-0.0000000000000012
210
0.0
220
0.0
230
-1.0
  0
LINE
  5
461
330
403
100
AcDbEntity
  8
MD_可視
100
AcDbLine
 10
148.8879133209448
 20
86.11326600522625
 30
-0.0000000000000012
 11
148.8593444842044
 21
86.20909826267235
 31
-0.0000000000000012
210
0.0
220
0.0
230
-1.0
  0
LINE
  5
462
330
403
100
AcDbEntity
  8
MD_可視
100
AcDbLine
 10
148.7689721866263
 20
86.07780811308657
 30
-0.0000000000000012
 11
148.740403349886
 21
86.17364037053267
 31
-0.0000000000000012
210
0.0
220
0.0
230
-1.0
  0
LINE
  5
463
330
403
100
AcDbEntity
  8
MD_可視
100
AcDbLine
 10
148.554878308194
 20
86.01398395592696
 30
-0.0000000000000011
 11
148.5263094714537
 21
86.10981621337305
 31
-0.0000000000000011
210
0.0
220
0.0
230
-1.0
  0
LINE
  5
464
330
403
100
AcDbEntity
  8
MD_可視
100
AcDbLine
 10
148.4359374461091
 20
85.97852614494332
 30
-0.0000000000000011
 11
148.4073686093688
 21
86.07435840239123
 31
-0.0000000000000011
210
0.0
220
0.0
230
-1.0
  0
LINE
  5
465
330
403
100
AcDbEntity
  8
MD_可視
100
AcDbLine
 10
148.3407844297599
 20
85.95015979876917
 30
-0.0000000000000011
 11
148.3122155930214
 21
86.04599205621525
 31
-0.0000000000000011
210
0.0
220
0.0
230
-1.0
  0
LINE
  5
466
330
403
100
AcDbEntity
  8
MD_可視
100
AcDbLine
 10
148.245631685646
 20
85.92179353375104
 30
-0.000000000000001
 11
148.2170628489075
 21
86.01762579119712
 31
-0.000000000000001
210
0.0
220
0.0
230
-1.0
  0
LINE
  5
467
330
403
100
AcDbEntity
  8
MD_可視
100
AcDbLine
 10
148.198055313589
 20
85.90761040124197
 30
-0.000000000000001
 11
148.1694864768505
 21
86.00344265868807
 31
-0.0000000000000011
210
0.0
220
0.0
230
-1.0
  0
LINE
  5
468
330
403
100
AcDbEntity
  8
MD_可視
100
AcDbLine
 10
148.1742670595031
 20
85.90051881469845
 30
-0.000000000000001
 11
148.1456982227628
 21
85.99635107214453
 31
-0.000000000000001
210
0.0
220
0.0
230
-1.0
  0
LINE
  5
469
330
403
100
AcDbEntity
  8
MD_可視
100
AcDbLine
 10
140.1358021035885
 20
81.30373068024345
 30
0.0000000000000018
 11
140.5558021035886
 21
81.30373068024345
 31
0.0000000000000018
210
0.0
220
0.0
230
-1.0
  0
LINE
  5
46A
330
403
100
AcDbEntity
  8
MD_可視
100
AcDbLine
 10
140.1358021035885
 20
80.54373068024323
 30
0.0000000000000027
 11
140.1358021035885
 21
81.30373068024345
 31
0.0000000000000018
210
0.0
220
0.0
230
-1.0
  0
LINE
  5
46B
330
403
100
AcDbEntity
  8
MD_可視
100
AcDbLine
 10
139.3358021035874
 20
80.54373068024323
 30
0.0000000000000027
 11
139.5358021035881
 21
80.54373068024323
 31
0.0000000000000027
210
0.0
220
0.0
230
-1.0
  0
LINE
  5
46C
330
403
100
AcDbEntity
  8
MD_可視
100
AcDbLine
 10
139.8358021035874
 20
80.54373068024323
 30
0.0000000000000023
 11
139.5358021035881
 21
80.54373068024323
 31
0.0000000000000024
210
0.0
220
0.0
230
-1.0
  0
LINE
  5
46D
330
403
100
AcDbEntity
  8
MD_可視
100
AcDbLine
 10
139.3358021035874
 20
79.12373068024317
 30
0.0000000000000027
 11
139.3358021035874
 21
80.54373068024323
 31
0.0000000000000027
210
0.0
220
0.0
230
-1.0
  0
LINE
  5
46E
330
403
100
AcDbEntity
  8
MD_可視
100
AcDbLine
 10
139.5358021035881
 20
78.92373068024244
 30
0.0000000000000027
 11
139.3358021035874
 21
79.12373068024317
 31
0.0000000000000027
210
0.0
220
0.0
230
-1.0
  0
LINE
  5
46F
330
403
100
AcDbEntity
  8
MD_可視
100
AcDbLine
 10
153.0458021035883
 20
75.74373068024397
 30
0.0000000000000007
 11
153.3458021035876
 21
76.04373068024324
 31
0.0000000000000006
210
0.0
220
0.0
230
-1.0
  0
LINE
  5
470
330
403
100
AcDbEntity
  8
MD_可視
100
AcDbLine
 10
156.4128979128218
 20
74.19385738968776
 30
0.0000000000000004
 11
156.3263685281763
 21
74.34373068024251
 31
0.0000000000000004
210
0.0
220
0.0
230
-1.0
  0
ARC
  5
471
330
403
100
AcDbEntity
  8
MD_可視
100
AcDbCircle
 10
-155.83293955519
 20
75.37186268179721
 30
0.0
 40
1.313030146198
210
0.0
220
0.0
230
-1.0
100
AcDbArc
 50
231.5381415540816
 51
243.787945063017
  0
LINE
  5
472
330
403
100
AcDbEntity
  8
MD_可視
100
AcDbLine
 10
156.2483126688657
 20
74.34373068024251
 30
0.0000000000000004
 11
156.0293248094767
 21
74.2392788293564
 31
0.0000000000000004
210
0.0
220
0.0
230
-1.0
  0
ARC
  5
473
330
403
100
AcDbEntity
  8
MD_可視
100
AcDbCircle
 10
155.9776634778591
 20
74.34758906347815
 30
0.0000000000000004
 40
0.12
100
AcDbArc
 50
184.3198518478466
 51
295.500000000269
  0
LINE
  5
474
330
403
100
AcDbEntity
  8
MD_可視
100
AcDbLine
 10
155.8580043864549
 20
74.33855015622248
 30
0.0000000000000004
 11
155.857613055754
 21
74.34373068024251
 31
0.0000000000000004
210
0.0
220
0.0
230
-1.0
  0
ARC
  5
475
330
403
100
AcDbEntity
  8
MD_可視
100
AcDbCircle
 10
-153.6570776421067
 20
77.11062977544679
 30
-0.0000000000000002
 40
10.19
210
0.0
220
0.0
230
-1.0
100
AcDbArc
 50
73.17914566034791
 51
141.6889756199472
  0
LINE
  5
476
330
403
100
AcDbEntity
  8
MD_可視
100
AcDbLine
 10
149.4786644301075
 20
86.49807455481459
 30
-0.0000000000000015
 11
150.7082932006669
 21
86.8646428120337
 31
-0.0000000000000018
210
0.0
220
0.0
230
-1.0
  0
LINE
  5
477
330
403
100
AcDbEntity
  8
MD_可視
100
AcDbLine
 10
140.5675830516502
 20
75.74373068024215
 30
0.0000000000000036
 11
140.5675830516502
 21
75.50560920240423
 31
0.0000000000000036
210
0.0
220
0.0
230
-1.0
  0
ARC
  5
478
330
403
100
AcDbEntity
  8
MD_可視
100
AcDbCircle
 10
140.532177646246
 20
75.15740458257823
 30
0.0000000000000036
 40
0.3500000000000001
100
AcDbArc
 50
24.18300688364039
 51
84.19412549907809
  0
ARC
  5
479
330
403
100
AcDbEntity
  8
MD_可視
100
AcDbCircle
 10
-141.30758305165
 20
75.50560920240423
 30
-0.0000000000000036
 40
0.5000000000000001
210
0.0
220
0.0
230
-1.0
100
AcDbArc
 50
270.0
 51
335.8169931164547
  0
LINE
  5
47A
330
403
100
AcDbEntity
  8
MD_可視
100
AcDbLine
 10
141.30758305165
 20
75.00560920240423
 30
0.0000000000000036
 11
143.3275830516504
 21
75.00560920240423
 31
0.0000000000000031
210
0.0
220
0.0
230
-1.0
  0
ARC
  5
47B
330
403
100
AcDbEntity
  8
MD_可視
100
AcDbCircle
 10
-143.3275830516504
 20
75.50560920240423
 30
-0.0000000000000031
 40
0.5000000000000001
210
0.0
220
0.0
230
-1.0
100
AcDbArc
 50
204.1830068835026
 51
270.0
  0
ARC
  5
47C
330
403
100
AcDbEntity
  8
MD_可視
100
AcDbCircle
 10
144.1029884570562
 20
75.15740458257823
 30
0.0000000000000027
 40
0.3500000000000001
100
AcDbArc
 50
95.80587450081821
 51
155.8169931163596
  0
LINE
  5
47D
330
403
100
AcDbEntity
  8
MD_可視
100
AcDbLine
 10
144.0675830516502
 20
75.50560920240423
 30
0.0000000000000027
 11
144.0675830516502
 21
75.74373068024215
 31
0.0000000000000027
210
0.0
220
0.0
230
-1.0
  0
ENDBLK
  5
47E
330
403
100
AcDbEntity
  8
0
100
AcDbBlockEnd
  0
ENDSEC
  0
SECTION
  2
ENTITIES
  0
INSERT
  5
7F
330
70
100
AcDbEntity
  8
MD_可視
100
AcDbBlockReference
  2
CustomObjectsInViewport4_0
 10
0.0
 20
0.0
 30
0.0
  0
INSERT
  5
2E5
330
70
100
AcDbEntity
  8
MD_可視
100
AcDbBlockReference
  2
CustomObjectsInViewport6_0
 10
0.0
 20
0.0
 30
0.0
  0
INSERT
  5
401
330
70
100
AcDbEntity
  8
MD_可視
100
AcDbBlockReference
  2
CustomObjectsInViewport8_0
 10
0.0
 20
0.0
 30
0.0
  0
ENDSEC
  0
SECTION
  2
OBJECTS
  0
DICTIONARY
  5
C
330
0
100
AcDbDictionary
281
     1
  3
ACAD_CIP_PREVIOUS_PRODUCT_INFO
350
48E
  3
ACAD_COLOR
350
63
  3
ACAD_DETAILVIEWSTYLE
350
6A
  3
ACAD_GROUP
350
D
  3
ACAD_LAST_SAVED_VERSION_INFO
350
498
  3
ACAD_LAYOUT
350
62
  3
ACAD_MATERIAL
350
10
  3
ACAD_MLEADERSTYLE
350
66
  3
ACAD_MLINESTYLE
350
5F
  3
ACAD_PLOTSETTINGS
350
61
  3
ACAD_PLOTSTYLENAME
350
E
  3
ACAD_RENDER_ACTIVE_RAPIDRT_SETTINGS
350
497
  3
ACAD_RENDER_RAPIDRT_SETTINGS
350
490
  3
ACAD_SCALELIST
350
42
  3
ACAD_SECTIONVIEWSTYLE
350
68
  3
ACAD_TABLESTYLE
350
64
  3
ACAD_VISUALSTYLE
350
29
  3
ACDB_RECOMPOSE_DATA
350
49C
  3
AcDbVariableDictionary
350
480
  0
DICTIONARY
  5
7D
330
70
100
AcDbDictionary
280
     1
281
     1
  3
ACAD_SORTENTS
360
7E
  0
XRECORD
  5
48E
102
{ACAD_REACTORS
330
C
102
}
330
C
100
AcDbXrecord
280
     1
300
ACD
300
2024
300

  0
DICTIONARY
  5
63
102
{ACAD_REACTORS
330
C
102
}
330
C
100
AcDbDictionary
281
     1
  0
DICTIONARY
  5
6A
102
{ACAD_REACTORS
330
C
102
}
330
C
100
AcDbDictionary
281
     1
  3
Imperial24
350
6B
  3
Metric50
350
489
  0
DICTIONARY
  5
D
102
{ACAD_REACTORS
330
C
102
}
330
C
100
AcDbDictionary
281
     1
  0
XRECORD
  5
498
102
{ACAD_REACTORS
330
C
102
}
330
C
100
AcDbXrecord
280
     1
300
{D47C5D8B-DBC8-1449-B53C-1EFB3C610850}
301
{D72EA1C6-2516-914E-A575-26C11F06C466}
302
{D47C5D8B-DBC8-1449-B53C-1EFB3C610850}
303
C:\Users\dsp199\Desktop\CAD HP UP\プラグ\NSP5E100.dxf
  0
DICTIONARY
  5
62
102
{ACAD_REACTORS
330
C
102
}
330
C
100
AcDbDictionary
281
     1
  3
Model
350
73
  3
レイアウト1
350
6F
  3
レイアウト2
350
77
  0
DICTIONARY
  5
10
102
{ACAD_REACTORS
330
C
102
}
330
C
100
AcDbDictionary
281
     1
  3
ByBlock
350
19
  3
ByLayer
350
11
  3
Global
350
21
  0
DICTIONARY
  5
66
102
{ACAD_REACTORS
330
C
102
}
330
C
100
AcDbDictionary
281
     1
  3
Standard
350
67
  0
DICTIONARY
  5
5F
102
{ACAD_REACTORS
330
C
102
}
330
C
100
AcDbDictionary
281
     1
  3
Standard
350
60
  0
DICTIONARY
  5
61
102
{ACAD_REACTORS
330
C
102
}
330
C
100
AcDbDictionary
281
     1
  0
ACDBDICTIONARYWDFLT
  5
E
102
{ACAD_REACTORS
330
C
102
}
330
C
100
AcDbDictionary
281
     1
  3
Normal
350
F
100
AcDbDictionaryWithDefault
340
F
  0
RAPIDRTRENDERSETTINGS
  5
497
102
{ACAD_REACTORS
330
C
102
}
330
C
100
AcDbRenderSettings
 90
        2
  1
中
290
     1
290
     0
290
     1
290
     1
  1

  1
5 レンダリング レベルを適用
 90
        0
100
AcDbRapidRTRenderSettings
 90
        3
 70
     0
 90
        5
 90
        1
 70
     1
 70
     2
 40
3.0
 40
3.0
290
     1
  0
DICTIONARY
  5
490
102
{ACAD_REACTORS
330
C
102
}
330
C
100
AcDbDictionary
281
     1
  3
オーバーナイト品質
350
496
  3
コーヒー ブレイク品質
350
494
  3
ランチ タイム品質
350
495
  3
中
350
492
  3
低
350
491
  3
高
350
493
  0
DICTIONARY
  5
42
102
{ACAD_REACTORS
330
C
102
}
330
C
100
AcDbDictionary
281
     1
  3
A0
350
43
  3
A1
350
44
  3
A2
350
45
  3
A3
350
46
  3
A4
350
47
  3
A5
350
48
  3
A6
350
49
  3
A7
350
4A
  3
A8
350
4B
  3
A9
350
4C
  3
B0
350
4D
  3
B1
350
4E
  3
B2
350
4F
  3
B3
350
50
  3
B4
350
51
  3
B5
350
52
  3
B6
350
53
  0
DICTIONARY
  5
68
102
{ACAD_REACTORS
330
C
102
}
330
C
100
AcDbDictionary
281
     1
  3
Imperial24
350
69
  3
Metric50
350
488
  0
DICTIONARY
  5
64
102
{ACAD_REACTORS
330
C
102
}
330
C
100
AcDbDictionary
281
     1
  3
Standard
350
65
  0
DICTIONARY
  5
29
102
{ACAD_REACTORS
330
C
102
}
330
C
100
AcDbDictionary
281
     1
  3
2dWireframe
350
2F
  3
Basic
350
2E
  3
Brighten
350
35
  3
ColorChange
350
39
  3
Conceptual
350
32
  3
Dim
350
34
  3
EdgeColorOff
350
41
  3
Facepattern
350
38
  3
Flat
350
2A
  3
FlatWithEdges
350
2B
  3
Gouraud
350
2C
  3
GouraudWithEdges
350
2D
  3
Hidden
350
31
  3
JitterOff
350
3F
  3
Linepattern
350
37
  3
OverhangOff
350
40
  3
Realistic
350
33
  3
Shaded
350
3E
  3
Shaded with edges
350
3D
  3
Shades of Gray
350
3A
  3
Sketchy
350
3B
  3
Thicken
350
36
  3
Wireframe
350
30
  3
X-Ray
350
3C
  0
XRECORD
  5
49C
102
{ACAD_REACTORS
330
C
102
}
330
C
100
AcDbXrecord
280
     1
 90
        1
330
65
  0
DICTIONARY
  5
480
102
{ACAD_REACTORS
330
C
102
}
330
C
100
AcDbDictionary
281
     1
  3
ANNOALLVISIBLE
350
485
  3
CANNOSCALE
350
486
  3
CMLEADERSTYLE
350
482
  3
CTABLESTYLE
350
481
  3
CVIEWDETAILSTYLE
350
483
  3
CVIEWSECTIONSTYLE
350
484
  0
SORTENTSTABLE
  5
7E
102
{ACAD_REACTORS
330
7D
102
}
330
7D
100
AcDbSortentsTable
330
70
  0
ACDBDETAILVIEWSTYLE
  5
6B
102
{ACAD_REACTORS
330
6A
102
}
330
6A
100
AcDbModelDocViewStyle
 70
     0
  3
Imperial24
290
     1
300
Imperial24
 90
        0
100
AcDbDetailViewStyle
 70
     0
 71
     0
 90
        3
 71
     1
340
55
 62
   256
 40
0.24
340
0
 62
   256
 40
0.24
300

 40
0.36
280
     3
 71
     2
340
5D
 90
       25
 62
   256
 71
     3
340
55
 62
   256
 40
0.24
 90
        1
 40
0.75
 90
        1
300
%<\AcVar ViewType \f "%tc1">% %<\AcVar ViewDetailId>%\PSCALE %<\AcVar ViewScale \f "%sn">%
 71
     4
340
5D
 90
       25
 62
   256
340
5D
 90
       25
 62
   256
280
     0
  0
ACDBDETAILVIEWSTYLE
  5
489
102
{ACAD_REACTORS
330
6A
102
}
330
6A
100
AcDbModelDocViewStyle
 70
     0
  3
Metric50
290
     1
300
Metric50
 90
        0
100
AcDbDetailViewStyle
 70
     0
 71
     0
 90
        3
 71
     1
340
55
 62
   256
 40
5.0
340
0
 62
   256
 40
5.0
300

 40
0.0
280
     1
 71
     2
340
5D
 90
       25
 62
   256
 71
     3
340
55
 62
   256
 40
5.0
 90
        0
 40
15.0
 90
        1
300
%<\AcVar ViewDetailId>% (%<\AcVar ViewScale \f "%sn">%)
 71
     4
340
5D
 90
       25
 62
   256
340
5D
 90
       25
 62
   256
280
     0
  0
LAYOUT
  5
73
102
{ACAD_REACTORS
330
62
102
}
330
62
100
AcDbPlotSettings
  1

  2
none_device
  4
ISO_A4_(210.00_x_297.00_MM)
  6

 40
7.5
 41
20.0
 42
7.5
 43
20.0
 44
210.0
 45
297.0
 46
0.0
 47
0.0
 48
0.0
 49
0.0
140
0.0
141
0.0
142
1.0
143
0.8090382021828784
 70
 11952
 72
     1
 73
     1
 74
     0
  7

 75
     0
147
1.236035575701968
 76
     0
 77
     2
 78
   300
148
-53.69788252458329
149
-56.23023206247484
100
AcDbLayout
  1
Model
 70
     1
 71
     0
 10
0.0
 20
0.0
 11
12.0
 21
9.0
 12
0.0
 22
0.0
 32
0.0
 14
0.0
 24
0.0
 34
0.0
 15
0.0
 25
0.0
 35
0.0
146
0.0
 13
0.0
 23
0.0
 33
0.0
 16
1.0
 26
0.0
 36
0.0
 17
0.0
 27
1.0
 37
0.0
 76
     0
330
70
331
57
1001
ACAD_PSEXT
1000
なし
1000
なし
1000
適切ではありません
1000
新しいプロッタ環境設定名を選択しない限り、レイアウトは印刷されません。
1070
     0
  0
LAYOUT
  5
6F
102
{ACAD_REACTORS
330
62
102
}
330
62
100
AcDbPlotSettings
  1

  2
Microsoft Print to PDF
  4

  6

 40
0.0
 41
0.0
 42
0.0
 43
0.0
 44
0.0
 45
0.0
 46
0.0
 47
0.0
 48
0.0
 49
0.0
140
0.0
141
0.0
142
1.0
143
1.0
 70
   688
 72
     0
 73
     0
 74
     5
  7

 75
    16
147
1.0
 76
     0
 77
     2
 78
   300
148
0.0
149
0.0
100
AcDbLayout
  1
レイアウト1
 70
     1
 71
     1
 10
0.0
 20
0.0
 11
12.0
 21
9.0
 12
0.0
 22
0.0
 32
0.0
 14
1.000000000000000E+20
 24
1.000000000000000E+20
 34
1.000000000000000E+20
 15
-1.000000000000000E+20
 25
-1.000000000000000E+20
 35
-1.000000000000000E+20
146
0.0
 13
0.0
 23
0.0
 33
0.0
 16
1.0
 26
0.0
 36
0.0
 17
0.0
 27
1.0
 37
0.0
 76
     0
330
6C
  0
LAYOUT
  5
77
102
{ACAD_REACTORS
330
62
102
}
330
62
100
AcDbPlotSettings
  1

  2
Microsoft Print to PDF
  4

  6

 40
0.0
 41
0.0
 42
0.0
 43
0.0
 44
0.0
 45
0.0
 46
0.0
 47
0.0
 48
0.0
 49
0.0
140
0.0
141
0.0
142
1.0
143
1.0
 70
   688
 72
     0
 73
     0
 74
     5
  7

 75
    16
147
1.0
 76
     0
 77
     2
 78
   300
148
0.0
149
0.0
100
AcDbLayout
  1
レイアウト2
 70
     1
 71
     2
 10
0.0
 20
0.0
 11
12.0
 21
9.0
 12
0.0
 22
0.0
 32
0.0
 14
0.0
 24
0.0
 34
0.0
 15
0.0
 25
0.0
 35
0.0
146
0.0
 13
0.0
 23
0.0
 33
0.0
 16
1.0
 26
0.0
 36
0.0
 17
0.0
 27
1.0
 37
0.0
 76
     0
330
74
  0
MATERIAL
  5
19
102
{ACAD_XDICTIONARY
360
1A
102
}
102
{ACAD_REACTORS
330
10
102
}
330
10
100
AcDbMaterial
  1
ByBlock
 72
     0
 43
0.0208333333333333
 43
0.0
 43
0.0
 43
0.0
 43
0.0
 43
0.0208333333333333
 43
0.0
 43
0.0
 43
0.0
 43
0.0
 43
1.0
 43
0.0
 43
0.0
 43
0.0
 43
0.0
 43
1.0
 77
     0
 47
0.0208333333333333
 47
0.0
 47
0.0
 47
0.0
 47
0.0
 47
0.0208333333333333
 47
0.0
 47
0.0
 47
0.0
 47
0.0
 47
1.0
 47
0.0
 47
0.0
 47
0.0
 47
0.0
 47
1.0
171
     0
 49
0.0208333333333333
 49
0.0
 49
0.0
 49
0.0
 49
0.0
 49
0.0208333333333333
 49
0.0
 49
0.0
 49
0.0
 49
0.0
 49
1.0
 49
0.0
 49
0.0
 49
0.0
 49
0.0
 49
1.0
175
     0
142
0.0208333333333333
142
0.0
142
0.0
142
0.0
142
0.0
142
0.0208333333333333
142
0.0
142
0.0
142
0.0
142
0.0
142
1.0
142
0.0
142
0.0
142
0.0
142
0.0
142
1.0
179
     0
144
0.0208333333333333
144
0.0
144
0.0
144
0.0
144
0.0
144
0.0208333333333333
144
0.0
144
0.0
144
0.0
144
0.0
144
1.0
144
0.0
144
0.0
144
0.0
144
0.0
144
1.0
147
0.0208333333333333
147
0.0
147
0.0
147
0.0
147
0.0
147
0.0208333333333333
147
0.0
147
0.0
147
0.0
147
0.0
147
1.0
147
0.0
147
0.0
147
0.0
147
0.0
147
1.0
  0
MATERIAL
  5
11
102
{ACAD_XDICTIONARY
360
12
102
}
102
{ACAD_REACTORS
330
10
102
}
330
10
100
AcDbMaterial
  1
ByLayer
 72
     0
 43
0.0208333333333333
 43
0.0
 43
0.0
 43
0.0
 43
0.0
 43
0.0208333333333333
 43
0.0
 43
0.0
 43
0.0
 43
0.0
 43
1.0
 43
0.0
 43
0.0
 43
0.0
 43
0.0
 43
1.0
 77
     0
 47
0.0208333333333333
 47
0.0
 47
0.0
 47
0.0
 47
0.0
 47
0.0208333333333333
 47
0.0
 47
0.0
 47
0.0
 47
0.0
 47
1.0
 47
0.0
 47
0.0
 47
0.0
 47
0.0
 47
1.0
171
     0
 49
0.0208333333333333
 49
0.0
 49
0.0
 49
0.0
 49
0.0
 49
0.0208333333333333
 49
0.0
 49
0.0
 49
0.0
 49
0.0
 49
1.0
 49
0.0
 49
0.0
 49
0.0
 49
0.0
 49
1.0
175
     0
142
0.0208333333333333
142
0.0
142
0.0
142
0.0
142
0.0
142
0.0208333333333333
142
0.0
142
0.0
142
0.0
142
0.0
142
1.0
142
0.0
142
0.0
142
0.0
142
0.0
142
1.0
179
     0
144
0.0208333333333333
144
0.0
144
0.0
144
0.0
144
0.0
144
0.0208333333333333
144
0.0
144
0.0
144
0.0
144
0.0
144
1.0
144
0.0
144
0.0
144
0.0
144
0.0
144
1.0
147
0.0208333333333333
147
0.0
147
0.0
147
0.0
147
0.0
147
0.0208333333333333
147
0.0
147
0.0
147
0.0
147
0.0
147
1.0
147
0.0
147
0.0
147
0.0
147
0.0
147
1.0
  0
MATERIAL
  5
21
102
{ACAD_XDICTIONARY
360
22
102
}
102
{ACAD_REACTORS
330
10
102
}
330
10
100
AcDbMaterial
  1
Global
 72
     0
 43
0.0208333333333333
 43
0.0
 43
0.0
 43
0.0
 43
0.0
 43
0.0208333333333333
 43
0.0
 43
0.0
 43
0.0
 43
0.0
 43
1.0
 43
0.0
 43
0.0
 43
0.0
 43
0.0
 43
1.0
 77
     0
 47
0.0208333333333333
 47
0.0
 47
0.0
 47
0.0
 47
0.0
 47
0.0208333333333333
 47
0.0
 47
0.0
 47
0.0
 47
0.0
 47
1.0
 47
0.0
 47
0.0
 47
0.0
 47
0.0
 47
1.0
171
     0
 49
0.0208333333333333
 49
0.0
 49
0.0
 49
0.0
 49
0.0
 49
0.0208333333333333
 49
0.0
 49
0.0
 49
0.0
 49
0.0
 49
1.0
 49
0.0
 49
0.0
 49
0.0
 49
0.0
 49
1.0
175
     0
142
0.0208333333333333
142
0.0
142
0.0
142
0.0
142
0.0
142
0.0208333333333333
142
0.0
142
0.0
142
0.0
142
0.0
142
1.0
142
0.0
142
0.0
142
0.0
142
0.0
142
1.0
179
     0
144
0.0208333333333333
144
0.0
144
0.0
144
0.0
144
0.0
144
0.0208333333333333
144
0.0
144
0.0
144
0.0
144
0.0
144
1.0
144
0.0
144
0.0
144
0.0
144
0.0
144
1.0
147
0.0208333333333333
147
0.0
147
0.0
147
0.0
147
0.0
147
0.0208333333333333
147
0.0
147
0.0
147
0.0
147
0.0
147
1.0
147
0.0
147
0.0
147
0.0
147
0.0
147
1.0
  0
MLEADERSTYLE
  5
67
102
{ACAD_REACTORS
330
66
102
}
330
66
100
AcDbMLeaderStyle
179
     2
170
     2
171
     1
172
     0
 90
        2
 40
0.0
 41
0.0
173
     1
 91
-1056964608
340
5B
 92
       -2
290
     1
 42
0.09
291
     1
 43
0.36
  3
Standard
 44
0.18
300

342
55
174
     1
178
     6
175
     1
176
     0
 93
-1056964608
 45
0.18
292
     0
297
     0
 46
0.18
 94
-1056964608
 47
1.0
 49
1.0
140
1.0
293
     1
141
0.0
294
     1
177
     0
142
1.0
295
     1
296
     0
143
0.125
271
     0
272
     9
273
     9
298
     1
  0
MLINESTYLE
  5
60
102
{ACAD_REACTORS
330
5F
102
}
330
5F
100
AcDbMlineStyle
  2
STANDARD
 70
     0
  3

 62
   256
 51
90.0
 52
90.0
 71
     2
 49
0.5
 62
   256
  6
BYLAYER
 49
-0.5
 62
   256
  6
BYLAYER
  0
ACDBPLACEHOLDER
  5
F
102
{ACAD_REACTORS
330
E
102
}
330
E
  0
RAPIDRTRENDERSETTINGS
  5
496
102
{ACAD_REACTORS
330
490
102
}
330
490
100
AcDbRenderSettings
 90
        2
  1
オーバーナイト品質
290
     1
290
     0
290
     1
290
     1
  1

  1
12 時間のレンダリング
 90
        5
100
AcDbRapidRTRenderSettings
 90
        3
 70
     1
 90
        1
 90
      720
 70
     2
 70
     2
 40
3.0
 40
3.0
290
     1
  0
RAPIDRTRENDERSETTINGS
  5
494
102
{ACAD_REACTORS
330
490
102
}
330
490
100
AcDbRenderSettings
 90
        2
  1
コーヒー ブレイク品質
290
     1
290
     0
290
     1
290
     1
  1

  1
10 分のレンダリング
 90
        3
100
AcDbRapidRTRenderSettings
 90
        3
 70
     1
 90
        1
 90
       10
 70
     1
 70
     2
 40
3.0
 40
3.0
290
     1
  0
RAPIDRTRENDERSETTINGS
  5
495
102
{ACAD_REACTORS
330
490
102
}
330
490
100
AcDbRenderSettings
 90
        2
  1
ランチ タイム品質
290
     1
290
     0
290
     1
290
     1
  1

  1
60 分のレンダリング
 90
        4
100
AcDbRapidRTRenderSettings
 90
        3
 70
     1
 90
        1
 90
       60
 70
     2
 70
     2
 40
3.0
 40
3.0
290
     1
  0
RAPIDRTRENDERSETTINGS
  5
492
102
{ACAD_REACTORS
330
490
102
}
330
490
100
AcDbRenderSettings
 90
        2
  1
中
290
     1
290
     0
290
     1
290
     1
  1

  1
5 レンダリング レベルを適用
 90
        1
100
AcDbRapidRTRenderSettings
 90
        3
 70
     0
 90
        5
 90
        1
 70
     1
 70
     2
 40
3.0
 40
3.0
290
     1
  0
RAPIDRTRENDERSETTINGS
  5
491
102
{ACAD_REACTORS
330
490
102
}
330
490
100
AcDbRenderSettings
 90
        2
  1
低
290
     1
290
     0
290
     1
290
     1
  1

  1
1 レンダリング レベルを適用
 90
        0
100
AcDbRapidRTRenderSettings
 90
        3
 70
     0
 90
        1
 90
        1
 70
     0
 70
     2
 40
3.0
 40
3.0
290
     1
  0
RAPIDRTRENDERSETTINGS
  5
493
102
{ACAD_REACTORS
330
490
102
}
330
490
100
AcDbRenderSettings
 90
        2
  1
高
290
     1
290
     0
290
     1
290
     1
  1

  1
10 レンダリング レベルを適用
 90
        2
100
AcDbRapidRTRenderSettings
 90
        3
 70
     0
 90
       10
 90
        1
 70
     2
 70
     2
 40
3.0
 40
3.0
290
     1
  0
SCALE
  5
43
102
{ACAD_REACTORS
330
42
102
}
330
42
100
AcDbScale
 70
     0
300
1:1
140
1.0
141
1.0
290
     1
  0
SCALE
  5
44
102
{ACAD_REACTORS
330
42
102
}
330
42
100
AcDbScale
 70
     0
300
1:2
140
1.0
141
2.0
290
     0
  0
SCALE
  5
45
102
{ACAD_REACTORS
330
42
102
}
330
42
100
AcDbScale
 70
     0
300
1:4
140
1.0
141
4.0
290
     0
  0
SCALE
  5
46
102
{ACAD_REACTORS
330
42
102
}
330
42
100
AcDbScale
 70
     0
300
1:5
140
1.0
141
5.0
290
     0
  0
SCALE
  5
47
102
{ACAD_REACTORS
330
42
102
}
330
42
100
AcDbScale
 70
     0
300
1:8
140
1.0
141
8.0
290
     0
  0
SCALE
  5
48
102
{ACAD_REACTORS
330
42
102
}
330
42
100
AcDbScale
 70
     0
300
1:10
140
1.0
141
10.0
290
     0
  0
SCALE
  5
49
102
{ACAD_REACTORS
330
42
102
}
330
42
100
AcDbScale
 70
     0
300
1:16
140
1.0
141
16.0
290
     0
  0
SCALE
  5
4A
102
{ACAD_REACTORS
330
42
102
}
330
42
100
AcDbScale
 70
     0
300
1:20
140
1.0
141
20.0
290
     0
  0
SCALE
  5
4B
102
{ACAD_REACTORS
330
42
102
}
330
42
100
AcDbScale
 70
     0
300
1:30
140
1.0
141
30.0
290
     0
  0
SCALE
  5
4C
102
{ACAD_REACTORS
330
42
102
}
330
42
100
AcDbScale
 70
     0
300
1:40
140
1.0
141
40.0
290
     0
  0
SCALE
  5
4D
102
{ACAD_REACTORS
330
42
102
}
330
42
100
AcDbScale
 70
     0
300
1:50
140
1.0
141
50.0
290
     0
  0
SCALE
  5
4E
102
{ACAD_REACTORS
330
42
102
}
330
42
100
AcDbScale
 70
     0
300
1:100
140
1.0
141
100.0
290
     0
  0
SCALE
  5
4F
102
{ACAD_REACTORS
330
42
102
}
330
42
100
AcDbScale
 70
     0
300
2:1
140
2.0
141
1.0
290
     0
  0
SCALE
  5
50
102
{ACAD_REACTORS
330
42
102
}
330
42
100
AcDbScale
 70
     0
300
4:1
140
4.0
141
1.0
290
     0
  0
SCALE
  5
51
102
{ACAD_REACTORS
330
42
102
}
330
42
100
AcDbScale
 70
     0
300
8:1
140
8.0
141
1.0
290
     0
  0
SCALE
  5
52
102
{ACAD_REACTORS
330
42
102
}
330
42
100
AcDbScale
 70
     0
300
10:1
140
10.0
141
1.0
290
     0
  0
SCALE
  5
53
102
{ACAD_REACTORS
330
42
102
}
330
42
100
AcDbScale
 70
     0
300
100:1
140
100.0
141
1.0
290
     0
  0
ACDBSECTIONVIEWSTYLE
  5
69
102
{ACAD_REACTORS
330
68
102
}
330
68
100
AcDbModelDocViewStyle
 70
     0
  3
Imperial24
290
     1
300
Imperial24
 90
        0
100
AcDbSectionViewStyle
 70
     0
 71
     0
 90
       78
 71
     1
340
55
 62
   256
 40
0.24
340
0
340
0
 62
   256
 40
0.24
300
I, O, Q, S, X, Z
 40
0.48
 90
        3
 40
0.18
 90
        1
 71
     2
340
5D
 90
       25
 62
   256
340
5D
 90
       50
 62
   256
 40
0.24
 40
0.0
 40
0.24
 71
     3
340
55
 62
   256
 40
0.24
 90
        1
 40
0.75
 90
        1
300
%<\AcVar ViewType \f "%tc1">% %<\AcVar ViewSectionStartId>%-%<\AcVar ViewSectionEndId>%\PSCALE %<\AcVar ViewScale \f "%sn">%
 71
     4
 62
   256
 62
   257
300
ANSI31
 40
1.0
 90
        0
290
     0
290
     0
 90
        6
 40
0.0
 40
1.570796326794896
 40
0.2617993877991494
 40
1.308996938995747
 40
-0.2617993877991494
 40
1.832595714594046
  0
ACDBSECTIONVIEWSTYLE
  5
488
102
{ACAD_REACTORS
330
68
102
}
330
68
100
AcDbModelDocViewStyle
 70
     0
  3
Metric50
290
     1
300
Metric50
 90
        0
100
AcDbSectionViewStyle
 70
     0
 71
     0
 90
      102
 71
     1
340
55
 62
   256
 40
5.0
340
0
340
0
 62
   256
 40
5.0
300
I, O, Q, S, X, Z
 40
10.0
 90
        0
 40
2.5
 90
        0
 71
     2
340
5D
 90
       25
 62
   256
340
5D
 90
       50
 62
   256
 40
5.0
 40
2.5
 40
5.0
 71
     3
340
55
 62
   256
 40
5.0
 90
        0
 40
15.0
 90
        1
300
%<\AcVar ViewSectionStartId>%-%<\AcVar ViewSectionEndId>% (%<\AcVar ViewScale \f "%sn">%)
 71
     4
 62
   256
 62
   257
300
ANSI31
 40
1.0
 90
        0
290
     0
290
     0
 90
        6
 40
0.0
 40
1.570796326794896
 40
0.2617993877991494
 40
1.308996938995747
 40
-0.2617993877991494
 40
1.832595714594046
  0
TABLESTYLE
  5
65
102
{ACAD_XDICTIONARY
360
49A
102
}
102
{ACAD_REACTORS
330
64
102
}
330
64
100
AcDbTableStyle
280
     0
  3
Standard
 70
     0
 71
     3
 40
1.5
 41
1.5
280
     0
281
     0
  7
Standard
140
4.5
170
     2
 62
     0
 63
     7
283
     0
 90
      512
 91
        0
  1

274
    -2
284
     1
 64
     0
275
    -2
285
     1
 65
     0
276
    -2
286
     1
 66
     0
277
    -2
287
     1
 67
     0
278
    -2
288
     1
 68
     0
279
    -2
289
     1
 69
     0
  7
Standard
140
6.0
170
     5
 62
     0
 63
     7
283
     0
 90
      512
 91
        0
  1

274
    -2
284
     1
 64
     0
275
    -2
285
     1
 65
     0
276
    -2
286
     1
 66
     0
277
    -2
287
     1
 67
     0
278
    -2
288
     1
 68
     0
279
    -2
289
     1
 69
     0
  7
Standard
140
4.5
170
     5
 62
     0
 63
     7
283
     0
 90
      512
 91
        0
  1

274
    -2
284
     1
 64
     0
275
    -2
285
     1
 65
     0
276
    -2
286
     1
 66
     0
277
    -2
287
     1
 67
     0
278
    -2
288
     1
 68
     0
279
    -2
289
     1
 69
     0
  0
VISUALSTYLE
  5
2F
102
{ACAD_REACTORS
330
29
102
}
330
29
100
AcDbVisualStyle
  2
2dWireframe
 70
     4
177
     3
291
     0
 70
    58
 90
        0
176
     1
 90
        2
176
     1
 90
        0
176
     1
 90
        0
176
     1
 40
0.6
176
     1
 40
30.0
176
     1
 62
     7
420
 16777215
176
     1
 90
        1
176
     1
 90
        4
176
     1
 62
     7
176
     1
 62
   257
176
     1
 90
        1
176
     1
 90
        1
176
     1
 40
1.0
176
     1
 90
        0
176
     1
 62
   257
176
     1
 40
1.0
176
     1
 90
        1
176
     1
 90
        6
176
     1
 90
        2
176
     1
 62
     7
176
     1
 90
        5
176
     1
 90
        0
176
     1
 90
        0
176
     1
290
     0
176
     1
 90
        1
176
     1
 40
0.0
176
     1
 90
        0
176
     1
290
     1
176
     1
290
     1
176
     1
290
     0
176
     1
290
     0
176
     1
290
     0
176
     1
290
     0
176
     1
290
     0
176
     1
290
     0
176
     1
290
     0
176
     1
 90
       50
176
     1
 40
0.0
176
     1
 40
1.0
176
     1
 90
        0
176
     1
 62
    18
420
        0
176
     1
 90
       50
176
     1
 90
        3
176
     1
 62
     5
420
      255
176
     1
290
     0
176
     1
 90
       50
176
     1
 90
       50
176
     1
 90
       50
176
     1
290
     0
176
     1
 90
       50
176
     1
 62
   256
176
     0
 40
1.0
176
     0
 90
        2
176
     1
  1
strokes_ogs.tif
176
     1
290
     0
176
     1
 40
1.0
176
     1
 40
1.0
176
     1
  0
VISUALSTYLE
  5
2E
102
{ACAD_REACTORS
330
29
102
}
330
29
100
AcDbVisualStyle
  2
Basic
 70
     7
177
     3
291
     1
 70
    58
 90
        1
176
     1
 90
        0
176
     1
 90
        1
176
     1
 90
        0
176
     1
 40
0.6
176
     1
 40
30.0
176
     1
 62
     7
420
 16777215
176
     1
 90
        0
176
     1
 90
        4
176
     1
 62
     7
176
     1
 62
   257
176
     1
 90
        1
176
     1
 90
        1
176
     1
 40
1.0
176
     1
 90
        8
176
     1
 62
     7
176
     1
 40
1.0
176
     1
 90
        1
176
     1
 90
        6
176
     1
 90
        2
176
     1
 62
     7
176
     1
 90
        5
176
     1
 90
        0
176
     1
 90
        0
176
     1
290
     0
176
     1
 90
        1
176
     1
 40
0.0
176
     1
 90
        0
176
     1
290
     0
176
     1
290
     1
176
     1
290
     1
176
     1
290
     0
176
     1
290
     0
176
     1
290
     0
176
     1
290
     0
176
     1
290
     0
176
     1
290
     0
176
     1
 90
       50
176
     1
 40
0.0
176
     1
 40
1.0
176
     1
 90
        0
176
     1
 62
    18
420
        0
176
     1
 90
       50
176
     1
 90
        3
176
     1
 62
     5
420
      255
176
     1
290
     0
176
     1
 90
       50
176
     1
 90
       50
176
     1
 90
       50
176
     1
290
     0
176
     1
 90
       50
176
     1
 62
   256
176
     0
 40
1.0
176
     0
 90
        2
176
     1
  1
strokes_ogs.tif
176
     1
290
     0
176
     1
 40
1.0
176
     1
 40
1.0
176
     1
  0
VISUALSTYLE
  5
35
102
{ACAD_REACTORS
330
29
102
}
330
29
100
AcDbVisualStyle
  2
Brighten
 70
    12
177
     3
291
     1
 70
    58
 90
        2
176
     1
 90
        2
176
     1
 90
        0
176
     1
 90
        0
176
     1
 40
0.6
176
     1
 40
30.0
176
     1
 62
     7
420
 16777215
176
     1
 90
        1
176
     1
 90
        4
176
     1
 62
     7
176
     1
 62
   257
176
     1
 90
        1
176
     1
 90
        1
176
     1
 40
1.0
176
     1
 90
        8
176
     1
 62
     7
176
     1
 40
1.0
176
     1
 90
        1
176
     1
 90
        6
176
     1
 90
        2
176
     1
 62
     7
176
     1
 90
        5
176
     1
 90
        0
176
     1
 90
        0
176
     1
290
     0
176
     1
 90
        1
176
     1
 40
50.0
176
     1
 90
        0
176
     1
290
     0
176
     1
290
     1
176
     1
290
     1
176
     1
290
     0
176
     1
290
     0
176
     1
290
     0
176
     1
290
     0
176
     1
290
     0
176
     1
290
     0
176
     1
 90
       50
176
     1
 40
0.0
176
     1
 40
1.0
176
     1
 90
        0
176
     1
 62
    18
420
        0
176
     1
 90
       50
176
     1
 90
        3
176
     1
 62
     5
420
      255
176
     1
290
     0
176
     1
 90
       50
176
     1
 90
       50
176
     1
 90
       50
176
     1
290
     0
176
     1
 90
       50
176
     1
 62
   256
176
     0
 40
1.0
176
     0
 90
        2
176
     1
  1
strokes_ogs.tif
176
     1
290
     0
176
     1
 40
1.0
176
     1
 40
1.0
176
     1
  0
VISUALSTYLE
  5
39
102
{ACAD_REACTORS
330
29
102
}
330
29
100
AcDbVisualStyle
  2
ColorChange
 70
    16
177
     3
291
     1
 70
    58
 90
        2
176
     1
 90
        2
176
     1
 90
        3
176
     1
 90
        0
176
     1
 40
0.6
176
     1
 40
30.0
176
     1
 62
     8
420
  8421504
176
     1
 90
        1
176
     1
 90
        4
176
     1
 62
     7
176
     1
 62
   257
176
     1
 90
        1
176
     1
 90
        1
176
     1
 40
1.0
176
     1
 90
        8
176
     1
 62
     8
420
  8421504
176
     1
 40
1.0
176
     1
 90
        1
176
     1
 90
        6
176
     1
 90
        2
176
     1
 62
     7
176
     1
 90
        5
176
     1
 90
        0
176
     1
 90
        0
176
     1
290
     0
176
     1
 90
        1
176
     1
 40
0.0
176
     1
 90
        0
176
     1
290
     0
176
     1
290
     1
176
     1
290
     1
176
     1
290
     0
176
     1
290
     0
176
     1
290
     0
176
     1
290
     0
176
     1
290
     0
176
     1
290
     0
176
     1
 90
       50
176
     1
 40
0.0
176
     1
 40
1.0
176
     1
 90
        0
176
     1
 62
    18
420
        0
176
     1
 90
       50
176
     1
 90
        3
176
     1
 62
     5
420
      255
176
     1
290
     0
176
     1
 90
       50
176
     1
 90
       50
176
     1
 90
       50
176
     1
290
     0
176
     1
 90
       50
176
     1
 62
   256
176
     0
 40
1.0
176
     0
 90
        2
176
     1
  1
strokes_ogs.tif
176
     1
290
     0
176
     1
 40
1.0
176
     1
 40
1.0
176
     1
  0
VISUALSTYLE
  5
32
102
{ACAD_REACTORS
330
29
102
}
330
29
100
AcDbVisualStyle
  2
Conceptual
 70
     9
177
     3
291
     0
 70
    58
 90
        3
176
     1
 90
        2
176
     1
 90
        0
176
     1
 90
        0
176
     1
 40
0.6
176
     1
 40
30.0
176
     1
 62
     7
420
 16777215
176
     1
 90
        2
176
     1
 90
        2
176
     1
 62
     7
176
     1
 62
   257
176
     1
 90
        1
176
     1
 90
        1
176
     1
 40
179.0
176
     1
 90
        8
176
     1
 62
     7
176
     1
 40
1.0
176
     1
 90
        1
176
     1
 90
        6
176
     1
 90
        2
176
     1
 62
     7
176
     1
 90
        3
176
     1
 90
        0
176
     1
 90
        0
176
     1
290
     0
176
     1
 90
        1
176
     1
 40
0.0
176
     1
 90
        0
176
     1
290
     0
176
     1
290
     1
176
     1
290
     1
176
     1
290
     0
176
     1
290
     0
176
     1
290
     0
176
     1
290
     0
176
     1
290
     0
176
     1
290
     0
176
     1
 90
       50
176
     1
 40
0.0
176
     1
 40
1.0
176
     1
 90
        0
176
     1
 62
    18
420
        0
176
     1
 90
       50
176
     1
 90
        3
176
     1
 62
     5
420
      255
176
     1
290
     0
176
     1
 90
       50
176
     1
 90
       50
176
     1
 90
       50
176
     1
290
     0
176
     1
 90
       50
176
     1
 62
   256
176
     0
 40
1.0
176
     0
 90
        2
176
     1
  1
strokes_ogs.tif
176
     1
290
     0
176
     1
 40
1.0
176
     1
 40
1.0
176
     1
  0
VISUALSTYLE
  5
34
102
{ACAD_REACTORS
330
29
102
}
330
29
100
AcDbVisualStyle
  2
Dim
 70
    11
177
     3
291
     1
 70
    58
 90
        2
176
     1
 90
        2
176
     1
 90
        0
176
     1
 90
        0
176
     1
 40
0.6
176
     1
 40
30.0
176
     1
 62
     7
420
 16777215
176
     1
 90
        1
176
     1
 90
        4
176
     1
 62
     7
176
     1
 62
   257
176
     1
 90
        1
176
     1
 90
        1
176
     1
 40
1.0
176
     1
 90
        8
176
     1
 62
     7
176
     1
 40
1.0
176
     1
 90
        1
176
     1
 90
        6
176
     1
 90
        2
176
     1
 62
     7
176
     1
 90
        5
176
     1
 90
        0
176
     1
 90
        0
176
     1
290
     0
176
     1
 90
        1
176
     1
 40
-50.0
176
     1
 90
        0
176
     1
290
     0
176
     1
290
     1
176
     1
290
     1
176
     1
290
     0
176
     1
290
     0
176
     1
290
     0
176
     1
290
     0
176
     1
290
     0
176
     1
290
     0
176
     1
 90
       50
176
     1
 40
0.0
176
     1
 40
1.0
176
     1
 90
        0
176
     1
 62
    18
420
        0
176
     1
 90
       50
176
     1
 90
        3
176
     1
 62
     5
420
      255
176
     1
290
     0
176
     1
 90
       50
176
     1
 90
       50
176
     1
 90
       50
176
     1
290
     0
176
     1
 90
       50
176
     1
 62
   256
176
     0
 40
1.0
176
     0
 90
        2
176
     1
  1
strokes_ogs.tif
176
     1
290
     0
176
     1
 40
1.0
176
     1
 40
1.0
176
     1
  0
VISUALSTYLE
  5
41
102
{ACAD_REACTORS
330
29
102
}
330
29
100
AcDbVisualStyle
  2
EdgeColorOff
 70
    22
177
     3
291
     1
 70
    58
 90
        2
176
     0
 90
        2
176
     0
 90
        0
176
     0
 90
        0
176
     0
 40
0.6
176
     0
 40
30.0
176
     0
 62
     7
420
 16777215
176
     0
 90
        1
176
     0
 90
        4
176
     0
 62
     7
176
     0
 62
   257
176
     0
 90
        1
176
     0
 90
        1
176
     0
 40
1.0
176
     0
 90
        8
176
     2
 62
     7
176
     0
 40
1.0
176
     0
 90
        1
176
     0
 90
        6
176
     0
 90
        2
176
     0
 62
     7
176
     0
 90
        5
176
     0
 90
        0
176
     0
 90
        0
176
     0
290
     0
176
     0
 90
        1
176
     0
 40
0.0
176
     0
 90
        0
176
     0
290
     0
176
     0
290
     1
176
     0
290
     1
176
     0
290
     0
176
     0
290
     0
176
     0
290
     0
176
     0
290
     0
176
     0
290
     0
176
     0
290
     0
176
     0
 90
       50
176
     0
 40
0.0
176
     0
 40
1.0
176
     0
 90
        0
176
     0
 62
    18
420
        0
176
     0
 90
       50
176
     0
 90
        3
176
     0
 62
     5
420
      255
176
     0
290
     0
176
     0
 90
       50
176
     0
 90
       50
176
     0
 90
       50
176
     0
290
     0
176
     0
 90
       50
176
     0
 62
   256
176
     0
 40
1.0
176
     0
 90
        2
176
     0
  1
strokes_ogs.tif
176
     0
290
     0
176
     0
 40
1.0
176
     0
 40
1.0
176
     0
  0
VISUALSTYLE
  5
38
102
{ACAD_REACTORS
330
29
102
}
330
29
100
AcDbVisualStyle
  2
Facepattern
 70
    15
177
     3
291
     1
 70
    58
 90
        2
176
     1
 90
        2
176
     1
 90
        0
176
     1
 90
        0
176
     1
 40
0.6
176
     1
 40
30.0
176
     1
 62
     7
420
 16777215
176
     1
 90
        1
176
     1
 90
        4
176
     1
 62
     7
176
     1
 62
   257
176
     1
 90
        1
176
     1
 90
        1
176
     1
 40
1.0
176
     1
 90
        8
176
     1
 62
     7
176
     1
 40
1.0
176
     1
 90
        1
176
     1
 90
        6
176
     1
 90
        2
176
     1
 62
     7
176
     1
 90
        5
176
     1
 90
        0
176
     1
 90
        0
176
     1
290
     0
176
     1
 90
        1
176
     1
 40
0.0
176
     1
 90
        0
176
     1
290
     0
176
     1
290
     1
176
     1
290
     1
176
     1
290
     0
176
     1
290
     0
176
     1
290
     0
176
     1
290
     0
176
     1
290
     0
176
     1
290
     0
176
     1
 90
       50
176
     1
 40
0.0
176
     1
 40
1.0
176
     1
 90
        0
176
     1
 62
    18
420
        0
176
     1
 90
       50
176
     1
 90
        3
176
     1
 62
     5
420
      255
176
     1
290
     0
176
     1
 90
       50
176
     1
 90
       50
176
     1
 90
       50
176
     1
290
     0
176
     1
 90
       50
176
     1
 62
   256
176
     0
 40
1.0
176
     0
 90
        2
176
     1
  1
strokes_ogs.tif
176
     1
290
     0
176
     1
 40
1.0
176
     1
 40
1.0
176
     1
  0
VISUALSTYLE
  5
2A
102
{ACAD_REACTORS
330
29
102
}
330
29
100
AcDbVisualStyle
  2
Flat
 70
     0
177
     3
291
     1
 70
    58
 90
        2
176
     1
 90
        1
176
     1
 90
        1
176
     1
 90
        2
176
     1
 40
0.6
176
     1
 40
30.0
176
     1
 62
     7
420
 16777215
176
     1
 90
        0
176
     1
 90
        0
176
     1
 62
     7
176
     1
 62
   257
176
     1
 90
        1
176
     1
 90
        1
176
     1
 40
1.0
176
     1
 90
        8
176
     1
 62
     7
176
     1
 40
1.0
176
     1
 90
        1
176
     1
 90
        6
176
     1
 90
        2
176
     1
 62
     7
176
     1
 90
        5
176
     1
 90
        0
176
     1
 90
        0
176
     1
290
     0
176
     1
 90
       13
176
     1
 40
0.0
176
     1
 90
        0
176
     1
290
     0
176
     1
290
     1
176
     1
290
     1
176
     1
290
     0
176
     1
290
     0
176
     1
290
     0
176
     1
290
     0
176
     1
290
     0
176
     1
290
     0
176
     1
 90
       50
176
     1
 40
0.0
176
     1
 40
1.0
176
     1
 90
        0
176
     1
 62
    18
420
        0
176
     1
 90
       50
176
     1
 90
        3
176
     1
 62
     5
420
      255
176
     1
290
     0
176
     1
 90
       50
176
     1
 90
       50
176
     1
 90
       50
176
     1
290
     0
176
     1
 90
       50
176
     1
 62
   256
176
     0
 40
1.0
176
     0
 90
        2
176
     1
  1
strokes_ogs.tif
176
     1
290
     0
176
     1
 40
1.0
176
     1
 40
1.0
176
     1
  0
VISUALSTYLE
  5
2B
102
{ACAD_REACTORS
330
29
102
}
330
29
100
AcDbVisualStyle
  2
FlatWithEdges
 70
     1
177
     3
291
     1
 70
    58
 90
        2
176
     1
 90
        1
176
     1
 90
        1
176
     1
 90
        2
176
     1
 40
0.6
176
     1
 40
30.0
176
     1
 62
     7
420
 16777215
176
     1
 90
        1
176
     1
 90
        0
176
     1
 62
     7
176
     1
 62
   257
176
     1
 90
        1
176
     1
 90
        1
176
     1
 40
1.0
176
     1
 90
        0
176
     1
 62
   257
176
     1
 40
1.0
176
     1
 90
        1
176
     1
 90
        6
176
     1
 90
        2
176
     1
 62
     7
176
     1
 90
        5
176
     1
 90
        0
176
     1
 90
        0
176
     1
290
     0
176
     1
 90
       13
176
     1
 40
0.0
176
     1
 90
        0
176
     1
290
     0
176
     1
290
     1
176
     1
290
     1
176
     1
290
     0
176
     1
290
     0
176
     1
290
     0
176
     1
290
     0
176
     1
290
     0
176
     1
290
     0
176
     1
 90
       50
176
     1
 40
0.0
176
     1
 40
1.0
176
     1
 90
        0
176
     1
 62
    18
420
        0
176
     1
 90
       50
176
     1
 90
        3
176
     1
 62
     5
420
      255
176
     1
290
     0
176
     1
 90
       50
176
     1
 90
       50
176
     1
 90
       50
176
     1
290
     0
176
     1
 90
       50
176
     1
 62
   256
176
     0
 40
1.0
176
     0
 90
        2
176
     1
  1
strokes_ogs.tif
176
     1
290
     0
176
     1
 40
1.0
176
     1
 40
1.0
176
     1
  0
VISUALSTYLE
  5
2C
102
{ACAD_REACTORS
330
29
102
}
330
29
100
AcDbVisualStyle
  2
Gouraud
 70
     2
177
     3
291
     1
 70
    58
 90
        2
176
     1
 90
        2
176
     1
 90
        1
176
     1
 90
        2
176
     1
 40
0.6
176
     1
 40
30.0
176
     1
 62
     7
420
 16777215
176
     1
 90
        0
176
     1
 90
        0
176
     1
 62
     7
176
     1
 62
   257
176
     1
 90
        1
176
     1
 90
        1
176
     1
 40
1.0
176
     1
 90
        0
176
     1
 62
     7
176
     1
 40
1.0
176
     1
 90
        1
176
     1
 90
        6
176
     1
 90
        2
176
     1
 62
     7
176
     1
 90
        5
176
     1
 90
        0
176
     1
 90
        0
176
     1
290
     0
176
     1
 90
       13
176
     1
 40
0.0
176
     1
 90
        0
176
     1
290
     0
176
     1
290
     1
176
     1
290
     1
176
     1
290
     0
176
     1
290
     0
176
     1
290
     0
176
     1
290
     0
176
     1
290
     0
176
     1
290
     0
176
     1
 90
       50
176
     1
 40
0.0
176
     1
 40
1.0
176
     1
 90
        0
176
     1
 62
    18
420
        0
176
     1
 90
       50
176
     1
 90
        3
176
     1
 62
     5
420
      255
176
     1
290
     0
176
     1
 90
       50
176
     1
 90
       50
176
     1
 90
       50
176
     1
290
     0
176
     1
 90
       50
176
     1
 62
   256
176
     0
 40
1.0
176
     0
 90
        2
176
     1
  1
strokes_ogs.tif
176
     1
290
     0
176
     1
 40
1.0
176
     1
 40
1.0
176
     1
  0
VISUALSTYLE
  5
2D
102
{ACAD_REACTORS
330
29
102
}
330
29
100
AcDbVisualStyle
  2
GouraudWithEdges
 70
     3
177
     3
291
     1
 70
    58
 90
        2
176
     1
 90
        2
176
     1
 90
        1
176
     1
 90
        2
176
     1
 40
0.6
176
     1
 40
30.0
176
     1
 62
     7
420
 16777215
176
     1
 90
        1
176
     1
 90
        0
176
     1
 62
     7
176
     1
 62
   257
176
     1
 90
        1
176
     1
 90
        1
176
     1
 40
1.0
176
     1
 90
        0
176
     1
 62
   257
176
     1
 40
1.0
176
     1
 90
        1
176
     1
 90
        6
176
     1
 90
        2
176
     1
 62
     7
176
     1
 90
        5
176
     1
 90
        0
176
     1
 90
        0
176
     1
290
     0
176
     1
 90
       13
176
     1
 40
0.0
176
     1
 90
        0
176
     1
290
     0
176
     1
290
     1
176
     1
290
     1
176
     1
290
     0
176
     1
290
     0
176
     1
290
     0
176
     1
290
     0
176
     1
290
     0
176
     1
290
     0
176
     1
 90
       50
176
     1
 40
0.0
176
     1
 40
1.0
176
     1
 90
        0
176
     1
 62
    18
420
        0
176
     1
 90
       50
176
     1
 90
        3
176
     1
 62
     5
420
      255
176
     1
290
     0
176
     1
 90
       50
176
     1
 90
       50
176
     1
 90
       50
176
     1
290
     0
176
     1
 90
       50
176
     1
 62
   256
176
     0
 40
1.0
176
     0
 90
        2
176
     1
  1
strokes_ogs.tif
176
     1
290
     0
176
     1
 40
1.0
176
     1
 40
1.0
176
     1
  0
VISUALSTYLE
  5
31
102
{ACAD_REACTORS
330
29
102
}
330
29
100
AcDbVisualStyle
  2
Hidden
 70
     6
177
     3
291
     0
 70
    58
 90
        1
176
     1
 90
        2
176
     1
 90
        2
176
     1
 90
        0
176
     1
 40
0.6
176
     1
 40
30.0
176
     1
 62
     7
420
 16777215
176
     1
 90
        2
176
     1
 90
        2
176
     1
 62
     7
176
     1
 62
   257
176
     1
 90
        2
176
     1
 90
        1
176
     1
 40
40.0
176
     1
 90
        0
176
     1
 62
   257
176
     1
 40
1.0
176
     1
 90
        1
176
     1
 90
        6
176
     1
 90
        2
176
     1
 62
     7
176
     1
 90
        3
176
     1
 90
        0
176
     1
 90
        0
176
     1
290
     0
176
     1
 90
        1
176
     1
 40
0.0
176
     1
 90
        0
176
     1
290
     0
176
     1
290
     1
176
     1
290
     1
176
     1
290
     0
176
     1
290
     0
176
     1
290
     0
176
     1
290
     0
176
     1
290
     0
176
     1
290
     0
176
     1
 90
       50
176
     1
 40
0.0
176
     1
 40
1.0
176
     1
 90
        0
176
     1
 62
    18
420
        0
176
     1
 90
       50
176
     1
 90
        3
176
     1
 62
     5
420
      255
176
     1
290
     0
176
     1
 90
       50
176
     1
 90
       50
176
     1
 90
       50
176
     1
290
     0
176
     1
 90
       50
176
     1
 62
   256
176
     0
 40
1.0
176
     0
 90
        2
176
     1
  1
strokes_ogs.tif
176
     1
290
     0
176
     1
 40
1.0
176
     1
 40
1.0
176
     1
  0
VISUALSTYLE
  5
3F
102
{ACAD_REACTORS
330
29
102
}
330
29
100
AcDbVisualStyle
  2
JitterOff
 70
    20
177
     3
291
     1
 70
    58
 90
        2
176
     0
 90
        2
176
     0
 90
        0
176
     0
 90
        0
176
     0
 40
0.6
176
     0
 40
30.0
176
     0
 62
     7
420
 16777215
176
     0
 90
        1
176
     0
 90
        4
176
     0
 62
     7
176
     0
 62
   257
176
     0
 90
        1
176
     0
 90
        1
176
     0
 40
1.0
176
     0
 90
       10
176
     2
 62
     7
176
     0
 40
1.0
176
     0
 90
        1
176
     0
 90
        6
176
     0
 90
        2
176
     0
 62
     7
176
     0
 90
        5
176
     0
 90
        0
176
     0
 90
        0
176
     0
290
     0
176
     0
 90
        1
176
     0
 40
0.0
176
     0
 90
        0
176
     0
290
     0
176
     0
290
     1
176
     0
290
     1
176
     0
290
     0
176
     0
290
     0
176
     0
290
     0
176
     0
290
     0
176
     0
290
     0
176
     0
290
     0
176
     0
 90
       50
176
     0
 40
0.0
176
     0
 40
1.0
176
     0
 90
        0
176
     0
 62
    18
420
        0
176
     0
 90
       50
176
     0
 90
        3
176
     0
 62
     5
420
      255
176
     0
290
     0
176
     0
 90
       50
176
     0
 90
       50
176
     0
 90
       50
176
     0
290
     0
176
     0
 90
       50
176
     0
 62
   256
176
     0
 40
1.0
176
     0
 90
        2
176
     0
  1
strokes_ogs.tif
176
     0
290
     0
176
     0
 40
1.0
176
     0
 40
1.0
176
     0
  0
VISUALSTYLE
  5
37
102
{ACAD_REACTORS
330
29
102
}
330
29
100
AcDbVisualStyle
  2
Linepattern
 70
    14
177
     3
291
     1
 70
    58
 90
        2
176
     1
 90
        2
176
     1
 90
        0
176
     1
 90
        0
176
     1
 40
0.6
176
     1
 40
30.0
176
     1
 62
     7
420
 16777215
176
     1
 90
        1
176
     1
 90
        4
176
     1
 62
     7
176
     1
 62
   257
176
     1
 90
        7
176
     1
 90
        7
176
     1
 40
1.0
176
     1
 90
        8
176
     1
 62
     7
176
     1
 40
1.0
176
     1
 90
        1
176
     1
 90
        6
176
     1
 90
        2
176
     1
 62
     7
176
     1
 90
        5
176
     1
 90
        0
176
     1
 90
        0
176
     1
290
     0
176
     1
 90
        1
176
     1
 40
0.0
176
     1
 90
        0
176
     1
290
     0
176
     1
290
     1
176
     1
290
     1
176
     1
290
     0
176
     1
290
     0
176
     1
290
     0
176
     1
290
     0
176
     1
290
     0
176
     1
290
     0
176
     1
 90
       50
176
     1
 40
0.0
176
     1
 40
1.0
176
     1
 90
        0
176
     1
 62
    18
420
        0
176
     1
 90
       50
176
     1
 90
        3
176
     1
 62
     5
420
      255
176
     1
290
     0
176
     1
 90
       50
176
     1
 90
       50
176
     1
 90
       50
176
     1
290
     0
176
     1
 90
       50
176
     1
 62
   256
176
     0
 40
1.0
176
     0
 90
        2
176
     1
  1
strokes_ogs.tif
176
     1
290
     0
176
     1
 40
1.0
176
     1
 40
1.0
176
     1
  0
VISUALSTYLE
  5
40
102
{ACAD_REACTORS
330
29
102
}
330
29
100
AcDbVisualStyle
  2
OverhangOff
 70
    21
177
     3
291
     1
 70
    58
 90
        2
176
     0
 90
        2
176
     0
 90
        0
176
     0
 90
        0
176
     0
 40
0.6
176
     0
 40
30.0
176
     0
 62
     7
420
 16777215
176
     0
 90
        1
176
     0
 90
        4
176
     0
 62
     7
176
     0
 62
   257
176
     0
 90
        1
176
     0
 90
        1
176
     0
 40
1.0
176
     0
 90
        9
176
     2
 62
     7
176
     0
 40
1.0
176
     0
 90
        1
176
     0
 90
        6
176
     0
 90
        2
176
     0
 62
     7
176
     0
 90
        5
176
     0
 90
        0
176
     0
 90
        0
176
     0
290
     0
176
     0
 90
        1
176
     0
 40
0.0
176
     0
 90
        0
176
     0
290
     0
176
     0
290
     1
176
     0
290
     1
176
     0
290
     0
176
     0
290
     0
176
     0
290
     0
176
     0
290
     0
176
     0
290
     0
176
     0
290
     0
176
     0
 90
       50
176
     0
 40
0.0
176
     0
 40
1.0
176
     0
 90
        0
176
     0
 62
    18
420
        0
176
     0
 90
       50
176
     0
 90
        3
176
     0
 62
     5
420
      255
176
     0
290
     0
176
     0
 90
       50
176
     0
 90
       50
176
     0
 90
       50
176
     0
290
     0
176
     0
 90
       50
176
     0
 62
   256
176
     0
 40
1.0
176
     0
 90
        2
176
     0
  1
strokes_ogs.tif
176
     0
290
     0
176
     0
 40
1.0
176
     0
 40
1.0
176
     0
  0
VISUALSTYLE
  5
33
102
{ACAD_REACTORS
330
29
102
}
330
29
100
AcDbVisualStyle
  2
Realistic
 70
     8
177
     3
291
     0
 70
    58
 90
        2
176
     1
 90
        3
176
     1
 90
        0
176
     1
 90
        2
176
     1
 40
0.6
176
     1
 40
30.0
176
     1
 62
     7
420
 16777215
176
     1
 90
        0
176
     1
 90
        0
176
     1
 62
     7
176
     1
 62
   257
176
     1
 90
        1
176
     1
 90
        1
176
     1
 40
1.0
176
     1
 90
        8
176
     1
 62
   257
176
     1
 40
1.0
176
     1
 90
        1
176
     1
 90
        6
176
     1
 90
        2
176
     1
 62
     7
176
     1
 90
        3
176
     1
 90
        0
176
     1
 90
        0
176
     1
290
     0
176
     1
 90
       13
176
     1
 40
0.0
176
     1
 90
        0
176
     1
290
     0
176
     1
290
     1
176
     1
290
     1
176
     1
290
     0
176
     1
290
     0
176
     1
290
     0
176
     1
290
     0
176
     1
290
     0
176
     1
290
     0
176
     1
 90
       50
176
     1
 40
0.0
176
     1
 40
1.0
176
     1
 90
        0
176
     1
 62
    18
420
        0
176
     1
 90
       50
176
     1
 90
        3
176
     1
 62
     5
420
      255
176
     1
290
     0
176
     1
 90
       50
176
     1
 90
       50
176
     1
 90
       50
176
     1
290
     0
176
     1
 90
       50
176
     1
 62
   256
176
     0
 40
1.0
176
     0
 90
        2
176
     1
  1
strokes_ogs.tif
176
     1
290
     0
176
     1
 40
1.0
176
     1
 40
1.0
176
     1
  0
VISUALSTYLE
  5
3E
102
{ACAD_REACTORS
330
29
102
}
330
29
100
AcDbVisualStyle
  2
Shaded
 70
    27
177
     3
291
     0
 70
    58
 90
        2
176
     1
 90
        2
176
     1
 90
        1
176
     1
 90
        2
176
     1
 40
0.6
176
     1
 40
30.0
176
     1
 62
     7
420
 16777215
176
     1
 90
        0
176
     1
 90
        4
176
     1
 62
     7
176
     1
 62
   257
176
     1
 90
        1
176
     1
 90
        1
176
     1
 40
1.0
176
     1
 90
        8
176
     1
 62
   257
176
     1
 40
1.0
176
     1
 90
        1
176
     1
 90
        6
176
     1
 90
        2
176
     1
 62
     8
420
  7895160
176
     1
 90
        3
176
     1
 90
        0
176
     1
 90
        0
176
     1
290
     0
176
     1
 90
        5
176
     1
 40
0.0
176
     1
 90
        0
176
     1
290
     0
176
     1
290
     1
176
     1
290
     1
176
     1
290
     0
176
     1
290
     0
176
     1
290
     0
176
     1
290
     0
176
     1
290
     0
176
     1
290
     0
176
     1
 90
       50
176
     1
 40
0.0
176
     1
 40
1.0
176
     1
 90
        0
176
     1
 62
    18
420
        0
176
     1
 90
       50
176
     1
 90
        3
176
     1
 62
     5
420
      255
176
     1
290
     0
176
     1
 90
       50
176
     1
 90
       50
176
     1
 90
       50
176
     1
290
     0
176
     1
 90
       50
176
     1
 62
   256
176
     0
 40
1.0
176
     0
 90
        2
176
     1
  1
strokes_ogs.tif
176
     1
290
     0
176
     1
 40
1.0
176
     1
 40
1.0
176
     1
  0
VISUALSTYLE
  5
3D
102
{ACAD_REACTORS
330
29
102
}
330
29
100
AcDbVisualStyle
  2
Shaded with edges
 70
    26
177
     3
291
     0
 70
    58
 90
        2
176
     1
 90
        2
176
     1
 90
        1
176
     1
 90
        2
176
     1
 40
0.6
176
     1
 40
30.0
176
     1
 62
     7
420
 16777215
176
     1
 90
        1
176
     1
 90
        2
176
     1
 62
     7
176
     1
 62
   257
176
     1
 90
        2
176
     1
 90
        1
176
     1
 40
1.0
176
     1
 90
        8
176
     1
 62
   257
176
     1
 40
1.0
176
     1
 90
        1
176
     1
 90
        6
176
     1
 90
        2
176
     1
 62
     7
176
     1
 90
        3
176
     1
 90
        0
176
     1
 90
        0
176
     1
290
     0
176
     1
 90
        5
176
     1
 40
0.0
176
     1
 90
        0
176
     1
290
     0
176
     1
290
     1
176
     1
290
     1
176
     1
290
     0
176
     1
290
     0
176
     1
290
     0
176
     1
290
     0
176
     1
290
     0
176
     1
290
     0
176
     1
 90
       50
176
     1
 40
0.0
176
     1
 40
1.0
176
     1
 90
        0
176
     1
 62
    18
420
        0
176
     1
 90
       50
176
     1
 90
        3
176
     1
 62
     5
420
      255
176
     1
290
     0
176
     1
 90
       50
176
     1
 90
       50
176
     1
 90
       50
176
     1
290
     0
176
     1
 90
       50
176
     1
 62
   256
176
     0
 40
1.0
176
     0
 90
        2
176
     1
  1
strokes_ogs.tif
176
     1
290
     0
176
     1
 40
1.0
176
     1
 40
1.0
176
     1
  0
VISUALSTYLE
  5
3A
102
{ACAD_REACTORS
330
29
102
}
330
29
100
AcDbVisualStyle
  2
Shades of Gray
 70
    23
177
     3
291
     0
 70
    58
 90
        2
176
     1
 90
        2
176
     1
 90
        3
176
     1
 90
        0
176
     1
 40
0.6
176
     1
 40
30.0
176
     1
 62
     7
420
 16777215
176
     1
 90
        2
176
     1
 90
        2
176
     1
 62
     7
176
     1
 62
     7
176
     1
 90
        1
176
     1
 90
        1
176
     1
 40
40.0
176
     1
 90
        8
176
     1
 62
     7
176
     1
 40
1.0
176
     1
 90
        1
176
     1
 90
        6
176
     1
 90
        2
176
     1
 62
     7
176
     1
 90
        3
176
     1
 90
        0
176
     1
 90
        0
176
     1
290
     0
176
     1
 90
        1
176
     1
 40
0.0
176
     1
 90
        0
176
     1
290
     0
176
     1
290
     1
176
     1
290
     1
176
     1
290
     0
176
     1
290
     0
176
     1
290
     0
176
     1
290
     0
176
     1
290
     0
176
     1
290
     0
176
     1
 90
       50
176
     1
 40
0.0
176
     1
 40
1.0
176
     1
 90
        0
176
     1
 62
    18
420
        0
176
     1
 90
       50
176
     1
 90
        3
176
     1
 62
     5
420
      255
176
     1
290
     0
176
     1
 90
       50
176
     1
 90
       50
176
     1
 90
       50
176
     1
290
     0
176
     1
 90
       50
176
     1
 62
   256
176
     0
 40
1.0
176
     0
 90
        2
176
     1
  1
strokes_ogs.tif
176
     1
290
     0
176
     1
 40
1.0
176
     1
 40
1.0
176
     1
  0
VISUALSTYLE
  5
3B
102
{ACAD_REACTORS
330
29
102
}
330
29
100
AcDbVisualStyle
  2
Sketchy
 70
    24
177
     3
291
     0
 70
    58
 90
        1
176
     1
 90
        2
176
     1
 90
        2
176
     1
 90
        0
176
     1
 40
0.6
176
     1
 40
30.0
176
     1
 62
     7
420
 16777215
176
     1
 90
        2
176
     1
 90
        2
176
     1
 62
     7
176
     1
 62
     7
176
     1
 90
        1
176
     1
 90
        1
176
     1
 40
40.0
176
     1
 90
       11
176
     1
 62
     7
176
     1
 40
1.0
176
     1
 90
        1
176
     1
 90
        6
176
     1
 90
        2
176
     1
 62
     7
176
     1
 90
        6
176
     1
 90
        0
176
     1
 90
        0
176
     1
290
     0
176
     1
 90
        1
176
     1
 40
0.0
176
     1
 90
        0
176
     1
290
     0
176
     1
290
     1
176
     1
290
     1
176
     1
290
     0
176
     1
290
     0
176
     1
290
     0
176
     1
290
     0
176
     1
290
     0
176
     1
290
     0
176
     1
 90
       50
176
     1
 40
0.0
176
     1
 40
1.0
176
     1
 90
        0
176
     1
 62
    18
420
        0
176
     1
 90
       50
176
     1
 90
        3
176
     1
 62
     5
420
      255
176
     1
290
     0
176
     1
 90
       50
176
     1
 90
       50
176
     1
 90
       50
176
     1
290
     0
176
     1
 90
       50
176
     1
 62
   256
176
     0
 40
1.0
176
     0
 90
        2
176
     1
  1
strokes_ogs.tif
176
     1
290
     0
176
     1
 40
1.0
176
     1
 40
1.0
176
     1
  0
VISUALSTYLE
  5
36
102
{ACAD_REACTORS
330
29
102
}
330
29
100
AcDbVisualStyle
  2
Thicken
 70
    13
177
     3
291
     1
 70
    58
 90
        2
176
     1
 90
        2
176
     1
 90
        0
176
     1
 90
        0
176
     1
 40
0.6
176
     1
 40
30.0
176
     1
 62
     7
420
 16777215
176
     1
 90
        1
176
     1
 90
        4
176
     1
 62
     7
176
     1
 62
   257
176
     1
 90
        1
176
     1
 90
        1
176
     1
 40
1.0
176
     1
 90
       12
176
     1
 62
     7
176
     1
 40
1.0
176
     1
 90
        1
176
     1
 90
        6
176
     1
 90
        2
176
     1
 62
     7
176
     1
 90
        5
176
     1
 90
        0
176
     1
 90
        0
176
     1
290
     0
176
     1
 90
        1
176
     1
 40
0.0
176
     1
 90
        0
176
     1
290
     0
176
     1
290
     1
176
     1
290
     1
176
     1
290
     0
176
     1
290
     0
176
     1
290
     0
176
     1
290
     0
176
     1
290
     0
176
     1
290
     0
176
     1
 90
       50
176
     1
 40
0.0
176
     1
 40
1.0
176
     1
 90
        0
176
     1
 62
    18
420
        0
176
     1
 90
       50
176
     1
 90
        3
176
     1
 62
     5
420
      255
176
     1
290
     0
176
     1
 90
       50
176
     1
 90
       50
176
     1
 90
       50
176
     1
290
     0
176
     1
 90
       50
176
     1
 62
   256
176
     0
 40
1.0
176
     0
 90
        2
176
     1
  1
strokes_ogs.tif
176
     1
290
     0
176
     1
 40
1.0
176
     1
 40
1.0
176
     1
  0
VISUALSTYLE
  5
30
102
{ACAD_REACTORS
330
29
102
}
330
29
100
AcDbVisualStyle
  2
Wireframe
 70
     5
177
     3
291
     0
 70
    58
 90
        0
176
     1
 90
        2
176
     1
 90
        0
176
     1
 90
        0
176
     1
 40
0.6
176
     1
 40
30.0
176
     1
 62
     7
420
 16777215
176
     1
 90
        1
176
     1
 90
        4
176
     1
 62
     7
176
     1
 62
   257
176
     1
 90
        1
176
     1
 90
        1
176
     1
 40
1.0
176
     1
 90
        0
176
     1
 62
   257
176
     1
 40
1.0
176
     1
 90
        1
176
     1
 90
        6
176
     1
 90
        2
176
     1
 62
     7
176
     1
 90
        3
176
     1
 90
        0
176
     1
 90
        0
176
     1
290
     0
176
     1
 90
        1
176
     1
 40
0.0
176
     1
 90
        0
176
     1
290
     0
176
     1
290
     1
176
     1
290
     1
176
     1
290
     0
176
     1
290
     0
176
     1
290
     0
176
     1
290
     0
176
     1
290
     0
176
     1
290
     0
176
     1
 90
       50
176
     1
 40
0.0
176
     1
 40
1.0
176
     1
 90
        0
176
     1
 62
    18
420
        0
176
     1
 90
       50
176
     1
 90
        3
176
     1
 62
     5
420
      255
176
     1
290
     0
176
     1
 90
       50
176
     1
 90
       50
176
     1
 90
       50
176
     1
290
     0
176
     1
 90
       50
176
     1
 62
   256
176
     0
 40
1.0
176
     0
 90
        2
176
     1
  1
strokes_ogs.tif
176
     1
290
     0
176
     1
 40
1.0
176
     1
 40
1.0
176
     1
  0
VISUALSTYLE
  5
3C
102
{ACAD_REACTORS
330
29
102
}
330
29
100
AcDbVisualStyle
  2
X-Ray
 70
    25
177
     3
291
     0
 70
    58
 90
        2
176
     1
 90
        2
176
     1
 90
        1
176
     1
 90
        1
176
     1
 40
0.5
176
     1
 40
30.0
176
     1
 62
     7
420
 16777215
176
     1
 90
        1
176
     1
 90
        0
176
     1
 62
     7
176
     1
 62
   257
176
     1
 90
        1
176
     1
 90
        1
176
     1
 40
1.0
176
     1
 90
        8
176
     1
 62
     7
176
     1
 40
1.0
176
     1
 90
        1
176
     1
 90
        6
176
     1
 90
        2
176
     1
 62
     7
176
     1
 90
        3
176
     1
 90
        0
176
     1
 90
        0
176
     1
290
     0
176
     1
 90
       13
176
     1
 40
0.0
176
     1
 90
        0
176
     1
290
     0
176
     1
290
     1
176
     1
290
     1
176
     1
290
     0
176
     1
290
     0
176
     1
290
     0
176
     1
290
     0
176
     1
290
     0
176
     1
290
     0
176
     1
 90
       50
176
     1
 40
0.0
176
     1
 40
1.0
176
     1
 90
        0
176
     1
 62
    18
420
        0
176
     1
 90
       50
176
     1
 90
        3
176
     1
 62
     5
420
      255
176
     1
290
     0
176
     1
 90
       50
176
     1
 90
       50
176
     1
 90
       50
176
     1
290
     0
176
     1
 90
       50
176
     1
 62
   256
176
     0
 40
1.0
176
     0
 90
        2
176
     1
  1
strokes_ogs.tif
176
     1
290
     0
176
     1
 40
1.0
176
     1
 40
1.0
176
     1
  0
DICTIONARYVAR
  5
485
102
{ACAD_REACTORS
330
480
102
}
330
480
100
DictionaryVariables
280
     0
  1
0
  0
DICTIONARYVAR
  5
486
102
{ACAD_REACTORS
330
480
102
}
330
480
100
DictionaryVariables
280
     0
  1
1:1
  0
DICTIONARYVAR
  5
482
102
{ACAD_REACTORS
330
480
102
}
330
480
100
DictionaryVariables
280
     0
  1
STANDARD
  0
DICTIONARYVAR
  5
481
102
{ACAD_REACTORS
330
480
102
}
330
480
100
DictionaryVariables
280
     0
  1
STANDARD
  0
DICTIONARYVAR
  5
483
102
{ACAD_REACTORS
330
480
102
}
330
480
100
DictionaryVariables
280
     0
  1
Imperial24
  0
DICTIONARYVAR
  5
484
102
{ACAD_REACTORS
330
480
102
}
330
480
100
DictionaryVariables
280
     0
  1
Imperial24
  0
DICTIONARY
  5
1A
330
19
100
AcDbDictionary
280
     1
281
     1
  3
BUMPTILE
360
1C
  3
DIFFUSETILE
360
1B
  3
OPACITYTILE
360
1F
  3
REFLECTIONTILE
360
1E
  3
REFRACTIONTILE
360
20
  3
SPECULARTILE
360
1D
  0
DICTIONARY
  5
12
330
11
100
AcDbDictionary
280
     1
281
     1
  3
BUMPTILE
360
14
  3
DIFFUSETILE
360
13
  3
OPACITYTILE
360
17
  3
REFLECTIONTILE
360
16
  3
REFRACTIONTILE
360
18
  3
SPECULARTILE
360
15
  0
DICTIONARY
  5
22
330
21
100
AcDbDictionary
280
     1
281
     1
  3
BUMPTILE
360
24
  3
DIFFUSETILE
360
23
  3
OPACITYTILE
360
27
  3
REFLECTIONTILE
360
26
  3
REFRACTIONTILE
360
28
  3
SPECULARTILE
360
25
  0
DICTIONARY
  5
49A
330
65
100
AcDbDictionary
280
     1
281
     1
  3
ACAD_ROUNDTRIP_2008_TABLESTYLE_CELLSTYLEMAP
360
49B
  0
XRECORD
  5
1C
102
{ACAD_REACTORS
330
1A
102
}
330
1A
100
AcDbXrecord
280
     1
270
     1
271
     1
  0
XRECORD
  5
1B
102
{ACAD_REACTORS
330
1A
102
}
330
1A
100
AcDbXrecord
280
     1
270
     1
271
     1
  0
XRECORD
  5
1F
102
{ACAD_REACTORS
330
1A
102
}
330
1A
100
AcDbXrecord
280
     1
270
     1
271
     1
  0
XRECORD
  5
1E
102
{ACAD_REACTORS
330
1A
102
}
330
1A
100
AcDbXrecord
280
     1
270
     1
271
     1
  0
XRECORD
  5
20
102
{ACAD_REACTORS
330
1A
102
}
330
1A
100
AcDbXrecord
280
     1
270
     1
271
     1
  0
XRECORD
  5
1D
102
{ACAD_REACTORS
330
1A
102
}
330
1A
100
AcDbXrecord
280
     1
270
     1
271
     1
  0
XRECORD
  5
14
102
{ACAD_REACTORS
330
12
102
}
330
12
100
AcDbXrecord
280
     1
270
     1
271
     1
  0
XRECORD
  5
13
102
{ACAD_REACTORS
330
12
102
}
330
12
100
AcDbXrecord
280
     1
270
     1
271
     1
  0
XRECORD
  5
17
102
{ACAD_REACTORS
330
12
102
}
330
12
100
AcDbXrecord
280
     1
270
     1
271
     1
  0
XRECORD
  5
16
102
{ACAD_REACTORS
330
12
102
}
330
12
100
AcDbXrecord
280
     1
270
     1
271
     1
  0
XRECORD
  5
18
102
{ACAD_REACTORS
330
12
102
}
330
12
100
AcDbXrecord
280
     1
270
     1
271
     1
  0
XRECORD
  5
15
102
{ACAD_REACTORS
330
12
102
}
330
12
100
AcDbXrecord
280
     1
270
     1
271
     1
  0
XRECORD
  5
24
102
{ACAD_REACTORS
330
22
102
}
330
22
100
AcDbXrecord
280
     1
270
     1
271
     1
  0
XRECORD
  5
23
102
{ACAD_REACTORS
330
22
102
}
330
22
100
AcDbXrecord
280
     1
270
     1
271
     1
  0
XRECORD
  5
27
102
{ACAD_REACTORS
330
22
102
}
330
22
100
AcDbXrecord
280
     1
270
     1
271
     1
  0
XRECORD
  5
26
102
{ACAD_REACTORS
330
22
102
}
330
22
100
AcDbXrecord
280
     1
270
     1
271
     1
  0
XRECORD
  5
28
102
{ACAD_REACTORS
330
22
102
}
330
22
100
AcDbXrecord
280
     1
270
     1
271
     1
  0
XRECORD
  5
25
102
{ACAD_REACTORS
330
22
102
}
330
22
100
AcDbXrecord
280
     1
270
     1
271
     1
  0
CELLSTYLEMAP
  5
49B
102
{ACAD_REACTORS
330
49A
102
}
330
49A
100
AcDbCellStyleMap
 90
        3
300
CELLSTYLE
  1
TABLEFORMAT_BEGIN
 90
        5
170
     1
 91
        0
 92
    32768
 62
   257
 93
        1
300
CONTENTFORMAT
  1
CONTENTFORMAT_BEGIN
 90
        0
 91
        0
 92
      512
 93
        0
300

 40
0.0
140
1.0
 94
        5
 62
     0
340
55
144
6.0
309
CONTENTFORMAT_END
171
     1
301
MARGIN
  1
CELLMARGIN_BEGIN
 40
1.5
 40
1.5
 40
1.5
 40
1.5
 40
4.5
 40
4.5
309
CELLMARGIN_END
 94
        6
 95
        1
302
GRIDFORMAT
  1
GRIDFORMAT_BEGIN
 90
        0
 91
        1
 62
     0
 92
       -2
340
5B
 93
        0
 40
1.125
309
GRIDFORMAT_END
 95
        2
302
GRIDFORMAT
  1
GRIDFORMAT_BEGIN
 90
        0
 91
        1
 62
     0
 92
       -2
340
5B
 93
        0
 40
1.125
309
GRIDFORMAT_END
 95
        4
302
GRIDFORMAT
  1
GRIDFORMAT_BEGIN
 90
        0
 91
        1
 62
     0
 92
       -2
340
5B
 93
        0
 40
1.125
309
GRIDFORMAT_END
 95
        8
302
GRIDFORMAT
  1
GRIDFORMAT_BEGIN
 90
        0
 91
        1
 62
     0
 92
       -2
340
5B
 93
        0
 40
1.125
309
GRIDFORMAT_END
 95
       16
302
GRIDFORMAT
  1
GRIDFORMAT_BEGIN
 90
        0
 91
        1
 62
     0
 92
       -2
340
5B
 93
        0
 40
1.125
309
GRIDFORMAT_END
 95
       32
302
GRIDFORMAT
  1
GRIDFORMAT_BEGIN
 90
        0
 91
        1
 62
     0
 92
       -2
340
5B
 93
        0
 40
1.125
309
GRIDFORMAT_END
309
TABLEFORMAT_END
  1
CELLSTYLE_BEGIN
 90
        1
 91
        1
300
_TITLE
309
CELLSTYLE_END
300
CELLSTYLE
  1
TABLEFORMAT_BEGIN
 90
        5
170
     1
 91
        0
 92
        0
 62
   257
 93
        1
300
CONTENTFORMAT
  1
CONTENTFORMAT_BEGIN
 90
        0
 91
        0
 92
      512
 93
        0
300

 40
0.0
140
1.0
 94
        5
 62
     0
340
55
144
4.5
309
CONTENTFORMAT_END
171
     1
301
MARGIN
  1
CELLMARGIN_BEGIN
 40
1.5
 40
1.5
 40
1.5
 40
1.5
 40
4.5
 40
4.5
309
CELLMARGIN_END
 94
        6
 95
        1
302
GRIDFORMAT
  1
GRIDFORMAT_BEGIN
 90
        0
 91
        1
 62
     0
 92
       -2
340
5B
 93
        0
 40
1.125
309
GRIDFORMAT_END
 95
        2
302
GRIDFORMAT
  1
GRIDFORMAT_BEGIN
 90
        0
 91
        1
 62
     0
 92
       -2
340
5B
 93
        0
 40
1.125
309
GRIDFORMAT_END
 95
        4
302
GRIDFORMAT
  1
GRIDFORMAT_BEGIN
 90
        0
 91
        1
 62
     0
 92
       -2
340
5B
 93
        0
 40
1.125
309
GRIDFORMAT_END
 95
        8
302
GRIDFORMAT
  1
GRIDFORMAT_BEGIN
 90
        0
 91
        1
 62
     0
 92
       -2
340
5B
 93
        0
 40
1.125
309
GRIDFORMAT_END
 95
       16
302
GRIDFORMAT
  1
GRIDFORMAT_BEGIN
 90
        0
 91
        1
 62
     0
 92
       -2
340
5B
 93
        0
 40
1.125
309
GRIDFORMAT_END
 95
       32
302
GRIDFORMAT
  1
GRIDFORMAT_BEGIN
 90
        0
 91
        1
 62
     0
 92
       -2
340
5B
 93
        0
 40
1.125
309
GRIDFORMAT_END
309
TABLEFORMAT_END
  1
CELLSTYLE_BEGIN
 90
        2
 91
        1
300
_HEADER
309
CELLSTYLE_END
300
CELLSTYLE
  1
TABLEFORMAT_BEGIN
 90
        5
170
     1
 91
        0
 92
        0
 62
   257
 93
        1
300
CONTENTFORMAT
  1
CONTENTFORMAT_BEGIN
 90
        0
 91
        0
 92
      512
 93
        0
300

 40
0.0
140
1.0
 94
        2
 62
     0
340
55
144
4.5
309
CONTENTFORMAT_END
171
     1
301
MARGIN
  1
CELLMARGIN_BEGIN
 40
1.5
 40
1.5
 40
1.5
 40
1.5
 40
4.5
 40
4.5
309
CELLMARGIN_END
 94
        6
 95
        1
302
GRIDFORMAT
  1
GRIDFORMAT_BEGIN
 90
        0
 91
        1
 62
     0
 92
       -2
340
5B
 93
        0
 40
1.125
309
GRIDFORMAT_END
 95
        2
302
GRIDFORMAT
  1
GRIDFORMAT_BEGIN
 90
        0
 91
        1
 62
     0
 92
       -2
340
5B
 93
        0
 40
1.125
309
GRIDFORMAT_END
 95
        4
302
GRIDFORMAT
  1
GRIDFORMAT_BEGIN
 90
        0
 91
        1
 62
     0
 92
       -2
340
5B
 93
        0
 40
1.125
309
GRIDFORMAT_END
 95
        8
302
GRIDFORMAT
  1
GRIDFORMAT_BEGIN
 90
        0
 91
        1
 62
     0
 92
       -2
340
5B
 93
        0
 40
1.125
309
GRIDFORMAT_END
 95
       16
302
GRIDFORMAT
  1
GRIDFORMAT_BEGIN
 90
        0
 91
        1
 62
     0
 92
       -2
340
5B
 93
        0
 40
1.125
309
GRIDFORMAT_END
 95
       32
302
GRIDFORMAT
  1
GRIDFORMAT_BEGIN
 90
        0
 91
        1
 62
     0
 92
       -2
340
5B
 93
        0
 40
1.125
309
GRIDFORMAT_END
309
TABLEFORMAT_END
  1
CELLSTYLE_BEGIN
 90
        3
 91
        2
300
_DATA
309
CELLSTYLE_END
  0
ENDSEC
  0
EOF
