  0
SECTION
  2
HEADER
  9
$ACADVER
  1
AC1032
  9
$ACADMAINTVER
 90
      250
  9
$DWGCODEPAGE
  3
ANSI_932
  9
$LASTSAVEDBY
  1
dsp199
  9
$REQUIREDVERSIONS
160
                 0
  9
$INSBASE
 10
0.0
 20
0.0
 30
0.0
  9
$EXTMIN
 10
103.9112741875295
 20
70.0517815040609
 30
-0.0015258207003583
  9
$EXTMAX
 10
167.5392902495975
 20
135.2976053078977
 30
0.0000000349246037
  9
$LIMMIN
 10
0.0
 20
0.0
  9
$LIMMAX
 10
12.0
 20
9.0
  9
$ORTHOMODE
 70
     0
  9
$REGENMODE
 70
     1
  9
$FILLMODE
 70
     1
  9
$QTEXTMODE
 70
     0
  9
$MIRRTEXT
 70
     0
  9
$LTSCALE
 40
1.0
  9
$ATTMODE
 70
     1
  9
$TEXTSIZE
 40
2.5
  9
$TRACEWID
 40
1.0
  9
$TEXTSTYLE
  7
Standard
  9
$CLAYER
  8
0
  9
$CELTYPE
  6
ByLayer
  9
$CECOLOR
 62
   256
  9
$CELTSCALE
 40
1.0
  9
$DISPSILH
 70
     0
  9
$DIMSCALE
 40
1.0
  9
$DIMASZ
 40
2.5
  9
$DIMEXO
 40
0.625
  9
$DIMDLI
 40
3.75
  9
$DIMRND
 40
0.0
  9
$DIMDLE
 40
0.0
  9
$DIMEXE
 40
1.25
  9
$DIMTP
 40
0.0
  9
$DIMTM
 40
0.0
  9
$DIMTXT
 40
2.5
  9
$DIMCEN
 40
2.5
  9
$DIMTSZ
 40
0.0
  9
$DIMTOL
 70
     0
  9
$DIMLIM
 70
     0
  9
$DIMTIH
 70
     0
  9
$DIMTOH
 70
     0
  9
$DIMSE1
 70
     0
  9
$DIMSE2
 70
     0
  9
$DIMTAD
 70
     1
  9
$DIMZIN
 70
     8
  9
$DIMBLK
  1

  9
$DIMASO
 70
     1
  9
$DIMSHO
 70
     1
  9
$DIMPOST
  1

  9
$DIMAPOST
  1

  9
$DIMALT
 70
     0
  9
$DIMALTD
 70
     3
  9
$DIMALTF
 40
0.03937007874016
  9
$DIMLFAC
 40
1.0
  9
$DIMTOFL
 70
     1
  9
$DIMTVP
 40
0.0
  9
$DIMTIX
 70
     0
  9
$DIMSOXD
 70
     0
  9
$DIMSAH
 70
     0
  9
$DIMBLK1
  1

  9
$DIMBLK2
  1

  9
$DIMSTYLE
  2
ISO-25
  9
$DIMCLRD
 70
     0
  9
$DIMCLRE
 70
     0
  9
$DIMCLRT
 70
     0
  9
$DIMTFAC
 40
1.0
  9
$DIMGAP
 40
0.625
  9
$DIMJUST
 70
     0
  9
$DIMSD1
 70
     0
  9
$DIMSD2
 70
     0
  9
$DIMTOLJ
 70
     0
  9
$DIMTZIN
 70
     8
  9
$DIMALTZ
 70
     0
  9
$DIMALTTZ
 70
     0
  9
$DIMUPT
 70
     0
  9
$DIMDEC
 70
     2
  9
$DIMTDEC
 70
     2
  9
$DIMALTU
 70
     2
  9
$DIMALTTD
 70
     3
  9
$DIMTXSTY
  7
Standard
  9
$DIMAUNIT
 70
     0
  9
$DIMADEC
 70
     0
  9
$DIMALTRND
 40
0.0
  9
$DIMAZIN
 70
     0
  9
$DIMDSEP
 70
    44
  9
$DIMATFIT
 70
     3
  9
$DIMFRAC
 70
     0
  9
$DIMLDRBLK
  1

  9
$DIMLUNIT
 70
     2
  9
$DIMLWD
 70
    -2
  9
$DIMLWE
 70
    -2
  9
$DIMTMOVE
 70
     0
  9
$DIMFXL
 40
1.0
  9
$DIMFXLON
 70
     0
  9
$DIMJOGANG
 40
0.7853981633974483
  9
$DIMTFILL
 70
     0
  9
$DIMTFILLCLR
 70
     0
  9
$DIMARCSYM
 70
     0
  9
$DIMLTYPE
  6

  9
$DIMLTEX1
  6

  9
$DIMLTEX2
  6

  9
$DIMTXTDIRECTION
 70
     0
  9
$LUNITS
 70
     2
  9
$LUPREC
 70
     4
  9
$SKETCHINC
 40
1.0
  9
$FILLETRAD
 40
0.0
  9
$AUNITS
 70
     0
  9
$AUPREC
 70
     0
  9
$MENU
  1
.
  9
$ELEVATION
 40
0.0
  9
$PELEVATION
 40
0.0
  9
$THICKNESS
 40
0.0
  9
$LIMCHECK
 70
     0
  9
$CHAMFERA
 40
0.0
  9
$CHAMFERB
 40
0.0
  9
$CHAMFERC
 40
0.0
  9
$CHAMFERD
 40
0.0
  9
$SKPOLY
 70
     0
  9
$TDCREATE
 40
2460391.490092593
  9
$TDUCREATE
 40
2460391.115092593
  9
$TDUPDATE
 40
2460391.491111111
  9
$TDUUPDATE
 40
2460391.116111111
  9
$TDINDWG
 40
0.0006597222
  9
$TDUSRTIMER
 40
0.0006597222
  9
$USRTIMER
 70
     1
  9
$ANGBASE
 50
0.0
  9
$ANGDIR
 70
     0
  9
$PDMODE
 70
     0
  9
$PDSIZE
 40
0.0
  9
$PLINEWID
 40
0.0
  9
$SPLFRAME
 70
     0
  9
$SPLINETYPE
 70
     6
  9
$SPLINESEGS
 70
     8
  9
$HANDSEED
  5
26B
  9
$SURFTAB1
 70
     6
  9
$SURFTAB2
 70
     6
  9
$SURFTYPE
 70
     6
  9
$SURFU
 70
     6
  9
$SURFV
 70
     6
  9
$UCSBASE
  2

  9
$UCSNAME
  2

  9
$UCSORG
 10
0.0
 20
0.0
 30
0.0
  9
$UCSXDIR
 10
1.0
 20
0.0
 30
0.0
  9
$UCSYDIR
 10
0.0
 20
1.0
 30
0.0
  9
$UCSORTHOREF
  2

  9
$UCSORTHOVIEW
 70
     0
  9
$UCSORGTOP
 10
0.0
 20
0.0
 30
0.0
  9
$UCSORGBOTTOM
 10
0.0
 20
0.0
 30
0.0
  9
$UCSORGLEFT
 10
0.0
 20
0.0
 30
0.0
  9
$UCSORGRIGHT
 10
0.0
 20
0.0
 30
0.0
  9
$UCSORGFRONT
 10
0.0
 20
0.0
 30
0.0
  9
$UCSORGBACK
 10
0.0
 20
0.0
 30
0.0
  9
$PUCSBASE
  2

  9
$PUCSNAME
  2

  9
$PUCSORG
 10
0.0
 20
0.0
 30
0.0
  9
$PUCSXDIR
 10
1.0
 20
0.0
 30
0.0
  9
$PUCSYDIR
 10
0.0
 20
1.0
 30
0.0
  9
$PUCSORTHOREF
  2

  9
$PUCSORTHOVIEW
 70
     0
  9
$PUCSORGTOP
 10
0.0
 20
0.0
 30
0.0
  9
$PUCSORGBOTTOM
 10
0.0
 20
0.0
 30
0.0
  9
$PUCSORGLEFT
 10
0.0
 20
0.0
 30
0.0
  9
$PUCSORGRIGHT
 10
0.0
 20
0.0
 30
0.0
  9
$PUCSORGFRONT
 10
0.0
 20
0.0
 30
0.0
  9
$PUCSORGBACK
 10
0.0
 20
0.0
 30
0.0
  9
$USERI1
 70
     0
  9
$USERI2
 70
     0
  9
$USERI3
 70
     0
  9
$USERI4
 70
     0
  9
$USERI5
 70
     0
  9
$USERR1
 40
0.0
  9
$USERR2
 40
0.0
  9
$USERR3
 40
0.0
  9
$USERR4
 40
0.0
  9
$USERR5
 40
0.0
  9
$WORLDVIEW
 70
     1
  9
$SHADEDGE
 70
     3
  9
$SHADEDIF
 70
    70
  9
$TILEMODE
 70
     1
  9
$MAXACTVP
 70
    64
  9
$PINSBASE
 10
0.0
 20
0.0
 30
0.0
  9
$PLIMCHECK
 70
     0
  9
$PEXTMIN
 10
1.000000000000000E+20
 20
1.000000000000000E+20
 30
1.000000000000000E+20
  9
$PEXTMAX
 10
-1.000000000000000E+20
 20
-1.000000000000000E+20
 30
-1.000000000000000E+20
  9
$PLIMMIN
 10
0.0
 20
0.0
  9
$PLIMMAX
 10
12.0
 20
9.0
  9
$UNITMODE
 70
     0
  9
$VISRETAIN
 70
     1
  9
$PLINEGEN
 70
     0
  9
$PSLTSCALE
 70
     1
  9
$TREEDEPTH
 70
  3020
  9
$CMLSTYLE
  2
Standard
  9
$CMLJUST
 70
     0
  9
$CMLSCALE
 40
20.0
  9
$PROXYGRAPHICS
 70
     1
  9
$MEASUREMENT
 70
     1
  9
$CELWEIGHT
370
    -1
  9
$ENDCAPS
280
     0
  9
$JOINSTYLE
280
     0
  9
$LWDISPLAY
290
     0
  9
$INSUNITS
 70
     4
  9
$HYPERLINKBASE
  1

  9
$STYLESHEET
  1

  9
$XEDIT
290
     1
  9
$CEPSNTYPE
380
     0
  9
$PSTYLEMODE
290
     1
  9
$FINGERPRINTGUID
  2
{857B7D2D-5F11-3A49-9D43-A4C9C01883F5}
  9
$VERSIONGUID
  2
{14C3E9FE-7C4B-DD43-A4E5-02E3CBB4B207}
  9
$EXTNAMES
290
     1
  9
$PSVPSCALE
 40
0.0
  9
$OLESTARTUP
290
     0
  9
$SORTENTS
280
   127
  9
$INDEXCTL
280
     0
  9
$HIDETEXT
280
     1
  9
$XCLIPFRAME
280
     2
  9
$HALOGAP
280
     0
  9
$OBSCOLOR
 70
   257
  9
$OBSLTYPE
280
     0
  9
$INTERSECTIONDISPLAY
280
     0
  9
$INTERSECTIONCOLOR
 70
   257
  9
$DIMASSOC
280
     2
  9
$PROJECTNAME
  1

  9
$CAMERADISPLAY
290
     0
  9
$LENSLENGTH
 40
50.0
  9
$CAMERAHEIGHT
 40
0.0
  9
$STEPSPERSEC
 40
2.0
  9
$STEPSIZE
 40
6.0
  9
$3DDWFPREC
 40
2.0
  9
$PSOLWIDTH
 40
5.0
  9
$PSOLHEIGHT
 40
80.0
  9
$LOFTANG1
 40
1.570796326794896
  9
$LOFTANG2
 40
1.570796326794896
  9
$LOFTMAG1
 40
0.0
  9
$LOFTMAG2
 40
0.0
  9
$LOFTPARAM
 70
     7
  9
$LOFTNORMALS
280
     1
  9
$LATITUDE
 40
37.795
  9
$LONGITUDE
 40
-122.394
  9
$NORTHDIRECTION
 40
0.0
  9
$TIMEZONE
 70
 -8000
  9
$LIGHTGLYPHDISPLAY
280
     1
  9
$TILEMODELIGHTSYNCH
280
     1
  9
$CMATERIAL
347
11
  9
$SOLIDHIST
280
     0
  9
$SHOWHIST
280
     1
  9
$DWFFRAME
280
     2
  9
$DGNFRAME
280
     0
  9
$REALWORLDSCALE
290
     1
  9
$INTERFERECOLOR
 62
     1
  9
$INTERFEREOBJVS
345
33
  9
$INTERFEREVPVS
346
30
  9
$CSHADOW
280
     0
  9
$SHADOWPLANELOCATION
 40
0.0
  0
ENDSEC
  0
SECTION
  2
CLASSES
  0
CLASS
  1
ACDBDICTIONARYWDFLT
  2
AcDbDictionaryWithDefault
  3
ObjectDBX Classes
 90
        0
 91
        1
280
     0
281
     0
  0
CLASS
  1
MATERIAL
  2
AcDbMaterial
  3
ObjectDBX Classes
 90
     1153
 91
        3
280
     0
281
     0
  0
CLASS
  1
VISUALSTYLE
  2
AcDbVisualStyle
  3
ObjectDBX Classes
 90
     4095
 91
       24
280
     0
281
     0
  0
CLASS
  1
SCALE
  2
AcDbScale
  3
ObjectDBX Classes
 90
     1153
 91
       17
280
     0
281
     0
  0
CLASS
  1
TABLESTYLE
  2
AcDbTableStyle
  3
ObjectDBX Classes
 90
     4095
 91
        1
280
     0
281
     0
  0
CLASS
  1
MLEADERSTYLE
  2
AcDbMLeaderStyle
  3
ACDB_MLEADERSTYLE_CLASS
 90
     4095
 91
        1
280
     0
281
     0
  0
CLASS
  1
ACDBSECTIONVIEWSTYLE
  2
AcDbSectionViewStyle
  3
ObjectDBX Classes
 90
     1025
 91
        2
280
     0
281
     0
  0
CLASS
  1
ACDBDETAILVIEWSTYLE
  2
AcDbDetailViewStyle
  3
ObjectDBX Classes
 90
     1025
 91
        2
280
     0
281
     0
  0
CLASS
  1
SORTENTSTABLE
  2
AcDbSortentsTable
  3
ObjectDBX Classes
 90
        0
 91
        1
280
     0
281
     0
  0
CLASS
  1
DICTIONARYVAR
  2
AcDbDictionaryVar
  3
ObjectDBX Classes
 90
        0
 91
        7
280
     0
281
     0
  0
CLASS
  1
CELLSTYLEMAP
  2
AcDbCellStyleMap
  3
ObjectDBX Classes
 90
     1152
 91
        2
280
     0
281
     0
  0
ENDSEC
  0
SECTION
  2
TABLES
  0
TABLE
  2
VPORT
  5
8
330
0
100
AcDbSymbolTable
 70
     1
  0
VPORT
  5
57
330
8
100
AcDbSymbolTableRecord
100
AcDbViewportTableRecord
  2
*Active
 70
     0
 10
0.0
 20
0.0
 11
1.0
 21
1.0
 12
151.6732566707093
 22
93.69407849066282
 13
0.0
 23
0.0
 14
10.0
 24
10.0
 15
10.0
 25
10.0
 16
0.0
 26
0.0
 36
1.0
 17
0.0
 27
0.0
 37
0.0
 40
105.1120268747558
 41
2.351715686274509
 42
50.0
 43
0.0
 44
0.0
 50
0.0
 51
0.0
 71
     0
 72
  1000
 73
     1
 74
     1
 75
     0
 76
     0
 77
     0
 78
     0
281
     0
 65
     1
110
0.0
120
0.0
130
0.0
111
1.0
121
0.0
131
0.0
112
0.0
122
1.0
132
0.0
 79
     0
146
0.0
348
2F
 60
     3
 61
     5
292
     1
282
     1
141
0.0
142
0.0
 63
   250
421
  3355443
1001
ACAD_NAV_VCDISPLAY
1070
     3
  0
ENDTAB
  0
TABLE
  2
LTYPE
  5
5
330
0
100
AcDbSymbolTable
 70
     1
  0
LTYPE
  5
5B
330
5
100
AcDbSymbolTableRecord
100
AcDbLinetypeTableRecord
  2
ByBlock
 70
     0
  3

 72
    65
 73
     0
 40
0.0
  0
LTYPE
  5
5C
330
5
100
AcDbSymbolTableRecord
100
AcDbLinetypeTableRecord
  2
ByLayer
 70
     0
  3

 72
    65
 73
     0
 40
0.0
  0
LTYPE
  5
5D
330
5
100
AcDbSymbolTableRecord
100
AcDbLinetypeTableRecord
  2
Continuous
 70
     0
  3
Solid line
 72
    65
 73
     0
 40
0.0
  0
ENDTAB
  0
TABLE
  2
LAYER
  5
2
330
0
100
AcDbSymbolTable
 70
     3
  0
LAYER
  5
54
330
2
100
AcDbSymbolTableRecord
100
AcDbLayerTableRecord
  2
0
 70
     0
 62
     7
  6
Continuous
370
    -3
390
F
347
21
348
0
1001
AcAecLayerStandard
1000

1000

  0
LAYER
  5
84
330
2
100
AcDbSymbolTableRecord
100
AcDbLayerTableRecord
  2
MD_可視
 70
     0
 62
     7
  6
Continuous
370
    50
390
F
347
21
348
0
  0
LAYER
  5
86
330
2
100
AcDbSymbolTableRecord
100
AcDbLayerTableRecord
  2
MD_狭い可視
 70
     0
 62
     7
  6
Continuous
370
    35
390
F
347
21
348
0
  0
ENDTAB
  0
TABLE
  2
STYLE
  5
3
330
0
100
AcDbSymbolTable
 70
     2
  0
STYLE
  5
55
330
3
100
AcDbSymbolTableRecord
100
AcDbTextStyleTableRecord
  2
Standard
 70
     0
 40
0.0
 41
1.0
 50
0.0
 71
     0
 42
2.5
  3
arial.ttf
  4

1001
ACAD
1000
Arial
1071
       34
  0
STYLE
  5
5A
330
3
100
AcDbSymbolTableRecord
100
AcDbTextStyleTableRecord
  2
Annotative
 70
     0
 40
0.0
 41
1.0
 50
0.0
 71
     0
 42
0.2
  3
txt
  4

1001
AcadAnnotative
1000
AnnotativeData
1002
{
1070
     1
1070
     1
1002
}
  0
ENDTAB
  0
TABLE
  2
VIEW
  5
6
330
0
100
AcDbSymbolTable
 70
     0
  0
ENDTAB
  0
TABLE
  2
UCS
  5
7
330
0
100
AcDbSymbolTable
 70
     0
  0
ENDTAB
  0
TABLE
  2
APPID
  5
9
330
0
100
AcDbSymbolTable
 70
     7
  0
APPID
  5
56
330
9
100
AcDbSymbolTableRecord
100
AcDbRegAppTableRecord
  2
ACAD
 70
     0
  0
APPID
  5
5E
330
9
100
AcDbSymbolTableRecord
100
AcDbRegAppTableRecord
  2
AcadAnnotative
 70
     0
  0
APPID
  5
78
330
9
100
AcDbSymbolTableRecord
100
AcDbRegAppTableRecord
  2
ACAD_PSEXT
 70
     0
  0
APPID
  5
7A
330
9
100
AcDbSymbolTableRecord
100
AcDbRegAppTableRecord
  2
ACAD_DSTYLE_DIMJAG
 70
     0
  0
APPID
  5
7B
330
9
100
AcDbSymbolTableRecord
100
AcDbRegAppTableRecord
  2
ACAD_DSTYLE_DIMTALN
 70
     0
  0
APPID
  5
24D
330
9
100
AcDbSymbolTableRecord
100
AcDbRegAppTableRecord
  2
AcAecLayerStandard
 70
     0
  0
APPID
  5
25F
330
9
100
AcDbSymbolTableRecord
100
AcDbRegAppTableRecord
  2
ACAD_NAV_VCDISPLAY
 70
     0
  0
ENDTAB
  0
TABLE
  2
DIMSTYLE
  5
A
330
0
100
AcDbSymbolTable
 70
     3
100
AcDbDimStyleTable
 71
     1
340
7C
  0
DIMSTYLE
105
58
330
A
100
AcDbSymbolTableRecord
100
AcDbDimStyleTableRecord
  2
Standard
 70
     0
340
55
  0
DIMSTYLE
105
59
330
A
100
AcDbSymbolTableRecord
100
AcDbDimStyleTableRecord
  2
Annotative
 70
     0
 40
0.0
 41
2.5
 42
0.625
 43
3.75
 44
1.25
 73
     0
 74
     0
 77
     1
 78
     8
140
2.5
141
2.5
143
0.03937007874016
147
0.625
171
     3
172
     1
271
     2
272
     2
274
     3
278
    44
283
     0
284
     8
340
55
1001
AcadAnnotative
1000
AnnotativeData
1002
{
1070
     1
1070
     1
1002
}
  0
DIMSTYLE
105
7C
330
A
100
AcDbSymbolTableRecord
100
AcDbDimStyleTableRecord
  2
ISO-25
 70
     0
 41
2.5
 42
0.625
 43
3.75
 44
1.25
 73
     0
 74
     0
 77
     1
 78
     8
140
2.5
141
2.5
143
0.03937007874016
147
0.625
171
     3
172
     1
271
     2
272
     2
274
     3
278
    44
283
     0
284
     8
340
55
  0
ENDTAB
  0
TABLE
  2
BLOCK_RECORD
  5
1
330
0
100
AcDbSymbolTable
 70
     4
  0
BLOCK_RECORD
  5
70
102
{ACAD_XDICTIONARY
360
7D
102
}
330
1
100
AcDbSymbolTableRecord
100
AcDbBlockTableRecord
  2
*Model_Space
340
73
 70
     0
280
     1
281
     0
  0
BLOCK_RECORD
  5
6C
330
1
100
AcDbSymbolTableRecord
100
AcDbBlockTableRecord
  2
*Paper_Space
340
6F
 70
     0
280
     1
281
     0
  0
BLOCK_RECORD
  5
74
330
1
100
AcDbSymbolTableRecord
100
AcDbBlockTableRecord
  2
*Paper_Space0
340
77
 70
     0
280
     1
281
     0
  0
BLOCK_RECORD
  5
81
330
1
100
AcDbSymbolTableRecord
100
AcDbBlockTableRecord
  2
CustomObjectsInViewport4_0
340
0
102
{BLKREFS
331
7F
102
}
 70
     0
280
     1
281
     0
  0
BLOCK_RECORD
  5
1B7
330
1
100
AcDbSymbolTableRecord
100
AcDbBlockTableRecord
  2
CustomObjectsInViewport6_0
340
0
102
{BLKREFS
331
1B5
102
}
 70
     0
280
     1
281
     0
  0
BLOCK_RECORD
  5
20D
330
1
100
AcDbSymbolTableRecord
100
AcDbBlockTableRecord
  2
CustomObjectsInViewport8_0
340
0
102
{BLKREFS
331
20B
102
}
 70
     0
280
     1
281
     0
  0
ENDTAB
  0
ENDSEC
  0
SECTION
  2
BLOCKS
  0
BLOCK
  5
71
330
70
100
AcDbEntity
  8
0
100
AcDbBlockBegin
  2
*Model_Space
 70
     0
 10
0.0
 20
0.0
 30
0.0
  3
*Model_Space
  1

  0
ENDBLK
  5
72
330
70
100
AcDbEntity
  8
0
100
AcDbBlockEnd
  0
BLOCK
  5
6D
330
6C
100
AcDbEntity
 67
     1
  8
0
100
AcDbBlockBegin
  2
*Paper_Space
 70
     0
 10
0.0
 20
0.0
 30
0.0
  3
*Paper_Space
  1

  0
ENDBLK
  5
6E
330
6C
100
AcDbEntity
 67
     1
  8
0
100
AcDbBlockEnd
  0
BLOCK
  5
75
330
74
100
AcDbEntity
 67
     1
  8
0
100
AcDbBlockBegin
  2
*Paper_Space0
 70
     0
 10
0.0
 20
0.0
 30
0.0
  3
*Paper_Space0
  1

  0
ENDBLK
  5
76
330
74
100
AcDbEntity
 67
     1
  8
0
100
AcDbBlockEnd
  0
BLOCK
  5
82
330
81
100
AcDbEntity
  8
0
100
AcDbBlockBegin
  2
CustomObjectsInViewport4_0
 70
     0
 10
0.0
 20
0.0
 30
0.0
  3
CustomObjectsInViewport4_0
  1

  0
LINE
  5
83
330
81
100
AcDbEntity
  8
MD_可視
100
AcDbLine
 10
107.8684683475603
 20
81.15278126082193
 30
0.0
 11
107.8684683475603
 21
80.29517756424866
 31
0.0
  0
LINE
  5
85
330
81
100
AcDbEntity
  8
MD_狭い可視
100
AcDbLine
 10
107.8684683475603
 20
81.15278126082193
 30
0.0
 11
107.4680565882699
 21
81.15278126082193
 31
0.0
  0
LINE
  5
87
330
81
100
AcDbEntity
  8
MD_可視
100
AcDbLine
 10
107.4680565882699
 20
81.15278126082193
 30
0.0
 11
107.4680565882699
 21
80.29517756424866
 31
0.0
  0
LINE
  5
88
330
81
100
AcDbEntity
  8
MD_可視
100
AcDbLine
 10
107.8684683475603
 20
81.5536388249402
 30
0.0000000000000009
 11
107.8684683475603
 21
81.15278126082193
 31
0.0
  0
LINE
  5
89
330
81
100
AcDbEntity
  8
MD_狭い可視
100
AcDbLine
 10
107.8684683475603
 20
81.5536388249402
 30
0.0000000000000009
 11
107.4680565882699
 21
81.5536388249402
 31
0.0000000000000009
  0
LINE
  5
8A
330
81
100
AcDbEntity
  8
MD_可視
100
AcDbLine
 10
107.4680565882699
 20
81.5536388249402
 30
0.0000000000000009
 11
107.4680565882699
 21
81.15278126082193
 31
0.0
  0
LINE
  5
8B
330
81
100
AcDbEntity
  8
MD_可視
100
AcDbLine
 10
107.4680565882699
 20
82.15517756424924
 30
-0.0000000000000009
 11
107.4680565882699
 21
81.5536388249402
 31
0.0000000000000009
  0
LINE
  5
8C
330
81
100
AcDbEntity
  8
MD_可視
100
AcDbLine
 10
107.8684683475603
 20
82.15517756424924
 30
0.0000000000000009
 11
107.8684683475603
 21
81.5536388249402
 31
0.0000000000000009
  0
LINE
  5
8D
330
81
100
AcDbEntity
  8
MD_可視
100
AcDbLine
 10
114.5700565882707
 20
82.15517756424924
 30
-0.0000000000000009
 11
114.5700565882707
 21
80.30084114589772
 31
0.0
  0
LINE
  5
8E
330
81
100
AcDbEntity
  8
MD_可視
100
AcDbLine
 10
114.5780565882705
 20
80.30084114589772
 30
0.0
 11
114.5700565882707
 21
80.30084114589772
 31
0.0
  0
LINE
  5
8F
330
81
100
AcDbEntity
  8
MD_可視
100
AcDbLine
 10
114.5700565882707
 20
80.30084114589772
 30
0.0
 11
114.5700565882707
 21
80.29517756424866
 31
0.0
  0
LINE
  5
90
330
81
100
AcDbEntity
  8
MD_可視
100
AcDbLine
 10
113.9624683475613
 20
81.15278126082193
 30
0.0
 11
113.9624683475613
 21
80.29517756424866
 31
0.0
  0
LINE
  5
91
330
81
100
AcDbEntity
  8
MD_狭い可視
100
AcDbLine
 10
113.9624683475613
 20
81.15278126082193
 30
0.0
 11
113.5620565882691
 21
81.15278126082193
 31
0.0
  0
LINE
  5
92
330
81
100
AcDbEntity
  8
MD_可視
100
AcDbLine
 10
113.5620565882691
 20
81.15278126082193
 30
0.0
 11
113.5620565882691
 21
80.29517756424866
 31
0.0
  0
LINE
  5
93
330
81
100
AcDbEntity
  8
MD_可視
100
AcDbLine
 10
113.9624683475613
 20
81.5536388249402
 30
-0.0000000000000009
 11
113.9624683475613
 21
81.15278126082193
 31
0.0
  0
LINE
  5
94
330
81
100
AcDbEntity
  8
MD_狭い可視
100
AcDbLine
 10
113.9624683475613
 20
81.5536388249402
 30
-0.0000000000000009
 11
113.5620565882691
 21
81.5536388249402
 31
-0.0000000000000009
  0
LINE
  5
95
330
81
100
AcDbEntity
  8
MD_可視
100
AcDbLine
 10
113.5620565882691
 20
81.5536388249402
 30
-0.0000000000000009
 11
113.5620565882691
 21
81.15278126082193
 31
0.0
  0
LINE
  5
96
330
81
100
AcDbEntity
  8
MD_可視
100
AcDbLine
 10
113.5620565882691
 20
82.15517756424924
 30
0.0000000000000009
 11
113.5620565882691
 21
81.5536388249402
 31
0.0000000000000009
  0
LINE
  5
97
330
81
100
AcDbEntity
  8
MD_可視
100
AcDbLine
 10
113.9624683475613
 20
82.15517756424924
 30
0.0000000000000009
 11
113.9624683475613
 21
81.5536388249402
 31
0.0000000000000009
  0
LINE
  5
98
330
81
100
AcDbEntity
  8
MD_可視
100
AcDbLine
 10
108.4760565882698
 20
80.30084114589772
 30
0.0
 11
108.4760565882698
 21
80.29517756424866
 31
0.0
  0
LINE
  5
99
330
81
100
AcDbEntity
  8
MD_可視
100
AcDbLine
 10
108.4760565882698
 20
82.15517756424924
 30
0.0000000000000009
 11
108.4760565882698
 21
80.30084114589772
 31
0.0
  0
LINE
  5
9A
330
81
100
AcDbEntity
  8
MD_可視
100
AcDbLine
 10
108.4840565882696
 20
80.30084114589772
 30
0.0
 11
108.4760565882698
 21
80.30084114589772
 31
0.0
  0
LINE
  5
9B
330
81
100
AcDbEntity
  8
MD_可視
100
AcDbLine
 10
111.9304683475602
 20
81.15278126082193
 30
0.0
 11
111.9304683475602
 21
80.29517756424866
 31
0.0
  0
LINE
  5
9C
330
81
100
AcDbEntity
  8
MD_狭い可視
100
AcDbLine
 10
111.9304683475602
 20
81.15278126082193
 30
0.0
 11
111.5300565882698
 21
81.15278126082193
 31
0.0
  0
LINE
  5
9D
330
81
100
AcDbEntity
  8
MD_可視
100
AcDbLine
 10
111.5300565882698
 20
81.15278126082193
 30
0.0
 11
111.5300565882698
 21
80.29517756424866
 31
0.0
  0
LINE
  5
9E
330
81
100
AcDbEntity
  8
MD_可視
100
AcDbLine
 10
111.9304683475602
 20
81.5536388249402
 30
-0.0000000000000009
 11
111.9304683475602
 21
81.15278126082193
 31
0.0
  0
LINE
  5
9F
330
81
100
AcDbEntity
  8
MD_狭い可視
100
AcDbLine
 10
111.9304683475602
 20
81.5536388249402
 30
-0.0000000000000009
 11
111.5300565882698
 21
81.5536388249402
 31
-0.0000000000000009
  0
LINE
  5
A0
330
81
100
AcDbEntity
  8
MD_可視
100
AcDbLine
 10
111.5300565882698
 20
81.5536388249402
 30
-0.0000000000000009
 11
111.5300565882698
 21
81.15278126082193
 31
0.0
  0
LINE
  5
A1
330
81
100
AcDbEntity
  8
MD_可視
100
AcDbLine
 10
111.9304683475602
 20
82.15517756424924
 30
0.0000000000000009
 11
111.9304683475602
 21
81.5536388249402
 31
0.0000000000000009
  0
LINE
  5
A2
330
81
100
AcDbEntity
  8
MD_可視
100
AcDbLine
 10
111.5300565882698
 20
82.15517756424924
 30
-0.0000000000000009
 11
111.5300565882698
 21
81.5536388249402
 31
-0.0000000000000009
  0
LINE
  5
A3
330
81
100
AcDbEntity
  8
MD_可視
100
AcDbLine
 10
110.5080565882708
 20
80.30084114589772
 30
0.0
 11
110.5080565882708
 21
80.29517756424866
 31
0.0
  0
LINE
  5
A4
330
81
100
AcDbEntity
  8
MD_可視
100
AcDbLine
 10
110.5080565882708
 20
82.15517756424924
 30
0.0000000000000009
 11
110.5080565882708
 21
80.30084114589772
 31
0.0
  0
LINE
  5
A5
330
81
100
AcDbEntity
  8
MD_可視
100
AcDbLine
 10
110.5140565882702
 20
80.30084114589772
 30
0.0
 11
110.5080565882708
 21
80.30084114589772
 31
0.0
  0
LINE
  5
A6
330
81
100
AcDbEntity
  8
MD_可視
100
AcDbLine
 10
109.898468347561
 20
81.15278126082193
 30
0.0
 11
109.898468347561
 21
80.29517756424866
 31
0.0
  0
LINE
  5
A7
330
81
100
AcDbEntity
  8
MD_狭い可視
100
AcDbLine
 10
109.898468347561
 20
81.15278126082193
 30
0.0
 11
109.4980565882706
 21
81.15278126082193
 31
0.0
  0
LINE
  5
A8
330
81
100
AcDbEntity
  8
MD_可視
100
AcDbLine
 10
109.4980565882706
 20
81.15278126082193
 30
0.0
 11
109.4980565882706
 21
80.29517756424866
 31
0.0
  0
LINE
  5
A9
330
81
100
AcDbEntity
  8
MD_可視
100
AcDbLine
 10
109.898468347561
 20
81.5536388249402
 30
-0.0000000000000009
 11
109.898468347561
 21
81.15278126082193
 31
0.0
  0
LINE
  5
AA
330
81
100
AcDbEntity
  8
MD_狭い可視
100
AcDbLine
 10
109.898468347561
 20
81.5536388249402
 30
-0.0000000000000009
 11
109.4980565882706
 21
81.5536388249402
 31
-0.0000000000000009
  0
LINE
  5
AB
330
81
100
AcDbEntity
  8
MD_可視
100
AcDbLine
 10
109.4980565882706
 20
81.5536388249402
 30
-0.0000000000000009
 11
109.4980565882706
 21
81.15278126082193
 31
0.0
  0
LINE
  5
AC
330
81
100
AcDbEntity
  8
MD_可視
100
AcDbLine
 10
109.4980565882706
 20
82.15517756424924
 30
0.0000000000000009
 11
109.4980565882706
 21
81.5536388249402
 31
-0.0000000000000009
  0
LINE
  5
AD
330
81
100
AcDbEntity
  8
MD_可視
100
AcDbLine
 10
109.898468347561
 20
82.15517756424924
 30
0.0000000000000009
 11
109.898468347561
 21
81.5536388249402
 31
-0.0000000000000009
  0
LINE
  5
AE
330
81
100
AcDbEntity
  8
MD_可視
100
AcDbLine
 10
112.5400565882701
 20
80.30084114589772
 30
0.0
 11
112.5400565882701
 21
80.29517756424866
 31
0.0
  0
LINE
  5
AF
330
81
100
AcDbEntity
  8
MD_可視
100
AcDbLine
 10
112.5400565882701
 20
82.15517756424924
 30
-0.0000000000000009
 11
112.5400565882701
 21
80.30084114589772
 31
0.0
  0
LINE
  5
B0
330
81
100
AcDbEntity
  8
MD_可視
100
AcDbLine
 10
112.5460565882695
 20
80.30084114589772
 30
0.0
 11
112.5400565882701
 21
80.30084114589772
 31
0.0
  0
LINE
  5
B1
330
81
100
AcDbEntity
  8
MD_可視
100
AcDbLine
 10
108.8844683475618
 20
81.41263220828296
 30
-0.0000000000000009
 11
108.8844683475618
 21
81.01177464416469
 31
0.0
  0
LINE
  5
B2
330
81
100
AcDbEntity
  8
MD_狭い可視
100
AcDbLine
 10
108.8844683475618
 20
81.41263220828296
 30
-0.0000000000000009
 11
108.4840565882696
 21
81.41263220828296
 31
-0.0000000000000009
  0
LINE
  5
B3
330
81
100
AcDbEntity
  8
MD_可視
100
AcDbLine
 10
108.4840565882696
 20
81.41263220828296
 30
-0.0000000000000009
 11
108.4840565882696
 21
81.01177464416469
 31
0.0
  0
LINE
  5
B4
330
81
100
AcDbEntity
  8
MD_狭い可視
100
AcDbLine
 10
108.8844683475618
 20
81.01177464416469
 30
0.0
 11
108.4840565882696
 21
81.01177464416469
 31
0.0
  0
LINE
  5
B5
330
81
100
AcDbEntity
  8
MD_可視
100
AcDbLine
 10
108.8844683475618
 20
81.01177464416469
 30
0.0
 11
108.8844683475618
 21
80.29517756424866
 31
0.0
  0
LINE
  5
B6
330
81
100
AcDbEntity
  8
MD_可視
100
AcDbLine
 10
108.4840565882696
 20
81.01177464416469
 30
0.0
 11
108.4840565882696
 21
80.29517756424866
 31
0.0
  0
LINE
  5
B7
330
81
100
AcDbEntity
  8
MD_可視
100
AcDbLine
 10
108.4840565882696
 20
82.15517756424924
 30
-0.0000000000000009
 11
108.4840565882696
 21
81.41263220828296
 31
-0.0000000000000009
  0
LINE
  5
B8
330
81
100
AcDbEntity
  8
MD_可視
100
AcDbLine
 10
108.8844683475618
 20
82.15517756424924
 30
-0.0000000000000009
 11
108.8844683475618
 21
81.41263220828296
 31
-0.0000000000000009
  0
LINE
  5
B9
330
81
100
AcDbEntity
  8
MD_可視
100
AcDbLine
 10
113.5540565882693
 20
80.32017755488778
 30
0.0
 11
113.5540565882693
 21
80.29517756424866
 31
0.0
  0
LINE
  5
BA
330
81
100
AcDbEntity
  8
MD_可視
100
AcDbLine
 10
113.5540565882693
 20
82.15517756424924
 30
-0.0000000000000009
 11
113.5540565882693
 21
80.32017755488778
 31
0.0
  0
LINE
  5
BB
330
81
100
AcDbEntity
  8
MD_可視
100
AcDbLine
 10
113.5620565882691
 20
80.32017755488778
 30
0.0
 11
113.5540565882693
 21
80.32017755488778
 31
0.0
  0
LINE
  5
BC
330
81
100
AcDbEntity
  8
MD_可視
100
AcDbLine
 10
114.9784683475609
 20
81.41263220828296
 30
-0.0000000000000009
 11
114.9784683475609
 21
81.01177464416469
 31
0.0
  0
LINE
  5
BD
330
81
100
AcDbEntity
  8
MD_狭い可視
100
AcDbLine
 10
114.9784683475609
 20
81.41263220828296
 30
-0.0000000000000009
 11
114.5780565882705
 21
81.41263220828296
 31
-0.0000000000000009
  0
LINE
  5
BE
330
81
100
AcDbEntity
  8
MD_可視
100
AcDbLine
 10
114.5780565882705
 20
81.41263220828296
 30
-0.0000000000000009
 11
114.5780565882705
 21
81.01177464416469
 31
0.0
  0
LINE
  5
BF
330
81
100
AcDbEntity
  8
MD_狭い可視
100
AcDbLine
 10
114.9784683475609
 20
81.01177464416469
 30
0.0
 11
114.5780565882705
 21
81.01177464416469
 31
0.0
  0
LINE
  5
C0
330
81
100
AcDbEntity
  8
MD_可視
100
AcDbLine
 10
114.9784683475609
 20
81.01177464416469
 30
0.0
 11
114.9784683475609
 21
80.29517756424866
 31
0.0
  0
LINE
  5
C1
330
81
100
AcDbEntity
  8
MD_可視
100
AcDbLine
 10
114.5780565882705
 20
81.01177464416469
 30
0.0
 11
114.5780565882705
 21
80.29517756424866
 31
0.0
  0
LINE
  5
C2
330
81
100
AcDbEntity
  8
MD_可視
100
AcDbLine
 10
114.5780565882705
 20
82.15517756424924
 30
0.0000000000000009
 11
114.5780565882705
 21
81.41263220828296
 31
-0.0000000000000009
  0
LINE
  5
C3
330
81
100
AcDbEntity
  8
MD_可視
100
AcDbLine
 10
114.9784683475609
 20
82.15517756424924
 30
0.0000000000000009
 11
114.9784683475609
 21
81.41263220828296
 31
-0.0000000000000009
  0
LINE
  5
C4
330
81
100
AcDbEntity
  8
MD_可視
100
AcDbLine
 10
107.4600565882701
 20
80.32017755488778
 30
0.0
 11
107.4600565882701
 21
80.29517756424866
 31
0.0
  0
LINE
  5
C5
330
81
100
AcDbEntity
  8
MD_可視
100
AcDbLine
 10
107.4600565882701
 20
82.15517756424924
 30
-0.0000000000000009
 11
107.4600565882701
 21
80.32017755488778
 31
0.0
  0
LINE
  5
C6
330
81
100
AcDbEntity
  8
MD_可視
100
AcDbLine
 10
107.4680565882699
 20
80.32017755488778
 30
0.0
 11
107.4600565882701
 21
80.32017755488778
 31
0.0
  0
LINE
  5
C7
330
81
100
AcDbEntity
  8
MD_可視
100
AcDbLine
 10
112.9464683475617
 20
81.41263220828296
 30
-0.0000000000000009
 11
112.9464683475617
 21
81.01177464416469
 31
0.0
  0
LINE
  5
C8
330
81
100
AcDbEntity
  8
MD_狭い可視
100
AcDbLine
 10
112.9464683475617
 20
81.41263220828296
 30
-0.0000000000000009
 11
112.5460565882695
 21
81.41263220828296
 31
-0.0000000000000009
  0
LINE
  5
C9
330
81
100
AcDbEntity
  8
MD_可視
100
AcDbLine
 10
112.5460565882695
 20
81.41263220828296
 30
-0.0000000000000009
 11
112.5460565882695
 21
81.01177464416469
 31
0.0
  0
LINE
  5
CA
330
81
100
AcDbEntity
  8
MD_狭い可視
100
AcDbLine
 10
112.9464683475617
 20
81.01177464416469
 30
0.0
 11
112.5460565882695
 21
81.01177464416469
 31
0.0
  0
LINE
  5
CB
330
81
100
AcDbEntity
  8
MD_可視
100
AcDbLine
 10
112.9464683475617
 20
81.01177464416469
 30
0.0
 11
112.9464683475617
 21
80.29517756424866
 31
0.0
  0
LINE
  5
CC
330
81
100
AcDbEntity
  8
MD_可視
100
AcDbLine
 10
112.5460565882695
 20
81.01177464416469
 30
0.0
 11
112.5460565882695
 21
80.29517756424866
 31
0.0
  0
LINE
  5
CD
330
81
100
AcDbEntity
  8
MD_可視
100
AcDbLine
 10
112.5460565882695
 20
82.15517756424924
 30
0.0000000000000009
 11
112.5460565882695
 21
81.41263220828296
 31
-0.0000000000000009
  0
LINE
  5
CE
330
81
100
AcDbEntity
  8
MD_可視
100
AcDbLine
 10
112.9464683475617
 20
82.15517756424924
 30
0.0000000000000009
 11
112.9464683475617
 21
81.41263220828296
 31
-0.0000000000000009
  0
LINE
  5
CF
330
81
100
AcDbEntity
  8
MD_可視
100
AcDbLine
 10
109.4920565882694
 20
80.32017755488778
 30
0.0
 11
109.4920565882694
 21
80.29517756424866
 31
0.0
  0
LINE
  5
D0
330
81
100
AcDbEntity
  8
MD_可視
100
AcDbLine
 10
109.4920565882694
 20
82.15517756424924
 30
-0.0000000000000009
 11
109.4920565882694
 21
80.32017755488778
 31
0.0
  0
LINE
  5
D1
330
81
100
AcDbEntity
  8
MD_可視
100
AcDbLine
 10
109.4980565882706
 20
80.32017755488778
 30
0.0
 11
109.4920565882694
 21
80.32017755488778
 31
0.0
  0
LINE
  5
D2
330
81
100
AcDbEntity
  8
MD_可視
100
AcDbLine
 10
110.9144683475606
 20
81.41263220828296
 30
-0.0000000000000009
 11
110.9144683475606
 21
81.01177464416469
 31
0.0
  0
LINE
  5
D3
330
81
100
AcDbEntity
  8
MD_狭い可視
100
AcDbLine
 10
110.9144683475606
 20
81.41263220828296
 30
-0.0000000000000009
 11
110.5140565882702
 21
81.41263220828296
 31
-0.0000000000000009
  0
LINE
  5
D4
330
81
100
AcDbEntity
  8
MD_可視
100
AcDbLine
 10
110.5140565882702
 20
81.41263220828296
 30
-0.0000000000000009
 11
110.5140565882702
 21
81.01177464416469
 31
0.0
  0
LINE
  5
D5
330
81
100
AcDbEntity
  8
MD_狭い可視
100
AcDbLine
 10
110.9144683475606
 20
81.01177464416469
 30
0.0
 11
110.5140565882702
 21
81.01177464416469
 31
0.0
  0
LINE
  5
D6
330
81
100
AcDbEntity
  8
MD_可視
100
AcDbLine
 10
110.9144683475606
 20
81.01177464416469
 30
0.0
 11
110.9144683475606
 21
80.29517756424866
 31
0.0
  0
LINE
  5
D7
330
81
100
AcDbEntity
  8
MD_可視
100
AcDbLine
 10
110.5140565882702
 20
81.01177464416469
 30
0.0
 11
110.5140565882702
 21
80.29517756424866
 31
0.0
  0
LINE
  5
D8
330
81
100
AcDbEntity
  8
MD_可視
100
AcDbLine
 10
110.5140565882702
 20
82.15517756424924
 30
0.0000000000000009
 11
110.5140565882702
 21
81.41263220828296
 31
0.0000000000000009
  0
LINE
  5
D9
330
81
100
AcDbEntity
  8
MD_可視
100
AcDbLine
 10
110.9144683475606
 20
82.15517756424924
 30
0.0000000000000009
 11
110.9144683475606
 21
81.41263220828296
 31
-0.0000000000000009
  0
LINE
  5
DA
330
81
100
AcDbEntity
  8
MD_可視
100
AcDbLine
 10
111.5240565882704
 20
80.32017755488778
 30
0.0
 11
111.5240565882704
 21
80.29517756424866
 31
0.0
  0
LINE
  5
DB
330
81
100
AcDbEntity
  8
MD_可視
100
AcDbLine
 10
111.5240565882704
 20
82.15517756424924
 30
-0.0000000000000009
 11
111.5240565882704
 21
80.32017755488778
 31
0.0
  0
LINE
  5
DC
330
81
100
AcDbEntity
  8
MD_可視
100
AcDbLine
 10
111.5300565882698
 20
80.32017755488778
 30
0.0
 11
111.5240565882704
 21
80.32017755488778
 31
0.0
  0
SPLINE
  5
DD
330
81
100
AcDbEntity
  8
MD_可視
100
AcDbSpline
210
0.0
220
0.0
230
1.0
 70
     8
 71
     3
 72
    16
 73
    12
 74
     0
 42
0.000000001
 43
0.0000000001
 40
0.1915318358489339
 40
0.1915318358489339
 40
0.1915318358489339
 40
0.1915318358489339
 40
0.2082705684396551
 40
0.2082705684396551
 40
0.2275257099282568
 40
0.2275257099282568
 40
0.2406900412251779
 40
0.2406900412251779
 40
0.2472722068736384
 40
0.2472722068736384
 40
0.253854372522099
 40
0.253854372522099
 40
0.253854372522099
 40
0.253854372522099
 10
115.5353787293516
 20
90.26113005469959
 30
0.0
 10
115.495875868939
 20
90.26334552724073
 30
0.0
 10
115.4536474696306
 20
90.27291851732844
 30
0.0
 10
115.3657630847065
 20
90.31093107596822
 30
0.0
 10
115.3205309918448
 20
90.34186223646065
 30
0.0
 10
115.2578836993852
 20
90.40839259415951
 30
0.0
 10
115.2331797251427
 20
90.44299177865468
 30
0.0
 10
115.2070459073693
 20
90.50233384118291
 30
0.0
 10
115.2001027407059
 20
90.52334946800874
 30
0.0
 10
115.1907780708934
 20
90.56653750326404
 30
0.0
 10
115.1883968791608
 20
90.58870983970155
 30
0.0
 10
115.1883968791608
 20
90.6106503918636
 30
0.0
  0
LINE
  5
DE
330
81
100
AcDbEntity
  8
MD_狭い可視
100
AcDbLine
 10
115.1883968791608
 20
90.6106503918636
 30
0.0000000000000009
 11
107.2501280566703
 21
90.6106503918636
 31
-0.0000000000000009
  0
SPLINE
  5
DF
330
81
100
AcDbEntity
  8
MD_可視
100
AcDbSpline
210
0.0
220
0.0
230
1.0
 70
     8
 71
     3
 72
    16
 73
    12
 74
     0
 42
0.000000001
 43
0.0000000001
 40
0.0
 40
0.0
 40
0.0
 40
0.0
 40
0.0065821656484605
 40
0.0065821656484605
 40
0.0131643312969211
 40
0.0131643312969211
 40
0.0263286625938422
 40
0.0263286625938422
 40
0.0455838040824439
 40
0.0455838040824439
 40
0.0623225366731649
 40
0.0623225366731649
 40
0.0623225366731649
 40
0.0623225366731649
 10
107.2501280566703
 20
90.6106503918636
 30
0.0
 10
107.2501280566703
 20
90.58870983970155
 30
0.0
 10
107.2477468649376
 20
90.56653750326404
 30
0.0
 10
107.2384221951251
 20
90.52334946800874
 30
0.0
 10
107.2314790284617
 20
90.50233384118291
 30
0.0
 10
107.2053452106884
 20
90.44299177865468
 30
0.0
 10
107.1806412364458
 20
90.40839259415951
 30
0.0
 10
107.1179939439862
 20
90.34186223646065
 30
0.0
 10
107.0727618511246
 20
90.31093107596822
 30
0.0
 10
106.9848774662005
 20
90.27291851732844
 30
0.0
 10
106.942649066892
 20
90.26334552724073
 30
0.0
 10
106.9031462064795
 20
90.26113005469959
 30
0.0
  0
LINE
  5
E0
330
81
100
AcDbEntity
  8
MD_狭い可視
100
AcDbLine
 10
115.5353787293516
 20
90.26113005469959
 30
0.0000000000000009
 11
106.9031462064795
 21
90.26113005469959
 31
0.0000000000000009
  0
LINE
  5
E1
330
81
100
AcDbEntity
  8
MD_可視
100
AcDbLine
 10
110.1192624679152
 20
73.65517756424925
 30
0.0
 11
110.1192624679152
 21
72.25517756366206
 31
0.0
  0
LINE
  5
E2
330
81
100
AcDbEntity
  8
MD_可視
100
AcDbLine
 10
110.1192624679152
 20
73.65517756424925
 30
0.0
 11
112.3192624679159
 21
73.65517756424925
 31
0.0
  0
LINE
  5
E3
330
81
100
AcDbEntity
  8
MD_可視
100
AcDbLine
 10
112.3192624679159
 20
73.65517756424925
 30
0.0
 11
112.3192624679159
 21
72.25517756366206
 31
0.0
  0
LINE
  5
E4
330
81
100
AcDbEntity
  8
MD_可視
100
AcDbLine
 10
113.1192624679151
 20
72.25517788366231
 30
0.0
 11
113.1192624679151
 21
73.95517756424851
 31
0.0
  0
LINE
  5
E5
330
81
100
AcDbEntity
  8
MD_可視
100
AcDbLine
 10
113.1192624679151
 20
73.95517756424851
 30
0.0
 11
109.3192624679159
 21
73.95517756424851
 31
0.0
  0
LINE
  5
E6
330
81
100
AcDbEntity
  8
MD_可視
100
AcDbLine
 10
109.3192624679159
 20
73.95517756424851
 30
0.0
 11
109.3192624679159
 21
72.25517788366231
 31
0.0
  0
LINE
  5
E7
330
81
100
AcDbEntity
  8
MD_可視
100
AcDbLine
 10
113.7192624679155
 20
70.05517756424888
 30
0.0
 11
108.7192624679155
 21
70.05517756424888
 31
0.0
  0
LINE
  5
E8
330
81
100
AcDbEntity
  8
MD_可視
100
AcDbLine
 10
108.7192624679155
 20
71.65517756424924
 30
0.0000000000000009
 11
108.7192624679155
 21
70.05517756424888
 31
0.0
  0
LINE
  5
E9
330
81
100
AcDbEntity
  8
MD_可視
100
AcDbLine
 10
105.7192624679155
 20
71.65517756424924
 30
0.0000000000000009
 11
105.7192624679155
 21
70.05517756424888
 31
0.0
  0
LINE
  5
EA
330
81
100
AcDbEntity
  8
MD_可視
100
AcDbLine
 10
108.7192624679155
 20
70.05517756424888
 30
0.0
 11
105.7192624679155
 21
70.05517756424888
 31
0.0
  0
LINE
  5
EB
330
81
100
AcDbEntity
  8
MD_可視
100
AcDbLine
 10
113.7192624679155
 20
70.05517756424888
 30
0.0
 11
113.7192624679155
 21
71.65517756424924
 31
-0.0000000000000009
  0
LINE
  5
EC
330
81
100
AcDbEntity
  8
MD_可視
100
AcDbLine
 10
116.7192624679155
 20
70.05517756424888
 30
0.0
 11
113.7192624679155
 21
70.05517756424888
 31
0.0
  0
LINE
  5
ED
330
81
100
AcDbEntity
  8
MD_可視
100
AcDbLine
 10
116.7192624679155
 20
71.65517756424924
 30
0.0000000000000009
 11
116.7192624679155
 21
70.05517756424888
 31
0.0
  0
LINE
  5
EE
330
81
100
AcDbEntity
  8
MD_可視
100
AcDbLine
 10
117.1692624679163
 20
82.15517756424924
 30
-0.0000000000000009
 11
105.2692624679148
 21
82.15517756424924
 31
-0.0000000000000009
  0
LINE
  5
EF
330
81
100
AcDbEntity
  8
MD_可視
100
AcDbLine
 10
109.2192624679155
 20
91.45517756424853
 30
0.0000000000000009
 11
113.2192624679155
 21
91.45517756424853
 31
0.0000000000000009
  0
LINE
  5
F0
330
81
100
AcDbEntity
  8
MD_可視
100
AcDbLine
 10
113.2192624679155
 20
92.85517756424814
 30
0.0
 11
109.2192624679155
 21
92.85517756424814
 31
0.0
  0
LINE
  5
F1
330
81
100
AcDbEntity
  8
MD_可視
100
AcDbLine
 10
105.7192624679155
 20
92.85517756424814
 30
0.0
 11
105.7192624679155
 21
90.16837068312634
 31
0.0
  0
LINE
  5
F2
330
81
100
AcDbEntity
  8
MD_可視
100
AcDbLine
 10
105.7192624679155
 20
88.65517756424925
 30
0.0
 11
105.7192624679155
 21
87.65517756424925
 31
0.0
  0
LINE
  5
F3
330
81
100
AcDbEntity
  8
MD_可視
100
AcDbLine
 10
105.7192624679155
 20
90.15517756424923
 30
0.0
 11
105.7192624679155
 21
88.65517756424925
 31
0.0
  0
LINE
  5
F4
330
81
100
AcDbEntity
  8
MD_可視
100
AcDbLine
 10
105.7192624679155
 20
90.16837068312634
 30
0.0
 11
105.7192624679155
 21
90.15517756424923
 31
0.0
  0
LINE
  5
F5
330
81
100
AcDbEntity
  8
MD_可視
100
AcDbLine
 10
105.7192624679155
 20
92.85517756424814
 30
0.0
 11
105.7201716337331
 21
92.85517756424814
 31
0.0
  0
LINE
  5
F6
330
81
100
AcDbEntity
  8
MD_可視
100
AcDbLine
 10
109.2192624679155
 20
92.85517756424814
 30
0.0
 11
105.7201716337331
 21
92.85517756424814
 31
0.0
  0
LINE
  5
F7
330
81
100
AcDbEntity
  8
MD_可視
100
AcDbLine
 10
116.7183533020979
 20
92.85517756424814
 30
0.0
 11
113.2192624679155
 21
92.85517756424814
 31
0.0
  0
LINE
  5
F8
330
81
100
AcDbEntity
  8
MD_可視
100
AcDbLine
 10
116.7183533020979
 20
92.85517756424814
 30
0.0
 11
116.7192624679155
 21
92.85517756424814
 31
0.0
  0
LINE
  5
F9
330
81
100
AcDbEntity
  8
MD_狭い可視
100
AcDbLine
 10
115.3016687449799
 20
90.85813776527905
 30
0.0000000000000009
 11
107.1368561908512
 21
90.85813776527905
 31
-0.0000000000000009
  0
ELLIPSE
  5
FA
330
81
100
AcDbEntity
  8
MD_可視
100
AcDbEllipse
 10
111.2192624679119
 20
95.25517756371298
 30
0.0
 11
6.000000000004498
 21
0.0000000000029702
 31
0.0
210
0.0
220
0.0
230
1.0
 40
1.0
 41
-0.8224865817377892
 42
-0.4115168459700036
  0
LINE
  5
FB
330
81
100
AcDbEntity
  8
MD_可視
100
AcDbLine
 10
113.2192624679155
 20
91.45517756424853
 30
0.0000000000000009
 11
113.2192624679155
 21
92.85517756424814
 31
0.0
  0
LINE
  5
FC
330
81
100
AcDbEntity
  8
MD_可視
100
AcDbLine
 10
109.2192624679155
 20
92.85517756424814
 30
0.0
 11
109.2192624679155
 21
91.45517756424853
 31
0.0000000000000009
  0
ELLIPSE
  5
FD
330
81
100
AcDbEntity
  8
MD_可視
100
AcDbEllipse
 10
111.2192624679137
 20
95.25517756370936
 30
0.0
 11
0.0000000000020143
 21
-5.999999999998728
 31
0.0
210
0.0
220
0.0
230
1.0
 40
1.0
 41
5.12390582635409
 42
5.534875562122152
  0
LINE
  5
FE
330
81
100
AcDbEntity
  8
MD_可視
100
AcDbLine
 10
118.1192624679151
 20
87.65517756424925
 30
-0.0000000000000009
 11
104.3192624679159
 21
87.65517756424925
 31
-0.0000000000000009
  0
LINE
  5
FF
330
81
100
AcDbEntity
  8
MD_可視
100
AcDbLine
 10
104.3192624679159
 20
71.65517756424924
 30
-0.0000000000000009
 11
118.1192624679151
 21
71.65517756424924
 31
-0.0000000000000009
  0
LINE
  5
100
330
81
100
AcDbEntity
  8
MD_可視
100
AcDbLine
 10
107.9742624679147
 20
82.00517756424778
 30
0.0
 11
108.4142624679152
 21
82.00517756424778
 31
0.0
  0
LINE
  5
101
330
81
100
AcDbEntity
  8
MD_可視
100
AcDbLine
 10
106.2692624679148
 20
82.00517756424778
 30
0.0
 11
107.3642624679159
 21
82.00517756424778
 31
0.0
  0
LINE
  5
102
330
81
100
AcDbEntity
  8
MD_可視
100
AcDbLine
 10
114.0242624679158
 20
82.00517756424778
 30
0.0
 11
114.4642624679163
 21
82.00517756424778
 31
0.0
  0
LINE
  5
103
330
81
100
AcDbEntity
  8
MD_可視
100
AcDbLine
 10
115.0742624679151
 20
82.00517756424778
 30
0.0
 11
116.1692624679163
 21
82.00517756424778
 31
0.0
  0
LINE
  5
104
330
81
100
AcDbEntity
  8
MD_可視
100
AcDbLine
 10
109.0242624679158
 20
82.00517756424778
 30
0.0
 11
109.4142624679152
 21
82.00517756424778
 31
0.0
  0
LINE
  5
105
330
81
100
AcDbEntity
  8
MD_可視
100
AcDbLine
 10
110.0242624679158
 20
82.00517756424778
 30
0.0
 11
110.4142624679152
 21
82.00517756424778
 31
0.0
  0
LINE
  5
106
330
81
100
AcDbEntity
  8
MD_可視
100
AcDbLine
 10
111.0242624679158
 20
82.00517756424778
 30
0.0
 11
111.4142624679152
 21
82.00517756424778
 31
0.0
  0
LINE
  5
107
330
81
100
AcDbEntity
  8
MD_可視
100
AcDbLine
 10
112.0242624679158
 20
82.00517756424778
 30
0.0
 11
112.4142624679152
 21
82.00517756424778
 31
0.0
  0
LINE
  5
108
330
81
100
AcDbEntity
  8
MD_可視
100
AcDbLine
 10
113.0242624679158
 20
82.00517756424778
 30
0.0
 11
113.4142624679152
 21
82.00517756424778
 31
0.0
  0
LINE
  5
109
330
81
100
AcDbEntity
  8
MD_可視
100
AcDbLine
 10
103.9192624679162
 20
87.25517756424777
 30
-0.0000000000000009
 11
103.9192624679162
 21
72.05517756424888
 31
0.0000000000000009
  0
ARC
  5
10A
330
81
100
AcDbEntity
  8
MD_可視
100
AcDbCircle
 10
104.3192624679159
 20
72.05517756424888
 30
-0.0000000000000009
 40
0.4000000000000005
100
AcDbArc
 50
180.0
 51
270.0
  0
ARC
  5
10B
330
81
100
AcDbEntity
  8
MD_可視
100
AcDbCircle
 10
118.1192624679151
 20
72.05517756424888
 30
-0.0000000000000009
 40
0.4000000000000005
100
AcDbArc
 50
270.0
 51
0.0
  0
LINE
  5
10C
330
81
100
AcDbEntity
  8
MD_可視
100
AcDbLine
 10
118.5192624679148
 20
72.05517756424888
 30
-0.0000000000000009
 11
118.5192624679148
 21
87.25517756424777
 31
0.0000000000000009
  0
ARC
  5
10D
330
81
100
AcDbEntity
  8
MD_可視
100
AcDbCircle
 10
118.1192624679151
 20
87.25517756424777
 30
-0.0000000000000009
 40
0.4000000000000005
100
AcDbArc
 50
0.0
 51
90.0
  0
ARC
  5
10E
330
81
100
AcDbEntity
  8
MD_可視
100
AcDbCircle
 10
104.3192624679159
 20
87.25517756424777
 30
-0.0000000000000009
 40
0.4000000000000005
100
AcDbArc
 50
90.0
 51
180.0
  0
LINE
  5
10F
330
81
100
AcDbEntity
  8
MD_可視
100
AcDbLine
 10
111.411570160224
 20
83.50517756424777
 30
-0.0000000000000009
 11
111.026954775607
 21
83.50517756424777
 31
-0.0000000000000009
  0
SPLINE
  5
110
330
81
100
AcDbEntity
  8
MD_可視
100
AcDbSpline
210
0.0
220
0.0
230
1.0
 70
     8
 71
     3
 72
    11
 73
     7
 74
     0
 42
0.000000001
 43
0.0000000001
 40
0.0
 40
0.0
 40
0.0
 40
0.0
 40
0.2457078601239497
 40
0.4910458046940758
 40
0.7417105671362921
 40
1.0
 40
1.0
 40
1.0
 40
1.0
 10
111.026954775607
 20
83.50517756424777
 30
0.0
 10
111.012718271666
 20
83.52483527105505
 30
0.0
 10
110.9842666969762
 20
83.56412108980112
 30
0.0
 10
110.9524166479787
 20
83.63023621666798
 30
0.0
 10
110.9261928548767
 20
83.70005968167244
 30
0.0
 10
110.9164928306381
 20
83.74937916359886
 30
0.0
 10
110.9115701602241
 20
83.77440833348009
 30
0.0
  0
SPLINE
  5
111
330
81
100
AcDbEntity
  8
MD_可視
100
AcDbSpline
210
0.0
220
0.0
230
1.0
 70
     8
 71
     3
 72
    15
 73
    11
 74
     0
 42
0.000000001
 43
0.0000000001
 40
0.0
 40
0.0
 40
0.0
 40
0.0
 40
0.1496309535200396
 40
0.2882819739246364
 40
0.4156823843484715
 40
0.5340256197082246
 40
0.6478974760960467
 40
0.7625629189046136
 40
0.8796415697285507
 40
1.0
 40
1.0
 40
1.0
 40
1.0
 10
110.9115701602241
 20
83.77440833348009
 30
0.0
 10
110.8778623823509
 20
83.74789722092101
 30
0.0
 10
110.8129203064418
 20
83.69682038368045
 30
0.0
 10
110.7137113659773
 20
83.63070893961412
 30
0.0
 10
110.6178298791765
 20
83.57626569792229
 30
0.0
 10
110.5233620616764
 20
83.53463761627063
 30
0.0
 10
110.4285508738012
 20
83.50429915135647
 30
0.0
 10
110.3318272560809
 20
83.48265997790077
 30
0.0
 10
110.231678622893
 20
83.46888630266585
 30
0.0
 10
110.1636184101353
 20
83.46744608278823
 30
0.0
 10
110.129118237146
 20
83.46671602578679
 30
0.0
  0
SPLINE
  5
112
330
81
100
AcDbEntity
  8
MD_可視
100
AcDbSpline
210
0.0
220
0.0
230
1.0
 70
     8
 71
     3
 72
    23
 73
    19
 74
     0
 42
0.000000001
 43
0.0000000001
 40
0.0
 40
0.0
 40
0.0
 40
0.0
 40
0.0786682929692151
 40
0.1525937767191632
 40
0.2228626577967836
 40
0.2898954155805926
 40
0.3540434730085086
 40
0.4158251014519005
 40
0.4762572346307639
 40
0.5356471748304287
 40
0.5940303421736837
 40
0.6512128675007185
 40
0.7074640869910756
 40
0.7637209122634471
 40
0.8203826790805205
 40
0.8786793608029686
 40
0.9381648003428223
 40
1.0
 40
1.0
 40
1.0
 40
1.0
 10
110.129118237146
 20
83.46671602578679
 30
0.0
 10
110.1010576017579
 20
83.46737024837239
 30
0.0
 10
110.0466280702476
 20
83.46863925131037
 30
0.0
 10
109.9673938037795
 20
83.47621927647379
 30
0.0
 10
109.8932096988792
 20
83.49003399980393
 30
0.0
 10
109.8239508411352
 20
83.5094259697289
 30
0.0
 10
109.7591294640169
 20
83.53297273957105
 30
0.0
 10
109.6998983647772
 20
83.56348847181653
 30
0.0
 10
109.6454487901792
 20
83.59882644443677
 30
0.0
 10
109.596747365158
 20
83.63993607155682
 30
0.0
 10
109.553578559291
 20
83.68512461996578
 30
0.0
 10
109.5153535812696
 20
83.73318558816206
 30
0.0
 10
109.4834358648768
 20
83.78475961571712
 30
0.0
 10
109.4567264476955
 20
83.8389888053498
 30
0.0
 10
109.4361316615341
 20
83.89664210200683
 30
0.0
 10
109.4219143333939
 20
83.95733106442822
 30
0.0
 10
109.413358513977
 20
84.02095994211595
 30
0.0
 10
109.4121739259135
 20
84.06424544153558
 30
0.0
 10
109.411570160224
 20
84.08630737194107
 30
0.0
  0
SPLINE
  5
113
330
81
100
AcDbEntity
  8
MD_可視
100
AcDbSpline
210
0.0
220
0.0
230
1.0
 70
     8
 71
     3
 72
    19
 73
    15
 74
     0
 42
0.000000001
 43
0.0000000001
 40
0.0
 40
0.0
 40
0.0
 40
0.0
 40
0.0900967267208083
 40
0.1772509756632285
 40
0.2626286458387948
 40
0.3477956973146739
 40
0.4319444412211234
 40
0.5133389603343294
 40
0.5935987681294179
 40
0.6729312755166892
 40
0.7531851158179747
 40
0.8336683852273198
 40
0.9161820128050468
 40
1.0
 40
1.0
 40
1.0
 40
1.0
 10
109.411570160224
 20
84.08630737194107
 30
0.0
 10
109.4122871105119
 20
84.1124120710956
 30
0.0
 10
109.413697596141
 20
84.16376891348955
 30
0.0
 10
109.4275773886183
 20
84.23877872953381
 30
0.0
 10
109.4489626788727
 20
84.31042239925409
 30
0.0
 10
109.4799456875262
 20
84.37756046228424
 30
0.0
 10
109.5175379334414
 20
84.43980865505727
 30
0.0
 10
109.5612405569354
 20
84.4961278179071
 30
0.0
 10
109.6097859613965
 20
84.54648863845795
 30
0.0
 10
109.6647368421727
 20
84.58924014278272
 30
0.0
 10
109.7236967704739
 20
84.62615311981791
 30
0.0
 10
109.786046766696
 20
84.65901451781064
 30
0.0
 10
109.8520607455575
 20
84.68665328840144
 30
0.0
 10
109.8980237988453
 20
84.70104851022915
 30
0.0
 10
109.9211855448393
 20
84.70830256424781
 30
0.0
  0
SPLINE
  5
114
330
81
100
AcDbEntity
  8
MD_可視
100
AcDbSpline
210
0.0
220
0.0
230
1.0
 70
     8
 71
     3
 72
    11
 73
     7
 74
     0
 42
0.000000001
 43
0.0000000001
 40
0.0
 40
0.0
 40
0.0
 40
0.0
 40
0.1888117805854824
 40
0.4192996053475297
 40
0.6884945673211772
 40
1.0
 40
1.0
 40
1.0
 40
1.0
 10
109.9211855448393
 20
84.70830256424781
 30
0.0
 10
109.940767254835
 20
84.7133352801884
 30
0.0
 10
109.984252906248
 20
84.72451157332399
 30
0.0
 10
110.0568642121398
 20
84.73739658372869
 30
0.0
 10
110.1425229575852
 20
84.75162836696108
 30
0.0
 10
110.2042038167819
 20
84.75941437383154
 30
0.0
 10
110.2372913140698
 20
84.76359102578681
 30
0.0
  0
SPLINE
  5
115
330
81
100
AcDbEntity
  8
MD_可視
100
AcDbSpline
210
0.0
220
0.0
230
1.0
 70
     8
 71
     3
 72
    15
 73
    11
 74
     0
 42
0.000000001
 43
0.0000000001
 40
0.0
 40
0.0
 40
0.0
 40
0.0
 40
0.1619610642351127
 40
0.3128900900429809
 40
0.45401406528615
 40
0.584334759853995
 40
0.7037294930768489
 40
0.8126687828164945
 40
0.9110788799666368
 40
1.0
 40
1.0
 40
1.0
 40
1.0
 10
110.2372913140698
 20
84.76359102578681
 30
0.0
 10
110.2719525319189
 20
84.76815300053749
 30
0.0
 10
110.3389140058079
 20
84.77696620942333
 30
0.0
 10
110.4359836325984
 20
84.79049201783345
 30
0.0
 10
110.5259228426293
 20
84.80551816230581
 30
0.0
 10
110.6087926154596
 20
84.82132311734494
 30
0.0
 10
110.6847335378079
 20
84.83645595007876
 30
0.0
 10
110.7532017433841
 20
84.85344640864605
 30
0.0
 10
110.8148290796307
 20
84.87062411461556
 30
0.0
 10
110.8531268225615
 20
84.88362281387708
 30
0.0
 10
110.871305737146
 20
84.88979294886304
 30
0.0
  0
SPLINE
  5
116
330
81
100
AcDbEntity
  8
MD_可視
100
AcDbSpline
210
0.0
220
0.0
230
1.0
 70
     8
 71
     3
 72
    11
 73
     7
 74
     0
 42
0.000000001
 43
0.0000000001
 40
0.0
 40
0.0
 40
0.0
 40
0.0
 40
0.3556804465405314
 40
0.64427803304755
 40
0.8590950904898598
 40
1.0
 40
1.0
 40
1.0
 40
1.0
 10
110.871305737146
 20
84.88979294886304
 30
0.0
 10
110.8715090506593
 20
84.90040987481554
 30
0.0
 10
110.8718773318851
 20
84.91964132887915
 30
0.0
 10
110.8723291218775
 20
84.94528579399412
 30
0.0
 10
110.8732121600915
 20
84.96450769057082
 30
0.0
 10
110.87313799806
 20
84.97512901057598
 30
0.0
 10
110.8731086217612
 20
84.97933621809535
 30
0.0
  0
SPLINE
  5
117
330
81
100
AcDbEntity
  8
MD_可視
100
AcDbSpline
210
0.0
220
0.0
230
1.0
 70
     8
 71
     3
 72
    15
 73
    11
 74
     0
 42
0.000000001
 43
0.0000000001
 40
0.0
 40
0.0
 40
0.0
 40
0.0
 40
0.1576937362009051
 40
0.3027499425532365
 40
0.4381682001453404
 40
0.5647048489007961
 40
0.6817627038951844
 40
0.7918313926672657
 40
0.8965243972894391
 40
1.0
 40
1.0
 40
1.0
 40
1.0
 10
110.8731086217612
 20
84.97933621809535
 30
0.0
 10
110.8726727284102
 20
84.99616863807023
 30
0.0
 10
110.8718358740698
 20
85.02848453281329
 30
0.0
 10
110.8679830169112
 20
85.07516716593817
 30
0.0
 10
110.8600678531802
 20
85.11797165405914
 30
0.0
 10
110.8494020166235
 20
85.15703888981986
 30
0.0
 10
110.8358657154294
 20
85.19244864347092
 30
0.0
 10
110.8179342101702
 20
85.22308161584078
 30
0.0
 10
110.7983418951007
 20
85.25104311376891
 30
0.0
 10
110.7820488488996
 20
85.26624892786093
 30
0.0
 10
110.7739499679155
 20
85.27380737194105
 30
0.0
  0
SPLINE
  5
118
330
81
100
AcDbEntity
  8
MD_可視
100
AcDbSpline
210
0.0
220
0.0
230
1.0
 70
     8
 71
     3
 72
    15
 73
    11
 74
     0
 42
0.000000001
 43
0.0000000001
 40
0.0
 40
0.0
 40
0.0
 40
0.0
 40
0.1049703496517389
 40
0.2146398276404141
 40
0.3285607599507869
 40
0.44666484767902
 40
0.5732739117380831
 40
0.7065365026034147
 40
0.8485731287121453
 40
1.0
 40
1.0
 40
1.0
 40
1.0
 10
110.7739499679155
 20
85.27380737194105
 30
0.0
 10
110.7623662573569
 20
85.28316330919551
 30
0.0
 10
110.7386802770197
 20
85.30229401387805
 30
0.0
 10
110.6979069028002
 20
85.32502115066199
 30
0.0
 10
110.6541971587576
 20
85.34586863755428
 30
0.0
 10
110.6059247379526
 20
85.3620266004418
 30
0.0
 10
110.5538098509351
 20
85.37443656235154
 30
0.0
 10
110.4975597007997
 20
85.38338982653661
 30
0.0
 10
110.4373193936972
 20
85.3888411641874
 30
0.0
 10
110.3957568010792
 20
85.38946899090481
 30
0.0
 10
110.3743105448393
 20
85.38979294886303
 30
0.0
  0
SPLINE
  5
119
330
81
100
AcDbEntity
  8
MD_可視
100
AcDbSpline
210
0.0
220
0.0
230
1.0
 70
     8
 71
     3
 72
    19
 73
    15
 74
     0
 42
0.000000001
 43
0.0000000001
 40
0.0
 40
0.0
 40
0.0
 40
0.0
 40
0.0851827668127383
 40
0.163701695159659
 40
0.2382837371174095
 40
0.3066129873470371
 40
0.3706460675668893
 40
0.4288211849073737
 40
0.4845120224017472
 40
0.535639844320048
 40
0.6372693692268117
 40
0.7452788635791565
 40
0.8653142197383731
 40
1.0
 40
1.0
 40
1.0
 40
1.0
 10
110.3743105448393
 20
85.38979294886303
 30
0.0
 10
110.3542719893703
 20
85.38958832236856
 30
0.0
 10
110.3157624924188
 20
85.38919507728314
 30
0.0
 10
110.2598130704646
 20
85.38546145887812
 30
0.0
 10
110.2080256928911
 20
85.37971258330617
 30
0.0
 10
110.1600460619011
 20
85.37128473128541
 30
0.0
 10
110.1164986184067
 20
85.36056713513969
 30
0.0
 10
110.0765626304055
 20
85.34794769047769
 30
0.0
 10
110.0407931481386
 20
85.3326532543706
 30
0.0
 10
109.9982738082235
 20
85.30808560297737
 30
0.0
 10
109.9504275871968
 20
85.26871321564977
 30
0.0
 10
109.9035835842878
 20
85.20636519981598
 30
0.0
 10
109.8624664528597
 20
85.13111514878255
 30
0.0
 10
109.8442690836673
 20
85.07389480443089
 30
0.0
 10
109.8346470833003
 20
85.04363910271058
 30
0.0
  0
LINE
  5
11A
330
81
100
AcDbEntity
  8
MD_可視
100
AcDbLine
 10
109.8346470833003
 20
85.04363910271058
 30
-0.0000000000000009
 11
109.450031698685
 21
85.08210064117156
 31
-0.0000000000000009
  0
SPLINE
  5
11B
330
81
100
AcDbEntity
  8
MD_可視
100
AcDbSpline
210
0.0
220
0.0
230
1.0
 70
     8
 71
     3
 72
    19
 73
    15
 74
     0
 42
0.000000001
 43
0.0000000001
 40
0.0
 40
0.0
 40
0.0
 40
0.0
 40
0.0851044530188514
 40
0.1643314998230949
 40
0.2380773820525838
 40
0.3082779440134491
 40
0.3780989755694151
 40
0.4508414657082242
 40
0.5285405729277653
 40
0.6119430152696534
 40
0.7014543501110868
 40
0.7954789558948187
 40
0.8947745344629714
 40
1.0
 40
1.0
 40
1.0
 40
1.0
 10
109.450031698685
 20
85.08210064117156
 30
0.0
 10
109.4588567625833
 20
85.11819045267293
 30
0.0
 10
109.475897421853
 20
85.18787767398498
 30
0.0
 10
109.5133926390554
 20
85.28507119285677
 30
0.0
 10
109.5587743816668
 20
85.37138712361411
 30
0.0
 10
109.6119428669426
 20
85.44843971834053
 30
0.0
 10
109.6772964103857
 20
85.51490076489789
 30
0.0
 10
109.7539523127652
 20
85.57340385406133
 30
0.0
 10
109.8439110560284
 20
85.62217795880497
 30
0.0
 10
109.9452867477084
 20
85.66356134954549
 30
0.0
 10
110.0572840930599
 20
85.69618747344794
 30
0.0
 10
110.1786087239779
 20
85.71937705916026
 30
0.0
 10
110.30828362186
 20
85.7332275188528
 30
0.0
 10
110.3975129165174
 20
85.73502301673036
 30
0.0
 10
110.4434211217613
 20
85.73594679501729
 30
0.0
  0
SPLINE
  5
11C
330
81
100
AcDbEntity
  8
MD_可視
100
AcDbSpline
210
0.0
220
0.0
230
1.0
 70
     8
 71
     3
 72
    19
 73
    15
 74
     0
 42
0.000000001
 43
0.0000000001
 40
0.0
 40
0.0
 40
0.0
 40
0.0
 40
0.127701507100352
 40
0.2433675130499634
 40
0.3471885755802541
 40
0.4412827405881253
 40
0.5260554750250694
 40
0.6028203240880924
 40
0.6721135485315816
 40
0.735775234964772
 40
0.7977781204612833
 40
0.8617653921994165
 40
0.9285338459256562
 40
1.0
 40
1.0
 40
1.0
 40
1.0
 10
110.4434211217613
 20
85.73594679501729
 30
0.0
 10
110.4883209057389
 20
85.73516200816085
 30
0.0
 10
110.573888797704
 20
85.73366639836057
 30
0.0
 10
110.6955250645533
 20
85.7219351336098
 30
0.0
 10
110.8041310230201
 20
85.70200687376928
 30
0.0
 10
110.8994577107569
 20
85.67313866227413
 30
0.0
 10
110.9823230713355
 20
85.63802277994545
 30
0.0
 10
111.0538677055956
 20
85.59937900078693
 30
0.0
 10
111.1137566972211
 20
85.55592947781406
 30
0.0
 10
111.1625705570095
 20
85.50739619357591
 30
0.0
 10
111.201730713994
 20
85.45309943043683
 30
0.0
 10
111.2333877540495
 20
85.39302592312195
 30
0.0
 10
111.2598287501441
 20
85.32681312454588
 30
0.0
 10
111.2715143686128
 20
85.27959100911903
 30
0.0
 10
111.277555737146
 20
85.25517756424781
 30
0.0
  0
SPLINE
  5
11D
330
81
100
AcDbEntity
  8
MD_可視
100
AcDbSpline
210
0.0
220
0.0
230
1.0
 70
     8
 71
     3
 72
    11
 73
     7
 74
     0
 42
0.000000001
 43
0.0000000001
 40
0.0
 40
0.0
 40
0.0
 40
0.0
 40
0.1714607416066568
 40
0.3944860454859538
 40
0.6699947376241078
 40
1.0
 40
1.0
 40
1.0
 40
1.0
 10
111.277555737146
 20
85.25517756424781
 30
0.0
 10
111.2806621258642
 20
85.23658293623885
 30
0.0
 10
111.2878091088387
 20
85.19380159048159
 30
0.0
 10
111.2918049921372
 20
85.12019296557445
 30
0.0
 10
111.2957987144473
 20
85.0292639823292
 30
0.0
 10
111.2960490900623
 20
84.96271876398168
 30
0.0
 10
111.2961855448393
 20
84.92645160271058
 30
0.0
  0
LINE
  5
11E
330
81
100
AcDbEntity
  8
MD_可視
100
AcDbLine
 10
111.2961855448393
 20
84.92645160271058
 30
-0.0000000000000009
 11
111.2961855448393
 21
84.45710064117156
 31
-0.0000000000000009
  0
SPLINE
  5
11F
330
81
100
AcDbEntity
  8
MD_可視
100
AcDbSpline
210
0.0
220
0.0
230
1.0
 70
     8
 71
     3
 72
    19
 73
    15
 74
     0
 42
0.000000001
 43
0.0000000001
 40
0.0
 40
0.0
 40
0.0
 40
0.0
 40
0.1217293659998131
 40
0.2322798102196394
 40
0.3322878453389916
 40
0.42115371304021
 40
0.5000894513783442
 40
0.5678874862432375
 40
0.6252406305038765
 40
0.671537735466273
 40
0.753639908950063
 40
0.8352921912177425
 40
0.917389666571376
 40
1.0
 40
1.0
 40
1.0
 40
1.0
 10
111.2961855448393
 20
84.45710064117156
 30
0.0
 10
111.2964066808581
 20
84.41783791478156
 30
0.0
 10
111.2968286450414
 20
84.34291812398258
 30
0.0
 10
111.2971070162712
 20
84.23574015846496
 30
0.0
 10
111.2987590570792
 20
84.13916874255482
 30
0.0
 10
111.3021069983515
 20
84.05284988868336
 30
0.0
 10
111.3048721728737
 20
83.97691002859392
 30
0.0
 10
111.3082146616343
 20
83.91115898667884
 30
0.0
 10
111.3129832296363
 20
83.85605322891207
 30
0.0
 10
111.3200384201227
 20
83.79654696327634
 30
0.0
 10
111.3323400194313
 20
83.72982226838393
 30
0.0
 10
111.3531813660465
 20
83.65326512913634
 30
0.0
 10
111.3785084633109
 20
83.57782831454825
 30
0.0
 10
111.4005267414868
 20
83.52944469909198
 30
0.0
 10
111.411570160224
 20
83.50517756424777
 30
0.0
  0
SPLINE
  5
120
330
81
100
AcDbEntity
  8
MD_可視
100
AcDbSpline
210
0.0
220
0.0
230
1.0
 70
     8
 71
     3
 72
    15
 73
    11
 74
     0
 42
0.000000001
 43
0.0000000001
 40
0.0
 40
0.0
 40
0.0
 40
0.0
 40
0.1256252946076526
 40
0.2476191198714974
 40
0.3685282895233568
 40
0.4881037300239341
 40
0.6098782614881922
 40
0.7353819182136065
 40
0.8644478927872988
 40
0.9999999999999998
 40
0.9999999999999998
 40
0.9999999999999998
 40
0.9999999999999998
 10
114.3154163140698
 20
86.16443237194108
 30
0.0
 10
114.3396438118525
 20
86.19168353451277
 30
0.0
 10
114.3873984594866
 20
86.24539810618989
 30
0.0
 10
114.4690916471154
 20
86.314784609267
 30
0.0
 10
114.5561426202657
 20
86.37405135781227
 30
0.0
 10
114.649939736988
 20
86.42193376028444
 30
0.0
 10
114.7497660997705
 20
86.45926441797383
 30
0.0
 10
114.8556842911348
 20
86.48636316766351
 30
0.0
 10
114.9679898727699
 20
86.50207857183705
 30
0.0
 10
115.0447336753623
 20
86.50412782350576
 30
0.0
 10
115.0840461217613
 20
86.50517756424781
 30
0.0
  0
SPLINE
  5
121
330
81
100
AcDbEntity
  8
MD_可視
100
AcDbSpline
210
0.0
220
0.0
230
1.0
 70
     8
 71
     3
 72
    23
 73
    19
 74
     0
 42
0.000000001
 43
0.0000000001
 40
0.0
 40
0.0
 40
0.0
 40
0.0
 40
0.0684992740155349
 40
0.1345723412227612
 40
0.1982078938657566
 40
0.259783711188208
 40
0.3199508629892121
 40
0.3795083209249203
 40
0.438814215083894
 40
0.4984970572803557
 40
0.5581817413977258
 40
0.617437565688256
 40
0.6775224407104811
 40
0.7379594017204653
 40
0.800329915923327
 40
0.8640897299070049
 40
0.9306220751641751
 40
1.0
 40
1.0
 40
1.0
 40
1.0
 10
115.0840461217613
 20
86.50517756424781
 30
0.0
 10
115.1133186028201
 20
86.504660117238
 30
0.0
 10
115.1708267496742
 20
86.50364355090642
 30
0.0
 10
115.2550908627581
 20
86.49388949309832
 30
0.0
 10
115.3352408417468
 20
86.47758704922489
 30
0.0
 10
115.4114552012652
 20
86.45559687466265
 30
0.0
 10
115.4832907754644
 20
86.42632514379149
 30
0.0
 10
115.5515757418125
 20
86.39163497467778
 30
0.0
 10
115.6156167213557
 20
86.34990488142284
 30
0.0
 10
115.6749500912083
 20
86.30170498931695
 30
0.0
 10
115.7297228177049
 20
86.24840163487533
 30
0.0
 10
115.7787819869063
 20
86.18954720243165
 30
0.0
 10
115.8219427476342
 20
86.12587522078682
 30
0.0
 10
115.8595426208503
 20
86.05725326676292
 30
0.0
 10
115.8912456194975
 20
85.9840061731502
 30
0.0
 10
115.9172753567381
 20
85.90581913334972
 30
0.0
 10
115.9370596939916
 20
85.82271223978386
 30
0.0
 10
115.9456477604526
 20
85.76526950647348
 30
0.0
 10
115.950031698685
 20
85.73594679501729
 30
0.0
  0
LINE
  5
122
330
81
100
AcDbEntity
  8
MD_可視
100
AcDbLine
 10
115.950031698685
 20
85.73594679501729
 30
-0.0000000000000009
 11
115.5654163140698
 21
85.69748525655631
 31
-0.0000000000000009
  0
SPLINE
  5
123
330
81
100
AcDbEntity
  8
MD_可視
100
AcDbSpline
210
0.0
220
0.0
230
1.0
 70
     8
 71
     3
 72
    11
 73
     7
 74
     0
 42
0.000000001
 43
0.0000000001
 40
0.0
 40
0.0
 40
0.0
 40
0.0
 40
0.2998017805186771
 40
0.5643307104009605
 40
0.7962039376405699
 40
0.9999999999999998
 40
0.9999999999999998
 40
0.9999999999999998
 40
0.9999999999999998
 10
115.5654163140698
 20
85.69748525655631
 30
0.0
 10
115.5571166235131
 20
85.73056423162595
 30
0.0
 10
115.5414937334153
 20
85.79283031112572
 30
0.0
 10
115.5087326789707
 20
85.87728485473599
 30
0.0
 10
115.4726306957946
 20
85.94871903416787
 30
0.0
 10
115.4412659190638
 20
85.98718436714808
 30
0.0
 10
115.426594198685
 20
86.00517756424777
 30
0.0
  0
SPLINE
  5
124
330
81
100
AcDbEntity
  8
MD_可視
100
AcDbSpline
210
0.0
220
0.0
230
1.0
 70
     8
 71
     3
 72
    15
 73
    11
 74
     0
 42
0.000000001
 43
0.0000000001
 40
0.0
 40
0.0
 40
0.0
 40
0.0
 40
0.1285451174344149
 40
0.2528184904281078
 40
0.3752117264077487
 40
0.4971127859563166
 40
0.6185461982990173
 40
0.7422220788766119
 40
0.8694577042621535
 40
1.0
 40
1.0
 40
1.0
 40
1.0
 10
115.426594198685
 20
86.00517756424777
 30
0.0
 10
115.4140002331223
 20
86.01744991259693
 30
0.0
 10
115.3892308181075
 20
86.04158678100064
 30
0.0
 10
115.3485684542029
 20
86.07304936189576
 30
0.0
 10
115.3057035916645
 20
86.09970603818874
 30
0.0
 10
115.2605066767537
 20
86.12130198767045
 30
0.0
 10
115.2132218824335
 20
86.13836154803903
 30
0.0
 10
115.1636533454239
 20
86.15029561897062
 30
0.0
 10
115.1119133594766
 20
86.15768348588972
 30
0.0
 10
115.0766590206967
 20
86.15857316985785
 30
0.0
 10
115.058805737146
 20
86.15902371809534
 30
0.0
  0
SPLINE
  5
125
330
81
100
AcDbEntity
  8
MD_可視
100
AcDbSpline
210
0.0
220
0.0
230
1.0
 70
     8
 71
     3
 72
    11
 73
     7
 74
     0
 42
0.000000001
 43
0.0000000001
 40
0.0
 40
0.0
 40
0.0
 40
0.0
 40
0.2525842206944831
 40
0.4990953890513554
 40
0.7471186819282142
 40
1.0
 40
1.0
 40
1.0
 40
1.0
 10
115.058805737146
 20
86.15902371809534
 30
0.0
 10
115.0298624927782
 20
86.15809178153359
 30
0.0
 10
114.9726719059381
 20
86.1562503155892
 30
0.0
 10
114.888763093586
 20
86.13822250367229
 30
0.0
 10
114.8072640503051
 20
86.11124100712368
 30
0.0
 10
114.7567723804404
 20
86.08388969823318
 30
0.0
 10
114.731281698685
 20
86.07008141040205
 30
0.0
  0
SPLINE
  5
126
330
81
100
AcDbEntity
  8
MD_可視
100
AcDbSpline
210
0.0
220
0.0
230
1.0
 70
     8
 71
     3
 72
    19
 73
    15
 74
     0
 42
0.000000001
 43
0.0000000001
 40
0.0
 40
0.0
 40
0.0
 40
0.0
 40
0.0886088586055268
 40
0.181892785855875
 40
0.280786916005017
 40
0.3870200306376105
 40
0.4441070086725201
 40
0.5064540437724885
 40
0.5743963843992962
 40
0.6476557621114193
 40
0.7264261552232254
 40
0.8114582433665033
 40
0.9027797790232774
 40
0.9999999999999998
 40
0.9999999999999998
 40
0.9999999999999998
 40
0.9999999999999998
 10
114.731281698685
 20
86.07008141040205
 30
0.0
 10
114.706213194835
 20
86.04931150694028
 30
0.0
 10
114.6547535544068
 20
86.00667586461169
 30
0.0
 10
114.587598088694
 20
85.92789413029095
 30
0.0
 10
114.5275418413712
 20
85.83616866393823
 30
0.0
 10
114.4832492756759
 20
85.75053595487043
 30
0.0
 10
114.4520775759065
 20
85.67375870151954
 30
0.0
 10
114.4319174161119
 20
85.60795825911373
 30
0.0
 10
114.4146930670649
 20
85.53526230939494
 30
0.0
 10
114.4003442125595
 20
85.45580782313846
 30
0.0
 10
114.3892462974327
 20
85.36953034915859
 30
0.0
 10
114.3799706621685
 20
85.27637509226952
 30
0.0
 10
114.3748404483613
 20
85.17610585741023
 30
0.0
 10
114.3736978133893
 20
85.10694542199415
 30
0.0
 10
114.3731086217613
 20
85.0712833334801
 30
0.0
  0
SPLINE
  5
127
330
81
100
AcDbEntity
  8
MD_可視
100
AcDbSpline
210
0.0
220
0.0
230
1.0
 70
     8
 71
     3
 72
    15
 73
    11
 74
     0
 42
0.000000001
 43
0.0000000001
 40
0.0
 40
0.0
 40
0.0
 40
0.0
 40
0.1354896744388947
 40
0.2652293031645521
 40
0.3907782808399338
 40
0.5154203378656294
 40
0.6383168811174507
 40
0.7596418811355598
 40
0.8789020252780941
 40
1.0
 40
1.0
 40
1.0
 40
1.0
 10
114.3731086217613
 20
85.0712833334801
 30
0.0
 10
114.3957842498148
 20
85.10314191225189
 30
0.0
 10
114.4401731750367
 20
85.16550702370841
 30
0.0
 10
114.5184785946494
 20
85.24708521729008
 30
0.0
 10
114.6039844957959
 20
85.3160446800939
 30
0.0
 10
114.6967864774578
 20
85.37110419085001
 30
0.0
 10
114.7944630467955
 20
85.4137766766944
 30
0.0
 10
114.8948603150857
 20
85.44448336904498
 30
0.0
 10
114.9978023258773
 20
85.46333194989712
 30
0.0
 10
115.0671406951405
 20
85.46558226502384
 30
0.0
 10
115.1020749679155
 20
85.46671602578681
 30
0.0
  0
SPLINE
  5
128
330
81
100
AcDbEntity
  8
MD_可視
100
AcDbSpline
210
0.0
220
0.0
230
1.0
 70
     8
 71
     3
 72
    23
 73
    19
 74
     0
 42
0.000000001
 43
0.0000000001
 40
0.0
 40
0.0
 40
0.0
 40
0.0
 40
0.0613471084415218
 40
0.1212028776832495
 40
0.1798630304276272
 40
0.2381521294361482
 40
0.2962519403766945
 40
0.3551902663142967
 40
0.4156756902535169
 40
0.4783789970641836
 40
0.5415239332824412
 40
0.6039765325455125
 40
0.6665132574788851
 40
0.7294914548860092
 40
0.7937096416311121
 40
0.8597359537171055
 40
0.9284490077765871
 40
1.0
 40
1.0
 40
1.0
 40
1.0
 10
115.1020749679155
 20
85.46671602578681
 30
0.0
 10
115.132161937352
 20
85.4659065289943
 30
0.0
 10
115.1916044664176
 20
85.46430721415527
 30
0.0
 10
115.2791403234278
 20
85.4516333861593
 30
0.0
 10
115.3630614067497
 20
85.42946598758135
 30
0.0
 10
115.4440949813434
 20
85.40058786126975
 30
0.0
 10
115.5206838404956
 20
85.36115775211328
 30
0.0
 10
115.5946971921548
 20
85.31507556559882
 30
0.0
 10
115.6644208787238
 20
85.25899883109559
 30
0.0
 10
115.7307373275525
 20
85.19599022809599
 30
0.0
 10
115.7911158748738
 20
85.12593867505348
 30
0.0
 10
115.8445551712411
 20
85.05054325685524
 30
0.0
 10
115.889088041833
 20
84.96962325700222
 30
0.0
 10
115.92519905064
 20
84.88372060606344
 30
0.0
 10
115.9534622248029
 20
84.79314788709414
 30
0.0
 10
115.9739987780667
 20
84.69764789817601
 30
0.0
 10
115.9860206015419
 20
84.597031889356
 30
0.0
 10
115.9876579823303
 20
84.52824675798911
 30
0.0
 10
115.988493237146
 20
84.49315833348009
 30
0.0
  0
SPLINE
  5
129
330
81
100
AcDbEntity
  8
MD_可視
100
AcDbSpline
210
0.0
220
0.0
230
1.0
 70
     8
 71
     3
 72
    27
 73
    23
 74
     0
 42
0.000000001
 43
0.0000000001
 40
0.0
 40
0.0
 40
0.0
 40
0.0
 40
0.0888989575740234
 40
0.1754399590920146
 40
0.2616330943333005
 40
0.3480101664194588
 40
0.3908192986495191
 40
0.432813673820358
 40
0.4737758260112657
 40
0.5141663219561944
 40
0.5541065400856536
 40
0.5941206190606893
 40
0.6336203783533562
 40
0.6735846162308144
 40
0.7134804522169651
 40
0.7533596321651003
 40
0.7928911489368487
 40
0.8330065645237374
 40
0.8736430407261462
 40
0.9148925241177895
 40
0.9569501332840467
 40
1.0
 40
1.0
 40
1.0
 40
1.0
 10
115.988493237146
 20
84.49315833348009
 30
0.0
 10
115.9869967574341
 20
84.44678627170835
 30
0.0
 10
115.98404349064
 20
84.35527212079069
 30
0.0
 10
115.9603388995001
 20
84.22050530007618
 30
0.0
 10
115.9221424766347
 20
84.09060311246866
 30
0.0
 10
115.8764498863911
 20
83.9877318404833
 30
0.0
 10
115.8344703233324
 20
83.90892145401084
 30
0.0
 10
115.798824763342
 20
83.85379797274437
 30
0.0
 10
115.760709605116
 20
83.80199578716201
 30
0.0
 10
115.7208468190565
 20
83.75280206020944
 30
0.0
 10
115.6763451254683
 20
83.70846830218033
 30
0.0
 10
115.6299024709915
 20
83.66690553308947
 30
0.0
 10
115.5799837509567
 20
83.62955068850897
 30
0.0
 10
115.5280571295207
 20
83.59516085300674
 30
0.0
 10
115.4731416768172
 20
83.56534135691436
 30
0.0
 10
115.4168352844699
 20
83.5388435125751
 30
0.0
 10
115.3586744470904
 20
83.51627222328716
 30
0.0
 10
115.2984713665391
 20
83.4985499510658
 30
0.0
 10
115.2365343744677
 20
83.48388795461142
 30
0.0
 10
115.172657316758
 20
83.47380647960562
 30
0.0
 10
115.1070083072682
 20
83.46758897847029
 30
0.0
 10
115.0626258718366
 20
83.4670092629585
 30
0.0
 10
115.0401759294545
 20
83.46671602578679
 30
0.0
  0
SPLINE
  5
12A
330
81
100
AcDbEntity
  8
MD_可視
100
AcDbSpline
210
0.0
220
0.0
230
1.0
 70
     8
 71
     3
 72
    23
 73
    19
 74
     0
 42
0.000000001
 43
0.0000000001
 40
0.0
 40
0.0
 40
0.0
 40
0.0
 40
0.0561566638067676
 40
0.1101330925141284
 40
0.1625371381772304
 40
0.2139124884561299
 40
0.2651461962449203
 40
0.3165104009872359
 40
0.3691785161241321
 40
0.42312311356997
 40
0.4792758559041514
 40
0.5386907404023799
 40
0.6019784943490567
 40
0.6701250002959358
 40
0.7436502200618743
 40
0.822810001299134
 40
0.9082614994691935
 40
1.0
 40
1.0
 40
1.0
 40
1.0
 10
115.0401759294545
 20
83.46671602578679
 30
0.0
 10
115.0022621766293
 20
83.46776739455526
 30
0.0
 10
114.9279066404469
 20
83.46982931358615
 30
0.0
 10
114.8190764359442
 20
83.48566990663494
 30
0.0
 10
114.7157373973896
 20
83.51214176370012
 30
0.0
 10
114.6176697051105
 20
83.54915241307571
 30
0.0
 10
114.5245746149649
 20
83.59587759813441
 30
0.0
 10
114.4373695584181
 20
83.6544508385341
 30
0.0
 10
114.3555720047698
 20
83.72313534783826
 30
0.0
 10
114.2791188951705
 20
83.80232946949945
 30
0.0
 10
114.2097989281446
 20
83.89377486124066
 30
0.0
 10
114.1505549609501
 20
83.99933090300692
 30
0.0
 10
114.1000738420171
 20
84.11807361503816
 30
0.0
 10
114.0587594399057
 20
84.25032969656056
 30
0.0
 10
114.027496363773
 20
84.39623745463359
 30
0.0
 10
114.0049856307687
 20
84.55548352410003
 30
0.0
 10
113.9911417800358
 20
84.7280907139102
 30
0.0
 10
113.9893967239622
 20
84.84769872586367
 30
0.0
 10
113.988493237146
 20
84.90962467963255
 30
0.0
  0
SPLINE
  5
12B
330
81
100
AcDbEntity
  8
MD_可視
100
AcDbSpline
210
0.0
220
0.0
230
1.0
 70
     8
 71
     3
 72
    23
 73
    19
 74
     0
 42
0.000000001
 43
0.0000000001
 40
0.0
 40
0.0
 40
0.0
 40
0.0
 40
0.0800336362369323
 40
0.1578536902937591
 40
0.232564174657328
 40
0.3047309509194766
 40
0.3743843190083575
 40
0.4416625497527582
 40
0.5060481917984239
 40
0.5686922589379372
 40
0.6287153332462722
 40
0.6872384655252937
 40
0.7432265702378956
 40
0.7975674113917881
 40
0.8502389173987621
 40
0.9016288796169391
 40
0.9510666585259007
 40
0.9999999999999998
 40
0.9999999999999998
 40
0.9999999999999998
 40
0.9999999999999998
 10
113.988493237146
 20
84.90962467963255
 30
0.0
 10
113.9886430479182
 20
84.94488731400815
 30
0.0
 10
113.9889385259739
 20
85.01443728358571
 30
0.0
 10
113.9936865941563
 20
85.11679750248005
 30
0.0
 10
113.9991332148638
 20
85.21565103643116
 30
0.0
 10
114.0084651391426
 20
85.31060350445841
 30
0.0
 10
114.0194836929713
 20
85.40208197184801
 30
0.0
 10
114.0342704467948
 20
85.48954847798995
 30
0.0
 10
114.0501496379056
 20
85.57368287879034
 30
0.0
 10
114.0694554942674
 20
85.65382276067612
 30
0.0
 10
114.0909768045167
 20
85.7307220325274
 30
0.0
 10
114.1157485815074
 20
85.80353573660795
 30
0.0
 10
114.1419137141565
 20
85.87320595560411
 30
0.0
 10
114.1715975128645
 20
85.93863364197568
 30
0.0
 10
114.2032335271397
 20
86.00088439021238
 30
0.0
 10
114.2382025096031
 20
86.05880623194208
 30
0.0
 10
114.2748754717868
 20
86.11372356769059
 30
0.0
 10
114.3019489767321
 20
86.14758732052358
 30
0.0
 10
114.3154163140698
 20
86.16443237194108
 30
0.0
  0
SPLINE
  5
12C
330
81
100
AcDbEntity
  8
MD_可視
100
AcDbSpline
210
0.0
220
0.0
230
1.0
 70
     8
 71
     3
 72
    17
 73
    13
 74
     0
 42
0.000000001
 43
0.0000000001
 40
0.0
 40
0.0
 40
0.0
 40
0.0
 40
0.1693748016950688
 40
0.3057107119986392
 40
0.4093010577798265
 40
0.4812810099687799
 40
0.5929870972808699
 40
0.7047775512215102
 40
0.7662723095068025
 40
0.8354621927706793
 40
0.9130453249046004
 40
1.0
 40
1.0
 40
1.0
 40
1.0
 10
112.2961855448393
 20
84.10734102578681
 30
0.0
 10
112.2963330042403
 20
84.08389556940162
 30
0.0
 10
112.2965991590517
 20
84.04157801629843
 30
0.0
 10
112.3002684085477
 20
83.98502523295247
 30
0.0
 10
112.3048008898586
 20
83.94207972892218
 30
0.0
 10
112.314341410738
 20
83.90319516624186
 30
0.0
 10
112.3366441824091
 20
83.86792915490332
 30
0.0
 10
112.366399401646
 20
83.8411681673497
 30
0.0
 10
112.3966175630066
 20
83.82601772978523
 30
0.0
 10
112.4246353765993
 20
83.81872225894403
 30
0.0
 10
112.456674031533
 20
83.81386121940341
 30
0.0
 10
112.4794574830903
 20
83.81321263485734
 30
0.0
 10
112.4914980448393
 20
83.81286987194107
 30
0.0
  0
SPLINE
  5
12D
330
81
100
AcDbEntity
  8
MD_可視
100
AcDbSpline
210
0.0
220
0.0
230
1.0
 70
     8
 71
     3
 72
    11
 73
     7
 74
     0
 42
0.000000001
 43
0.0000000001
 40
0.0
 40
0.0
 40
0.0
 40
0.0
 40
0.2027395082954389
 40
0.4375391642580761
 40
0.7045725240957028
 40
1.0
 40
1.0
 40
1.0
 40
1.0
 10
112.4914980448393
 20
83.81286987194107
 30
0.0
 10
112.5017164890487
 20
83.8130030881639
 30
0.0
 10
112.5237692678929
 20
83.81329058671509
 30
0.0
 10
112.5592338125989
 20
83.81526341023345
 30
0.0
 10
112.5993092160224
 20
83.81822556215594
 30
0.0
 10
112.6275212662949
 20
83.82101836308356
 30
0.0
 10
112.6423393909917
 20
83.82248525655631
 30
0.0
  0
LINE
  5
12E
330
81
100
AcDbEntity
  8
MD_可視
100
AcDbLine
 10
112.6423393909917
 20
83.82248525655631
 30
-0.0000000000000009
 11
112.6808009294545
 21
83.49976891040205
 31
0.0000000000000009
  0
SPLINE
  5
12F
330
81
100
AcDbEntity
  8
MD_可視
100
AcDbSpline
210
0.0
220
0.0
230
1.0
 70
     8
 71
     3
 72
    11
 73
     7
 74
     0
 42
0.000000001
 43
0.0000000001
 40
0.0
 40
0.0
 40
0.0
 40
0.0
 40
0.2753332836171063
 40
0.532913269999939
 40
0.7736079853172981
 40
1.0
 40
1.0
 40
1.0
 40
1.0
 10
112.6808009294545
 20
83.49976891040205
 30
0.0
 10
112.6562083999488
 20
83.49468831204648
 30
0.0
 10
112.6086090500102
 20
83.48485470875493
 30
0.0
 10
112.5387459989251
 20
83.47503207966838
 30
0.0
 10
112.4730306203582
 20
83.46752779183225
 30
0.0
 10
112.4304201307714
 20
83.46698103369272
 30
0.0
 10
112.409767275607
 20
83.46671602578679
 30
0.0
  0
SPLINE
  5
130
330
81
100
AcDbEntity
  8
MD_可視
100
AcDbSpline
210
0.0
220
0.0
230
1.0
 70
     8
 71
     3
 72
    23
 73
    19
 74
     0
 42
0.000000001
 43
0.0000000001
 40
0.0
 40
0.0
 40
0.0
 40
0.0
 40
0.094747870780455
 40
0.1790846350486424
 40
0.2542870520841973
 40
0.3215603789604574
 40
0.3834996598249759
 40
0.441719001522497
 40
0.4990140365214579
 40
0.5551995843709011
 40
0.5867006486205673
 40
0.6249601836616041
 40
0.6695051206017173
 40
0.721912861732028
 40
0.7802733573506409
 40
0.8465379283818069
 40
0.919577018606037
 40
1.0
 40
1.0
 40
1.0
 40
1.0
 10
112.409767275607
 20
83.46671602578679
 30
0.0
 10
112.3790866212021
 20
83.46755304714134
 30
0.0
 10
112.3210965708494
 20
83.46913511608546
 30
0.0
 10
112.2392360904814
 20
83.47998323514548
 30
0.0
 10
112.168228811035
 20
83.49967193904559
 30
0.0
 10
112.107484848475
 20
83.52675053835445
 30
0.0
 10
112.057047285376
 20
83.56099184970299
 30
0.0
 10
112.0146114834333
 20
83.60007101681004
 30
0.0
 10
111.9802578468607
 20
83.64406725399931
 30
0.0
 10
111.9574939772155
 20
83.68547759496868
 30
0.0
 10
111.9440934686208
 20
83.72407623607978
 30
0.0
 10
111.9352377808482
 20
83.7600693316981
 30
0.0
 10
111.9284708549803
 20
83.803350984379
 30
0.0
 10
111.9217124273418
 20
83.853192607663
 30
0.0
 10
111.9169790289215
 20
83.91035487501358
 30
0.0
 10
111.9145104704366
 20
83.97431676563611
 30
0.0
 10
111.9116262186235
 20
84.04541832931682
 30
0.0
 10
111.9115894362894
 20
84.09511776753243
 30
0.0
 10
111.9115701602241
 20
84.12116314117156
 30
0.0
  0
LINE
  5
131
330
81
100
AcDbEntity
  8
MD_可視
100
AcDbLine
 10
111.9115701602241
 20
84.12116314117156
 30
-0.0000000000000009
 11
111.9115701602241
 21
85.35133141040205
 31
-0.0000000000000009
  0
LINE
  5
132
330
81
100
AcDbEntity
  8
MD_可視
100
AcDbLine
 10
111.9115701602241
 20
85.35133141040205
 30
-0.0000000000000009
 11
111.6423393909917
 21
85.35133141040205
 31
-0.0000000000000009
  0
LINE
  5
133
330
81
100
AcDbEntity
  8
MD_可視
100
AcDbLine
 10
111.6423393909917
 20
85.35133141040205
 30
-0.0000000000000009
 11
111.6423393909917
 21
85.69748525655631
 31
-0.0000000000000009
  0
LINE
  5
134
330
81
100
AcDbEntity
  8
MD_可視
100
AcDbLine
 10
111.6423393909917
 20
85.69748525655631
 30
-0.0000000000000009
 11
111.9115701602241
 21
85.69748525655631
 31
-0.0000000000000009
  0
LINE
  5
135
330
81
100
AcDbEntity
  8
MD_可視
100
AcDbLine
 10
111.9115701602241
 20
85.69748525655631
 30
-0.0000000000000009
 11
111.9115701602241
 21
86.23113910271056
 31
-0.0000000000000009
  0
LINE
  5
136
330
81
100
AcDbEntity
  8
MD_可視
100
AcDbLine
 10
111.9115701602241
 20
86.23113910271056
 30
-0.0000000000000009
 11
112.2961855448393
 21
86.44988910271058
 31
-0.0000000000000009
  0
LINE
  5
137
330
81
100
AcDbEntity
  8
MD_可視
100
AcDbLine
 10
112.2961855448393
 20
86.44988910271058
 30
-0.0000000000000009
 11
112.2961855448393
 21
85.69748525655631
 31
-0.0000000000000009
  0
LINE
  5
138
330
81
100
AcDbEntity
  8
MD_可視
100
AcDbLine
 10
112.2961855448393
 20
85.69748525655631
 30
-0.0000000000000009
 11
112.6423393909917
 21
85.69748525655631
 31
-0.0000000000000009
  0
LINE
  5
139
330
81
100
AcDbEntity
  8
MD_可視
100
AcDbLine
 10
112.6423393909917
 20
85.69748525655631
 30
-0.0000000000000009
 11
112.6423393909917
 21
85.35133141040205
 31
-0.0000000000000009
  0
LINE
  5
13A
330
81
100
AcDbEntity
  8
MD_可視
100
AcDbLine
 10
112.6423393909917
 20
85.35133141040205
 30
-0.0000000000000009
 11
112.2961855448393
 21
85.35133141040205
 31
-0.0000000000000009
  0
LINE
  5
13B
330
81
100
AcDbEntity
  8
MD_可視
100
AcDbLine
 10
112.2961855448393
 20
85.35133141040205
 30
-0.0000000000000009
 11
112.2961855448393
 21
84.10734102578681
 31
-0.0000000000000009
  0
SPLINE
  5
13C
330
81
100
AcDbEntity
  8
MD_可視
100
AcDbSpline
210
0.0
220
0.0
230
1.0
 70
     8
 71
     3
 72
    27
 73
    23
 74
     0
 42
0.000000001
 43
0.0000000001
 40
0.0
 40
0.0
 40
0.0
 40
0.0
 40
0.1053432609984029
 40
0.2043754661654296
 40
0.2980686612490652
 40
0.3870699389029774
 40
0.4297257277325172
 40
0.4709012389537424
 40
0.5111216710274206
 40
0.5501787824700683
 40
0.5883543698960266
 40
0.6266830105708979
 40
0.6644516852874775
 40
0.7025148539501575
 40
0.740481171629403
 40
0.777618121594642
 40
0.8147160450669579
 40
0.8515265100150822
 40
0.8880984508373167
 40
0.9251116757437156
 40
0.9621036957071506
 40
1.0
 40
1.0
 40
1.0
 40
1.0
 10
106.8731086217612
 20
85.02921602578679
 30
0.0
 10
106.8742155611107
 20
84.96845254245272
 30
0.0
 10
106.8763631236907
 20
84.85056588207589
 30
0.0
 10
106.8975542878543
 20
84.67972863869725
 30
0.0
 10
106.9298631235579
 20
84.52038347497
 30
0.0
 10
106.9688552334773
 20
84.39606249787175
 30
0.0
 10
107.0079682374253
 20
84.30436100442056
 30
0.0
 10
107.0396008697753
 20
84.24014112606164
 30
0.0
 10
107.0757082576492
 20
84.18071516611597
 30
0.0
 10
107.1153922787071
 20
84.1257456373205
 30
0.0
 10
107.1591641047944
 20
84.07539288417501
 30
0.0
 10
107.2064139057547
 20
84.0293894293136
 30
0.0
 10
107.2571522359048
 20
83.98729261119481
 30
0.0
 10
107.3119802973488
 20
83.95107305837518
 30
0.0
 10
107.3687876890744
 20
83.91891325375764
 30
0.0
 10
107.4268575475671
 20
83.89031614134728
 30
0.0
 10
107.4862264342482
 20
83.86612996935403
 30
0.0
 10
107.5471338775023
 20
83.84734165974624
 30
0.0
 10
107.6087245738945
 20
83.83110594817663
 30
0.0
 10
107.6716768814731
 20
83.82050001937384
 30
0.0
 10
107.7359728486845
 20
83.81451436730822
 30
0.0
 10
107.7791460008866
 20
83.81342243214021
 30
0.0
 10
107.800993237146
 20
83.81286987194107
 30
0.0
  0
SPLINE
  5
13D
330
81
100
AcDbEntity
  8
MD_可視
100
AcDbSpline
210
0.0
220
0.0
230
1.0
 70
     8
 71
     3
 72
    23
 73
    19
 74
     0
 42
0.000000001
 43
0.0000000001
 40
0.0
 40
0.0
 40
0.0
 40
0.0
 40
0.0633358805656869
 40
0.1251107589802123
 40
0.1846884118917149
 40
0.2432104439678641
 40
0.3008880404131165
 40
0.3583701155312991
 40
0.4157614077031939
 40
0.4743866229897773
 40
0.5339662649724068
 40
0.5940075641988069
 40
0.6550724073076797
 40
0.7186100426051382
 40
0.7843747830517757
 40
0.8529914722129186
 40
0.9249004292977554
 40
1.0
 40
1.0
 40
1.0
 40
1.0
 10
107.800993237146
 20
83.81286987194107
 30
0.0
 10
107.827064922154
 20
83.81341665001491
 30
0.0
 10
107.8785657187018
 20
83.81449673004681
 30
0.0
 10
107.9540724258058
 20
83.82395073131011
 30
0.0
 10
108.0268598505317
 20
83.8378824387637
 30
0.0
 10
108.0960461834074
 20
83.85938047016679
 30
0.0
 10
108.1625620588201
 20
83.88570229085235
 30
0.0
 10
108.2258624931146
 20
83.91816169917911
 30
0.0
 10
108.2857484162286
 20
83.95720089354474
 30
0.0
 10
108.3429242182464
 20
84.00152623177564
 30
0.0
 10
108.3963355268606
 20
84.05196089210042
 30
0.0
 10
108.4452841198272
 20
84.10809854840954
 30
0.0
 10
108.4891965381302
 20
84.17019512406112
 30
0.0
 10
108.5299144002201
 20
84.23725405966251
 30
0.0
 10
108.5641248879274
 20
84.31127865330745
 30
0.0
 10
108.5958118772905
 20
84.39006255771344
 30
0.0
 10
108.6222157658412
 20
84.47490065635248
 30
0.0
 10
108.635535156387
 20
84.53392109687412
 30
0.0
 10
108.6423393909917
 20
84.56407179501729
 30
0.0
  0
LINE
  5
13E
330
81
100
AcDbEntity
  8
MD_可視
100
AcDbLine
 10
108.6423393909917
 20
84.56407179501729
 30
-0.0000000000000009
 11
109.0654163140698
 21
84.46551410271059
 31
-0.0000000000000009
  0
SPLINE
  5
13F
330
81
100
AcDbEntity
  8
MD_可視
100
AcDbSpline
210
0.0
220
0.0
230
1.0
 70
     8
 71
     3
 72
    23
 73
    19
 74
     0
 42
0.000000001
 43
0.0000000001
 40
0.0
 40
0.0
 40
0.0
 40
0.0
 40
0.0715783870982367
 40
0.1400162090753557
 40
0.2061974399469811
 40
0.2701561038056541
 40
0.3320010402688308
 40
0.3927550109285567
 40
0.4525790344906387
 40
0.5122527988479046
 40
0.5715322524285599
 40
0.6301517528722199
 40
0.6887691695485568
 40
0.7481639008503606
 40
0.8087033721996508
 40
0.8702562984804201
 40
0.9339000275070024
 40
1.0
 40
1.0
 40
1.0
 40
1.0
 10
109.0654163140698
 20
84.46551410271059
 30
0.0
 10
109.0548170561487
 20
84.42586027799734
 30
0.0
 10
109.0340835921379
 20
84.34829247524612
 30
0.0
 10
108.9930910152489
 20
84.23728436325655
 30
0.0
 10
108.9470818749469
 20
84.1331079852298
 30
0.0
 10
108.8949397811502
 20
84.03603776024102
 30
0.0
 10
108.836094043443
 20
83.94663178180053
 30
0.0
 10
108.7721038361378
 20
83.86374101061301
 30
0.0
 10
108.7004345972127
 20
83.78910374458062
 30
0.0
 10
108.6237159566608
 20
83.72099739456279
 30
0.0
 10
108.5413505761262
 20
83.6609277755797
 30
0.0
 10
108.4543314998991
 20
83.60905655759779
 30
0.0
 10
108.3630793594802
 20
83.564924680486
 30
0.0
 10
108.2672253421697
 20
83.52863333456118
 30
0.0
 10
108.1667073049684
 20
83.50132098522044
 30
0.0
 10
108.0620428168858
 20
83.48141414491147
 30
0.0
 10
107.9529266831923
 20
83.46915269070086
 30
0.0
 10
107.8785493849063
 20
83.46753843419355
 30
0.0
 10
107.840656698685
 20
83.46671602578679
 30
0.0
  0
SPLINE
  5
140
330
81
100
AcDbEntity
  8
MD_可視
100
AcDbSpline
210
0.0
220
0.0
230
1.0
 70
     8
 71
     3
 72
    31
 73
    27
 74
     0
 42
0.000000001
 43
0.0000000001
 40
0.0
 40
0.0
 40
0.0
 40
0.0
 40
0.0491959188678578
 40
0.0962478839423338
 40
0.1413486305545653
 40
0.1846561193487506
 40
0.226058682310063
 40
0.2661730836384069
 40
0.3052898413966905
 40
0.3432450951047079
 40
0.3808772760868658
 40
0.4184957931350263
 40
0.4563187508918004
 40
0.4942367370918764
 40
0.5330235289576674
 40
0.5724731943339441
 40
0.6130788090898914
 40
0.6549344546107935
 40
0.6973967795046182
 40
0.7398840686663999
 40
0.7821947798191178
 40
0.8250615348667032
 40
0.8679874655774055
 40
0.9114105439600775
 40
0.9553719455228144
 40
1.0
 40
1.0
 40
1.0
 40
1.0
 10
107.840656698685
 20
83.46671602578679
 30
0.0
 10
107.8017780686769
 20
83.46728086247276
 30
0.0
 10
107.7257151359208
 20
83.46838592031053
 30
0.0
 10
107.6142873246626
 20
83.47737416716155
 30
0.0
 10
107.5083085344813
 20
83.49296288255208
 30
0.0
 10
107.4079766783561
 20
83.51462117157643
 30
0.0
 10
107.3129540511945
 20
83.54140029953851
 30
0.0
 10
107.2236346859354
 20
83.57509081544959
 30
0.0
 10
107.1401750285204
 20
83.61544962978587
 30
0.0
 10
107.0618789145064
 20
83.66134803207387
 30
0.0
 10
106.989078894192
 20
83.71349068392374
 30
0.0
 10
106.920119469687
 20
83.7704703968793
 30
0.0
 10
106.856674746532
 20
83.83385575949068
 30
0.0
 10
106.7971583666858
 20
83.90215018456181
 30
0.0
 10
106.742866618546
 20
83.97625457044341
 30
0.0
 10
106.6918020968314
 20
84.05516217792683
 30
0.0
 10
106.6464572314271
 20
84.14026335573362
 30
0.0
 10
106.6051515766539
 20
84.22998032585747
 30
0.0
 10
106.5688967205897
 20
84.3234444668433
 30
0.0
 10
106.5368238542323
 20
84.418809603736
 30
0.0
 10
106.5106025326022
 20
84.5162657618621
 30
0.0
 10
106.4880276667572
 20
84.61499286459366
 30
0.0
 10
106.4716281205728
 20
84.71582163262974
 30
0.0
 10
106.4586073886457
 20
84.81799554164899
 30
0.0
 10
106.4514483284511
 20
84.92214100610544
 30
0.0
 10
106.4505062716598
 20
84.9921468270022
 30
0.0
 10
106.450031698685
 20
85.02741314117157
 30
0.0
  0
SPLINE
  5
141
330
81
100
AcDbEntity
  8
MD_可視
100
AcDbSpline
210
0.0
220
0.0
230
1.0
 70
     8
 71
     3
 72
    31
 73
    27
 74
     0
 42
0.000000001
 43
0.0000000001
 40
0.0
 40
0.0
 40
0.0
 40
0.0
 40
0.0494014326173349
 40
0.0976047534771124
 40
0.1442547055445424
 40
0.1894721438466751
 40
0.2339150059350917
 40
0.2772371111508617
 40
0.3198588355644321
 40
0.3619566544332702
 40
0.4034857542265475
 40
0.443933636333855
 40
0.4836491750513745
 40
0.5228932833172716
 40
0.5618583840947373
 40
0.6007948668981947
 40
0.640104336189136
 40
0.6796434268265381
 40
0.7193997691904884
 40
0.7588541926680974
 40
0.7983154646830741
 40
0.8378024081343657
 40
0.8774685864444087
 40
0.9176827969423323
 40
0.9583928898538523
 40
1.0
 40
1.0
 40
1.0
 40
1.0
 10
106.450031698685
 20
85.02741314117157
 30
0.0
 10
106.4507104380154
 20
85.06548454941549
 30
0.0
 10
106.4520514555006
 20
85.14070403636651
 30
0.0
 10
106.4596214774592
 20
85.25169257277594
 30
0.0
 10
106.4735248638862
 20
85.35881008814612
 30
0.0
 10
106.492832623604
 20
85.46212704208484
 30
0.0
 10
106.5172646638366
 20
85.56172710647661
 30
0.0
 10
106.5474232787874
 20
85.65765880604706
 30
0.0
 10
106.5829269632468
 20
85.74979939721378
 30
0.0
 10
106.6236674785177
 20
85.83825048344079
 30
0.0
 10
106.669915497343
 20
85.922024717358
 30
0.0
 10
106.7202907055853
 20
86.00124119082465
 30
0.0
 10
106.7759947454105
 20
86.07459920458495
 30
0.0
 10
106.8353760748941
 20
86.14350028369335
 30
0.0
 10
106.8999177825353
 20
86.20679714785001
 30
0.0
 10
106.9694227863274
 20
86.26463317927662
 30
0.0
 10
107.0432914266876
 20
86.31753591587584
 30
0.0
 10
107.1215129215798
 20
86.36501422996479
 30
0.0
 10
107.2030648249783
 20
86.40667396646131
 30
0.0
 10
107.2867358286548
 20
86.44378065676756
 30
0.0
 10
107.3728587277637
 20
86.47419463348887
 30
0.0
 10
107.4607507156324
 20
86.4994826325128
 30
0.0
 10
107.5506010157387
 20
86.51961422888055
 30
0.0
 10
107.6426195730564
 20
86.53307629015579
 30
0.0
 10
107.7367213609468
 20
86.54184921230443
 30
0.0
 10
107.8001721356668
 20
86.54303815390994
 30
0.0
 10
107.832243237146
 20
86.54363910271056
 30
0.0
  0
SPLINE
  5
142
330
81
100
AcDbEntity
  8
MD_可視
100
AcDbSpline
210
0.0
220
0.0
230
1.0
 70
     8
 71
     3
 72
    23
 73
    19
 74
     0
 42
0.000000001
 43
0.0000000001
 40
0.0
 40
0.0
 40
0.0
 40
0.0
 40
0.0686494919759953
 40
0.1349373737851551
 40
0.1988418982006104
 40
0.2614093284183085
 40
0.3225167637069042
 40
0.3823768656987773
 40
0.4424709047536867
 40
0.50222783347929
 40
0.5621014330908558
 40
0.6217316080948795
 40
0.6818513124344148
 40
0.7420491672939585
 40
0.8039081304743808
 40
0.8671621602461698
 40
0.9323605979385291
 40
1.0
 40
1.0
 40
1.0
 40
1.0
 10
107.832243237146
 20
86.54363910271056
 30
0.0
 10
107.8681264791976
 20
86.5429627213507
 30
0.0
 10
107.9386585444172
 20
86.5416332268178
 30
0.0
 10
108.0421517837476
 20
86.53069787203094
 30
0.0
 10
108.141271285529
 20
86.51238235064557
 30
0.0
 10
108.2364465524024
 20
86.48835411866095
 30
0.0
 10
108.326688064908
 20
86.45545446726647
 30
0.0
 10
108.4129755504473
 20
86.41634056298064
 30
0.0
 10
108.4944506194133
 20
86.36934994497279
 30
0.0
 10
108.5717472173601
 20
86.31577400040987
 30
0.0
 10
108.643607074353
 20
86.2555139227261
 30
0.0
 10
108.7110357927322
 20
86.19000930868969
 30
0.0
 10
108.7712839835785
 20
86.11762302079476
 30
0.0
 10
108.8267378415094
 20
86.04010693619057
 30
0.0
 10
108.8756526032375
 20
85.95638617131227
 30
0.0
 10
108.9198277933665
 20
85.86719068133605
 30
0.0
 10
108.9578171711746
 20
85.77185739977542
 30
0.0
 10
108.9781433802691
 20
85.70545513225622
 30
0.0
 10
108.988493237146
 20
85.67164391040206
 30
0.0
  0
LINE
  5
143
330
81
100
AcDbEntity
  8
MD_可視
100
AcDbLine
 10
108.988493237146
 20
85.67164391040206
 30
-0.0000000000000009
 11
108.5654163140698
 21
85.58089871809533
 31
-0.0000000000000009
  0
SPLINE
  5
144
330
81
100
AcDbEntity
  8
MD_可視
100
AcDbSpline
210
0.0
220
0.0
230
1.0
 70
     8
 71
     3
 72
    23
 73
    19
 74
     0
 42
0.000000001
 43
0.0000000001
 40
0.0
 40
0.0
 40
0.0
 40
0.0
 40
0.0772311103286298
 40
0.1511651795217247
 40
0.2207847057253994
 40
0.2871495176777685
 40
0.3506324812950836
 40
0.4113067715078913
 40
0.469964415137649
 40
0.5267072266832784
 40
0.5824983333641272
 40
0.6385087274080256
 40
0.6949179812139086
 40
0.7524203526591533
 40
0.8112509754155073
 40
0.8718561089908078
 40
0.9346441878526855
 40
1.0
 40
1.0
 40
1.0
 40
1.0
 10
108.5654163140698
 20
85.58089871809533
 30
0.0
 10
108.5571077436962
 20
85.60684709486304
 30
0.0
 10
108.5408453006639
 20
85.657636097063
 30
0.0
 10
108.5119697422724
 20
85.73001945135365
 30
0.0
 10
108.4807851019705
 20
85.79721485307345
 30
0.0
 10
108.446548535996
 20
85.85876553809432
 30
0.0
 10
108.409185846549
 20
85.9146862496309
 30
0.0
 10
108.369557397109
 20
85.96565662079957
 30
0.0
 10
108.3267137297389
 20
86.0107252818234
 30
0.0
 10
108.2815263204393
 20
86.05093140395545
 30
0.0
 10
108.2328282976341
 20
86.0851831724358
 30
0.0
 10
108.1817613544554
 20
86.11553587603157
 30
0.0
 10
108.1272487450205
 20
86.14064810972559
 30
0.0
 10
108.0700746733637
 20
86.16188787171086
 30
0.0
 10
108.0097047395102
 20
86.17805361922
 30
0.0
 10
107.9463847778752
 20
86.18942686029551
 30
0.0
 10
107.8800591540439
 20
86.19600913502472
 30
0.0
 10
107.834861966674
 20
86.19698668668752
 30
0.0
 10
107.8118105448393
 20
86.19748525655632
 30
0.0
  0
SPLINE
  5
145
330
81
100
AcDbEntity
  8
MD_可視
100
AcDbSpline
210
0.0
220
0.0
230
1.0
 70
     8
 71
     3
 72
    27
 73
    23
 74
     0
 42
0.000000001
 43
0.0000000001
 40
0.0
 40
0.0
 40
0.0
 40
0.0
 40
0.0467628351215619
 40
0.0919686966072124
 40
0.1358043853805048
 40
0.1782315801839235
 40
0.2194414332265378
 40
0.260176943268592
 40
0.3002796061140321
 40
0.3405476414666164
 40
0.3803111902076688
 40
0.4196419535698121
 40
0.4590173240985174
 40
0.4981819588897617
 40
0.5376702145628714
 40
0.5779133315743611
 40
0.6186488416164153
 40
0.660761602760318
 40
0.7452991770631805
 40
0.8297447416906315
 40
0.9146020866092538
 40
1.0
 40
1.0
 40
1.0
 40
1.0
 10
107.8118105448393
 20
86.19748525655632
 30
0.0
 10
107.7853454037486
 20
86.19710127364486
 30
0.0
 10
107.7332962812961
 20
86.19634609257444
 30
0.0
 10
107.6568298589864
 20
86.18808071954481
 30
0.0
 10
107.5833954973786
 20
86.17590663160989
 30
0.0
 10
107.5135405002584
 20
86.15765054020812
 30
0.0
 10
107.4468826160937
 20
86.13488994162251
 30
0.0
 10
107.383817404474
 20
86.10654896918275
 30
0.0
 10
107.3238084045933
 20
86.0733300250922
 30
0.0
 10
107.2675253474626
 20
86.03503362555239
 30
0.0
 10
107.2154412412892
 20
85.99198110225733
 30
0.0
 10
107.1661426741775
 20
85.94646784899124
 30
0.0
 10
107.1219965243017
 20
85.89637123156171
 30
0.0
 10
107.0813193667581
 20
85.84334313386717
 30
0.0
 10
107.0452957189754
 20
85.78644651101786
 30
0.0
 10
107.0128684014089
 20
85.72645636389642
 30
0.0
 10
106.9842441134824
 20
85.66288102616455
 30
0.0
 10
106.9530416959296
 20
85.57340355363704
 30
0.0
 10
106.9212266491631
 20
85.45815863837743
 30
0.0
 10
106.8936270568592
 20
85.3171362150624
 30
0.0
 10
106.8760467672637
 20
85.17389199310491
 30
0.0
 10
106.8740900744596
 20
85.07754331875366
 30
0.0
 10
106.8731086217612
 20
85.02921602578679
 30
0.0
  0
LINE
  5
146
330
81
100
AcDbEntity
  8
MD_狭い可視
100
AcDbLine
 10
113.7192624679155
 20
73.05517756424888
 30
0.0000000000000009
 11
113.7192624679155
 21
71.95517756424852
 31
0.0000000000000009
  0
LINE
  5
147
330
81
100
AcDbEntity
  8
MD_可視
100
AcDbLine
 10
108.7192624679155
 20
71.95517756424852
 30
-0.0000000000000009
 11
113.7192624679155
 21
71.95517756424852
 31
-0.0000000000000009
  0
LINE
  5
148
330
81
100
AcDbEntity
  8
MD_狭い可視
100
AcDbLine
 10
108.7192624679155
 20
71.95517756424852
 30
-0.0000000000000009
 11
108.7192624679155
 21
73.05517756424888
 31
-0.0000000000000009
  0
LINE
  5
149
330
81
100
AcDbEntity
  8
MD_狭い可視
100
AcDbLine
 10
108.7192624679155
 20
73.05517756424888
 30
0.0000000000000009
 11
107.5692624679159
 21
73.05517756424888
 31
0.0000000000000009
  0
LINE
  5
14A
330
81
100
AcDbEntity
  8
MD_狭い可視
100
AcDbLine
 10
107.5692624679159
 20
73.05517756424888
 30
0.0000000000000009
 11
107.5692624679159
 21
74.85517756424815
 31
0.0000000000000009
  0
LINE
  5
14B
330
81
100
AcDbEntity
  8
MD_狭い可視
100
AcDbLine
 10
107.5692624679159
 20
74.85517756424815
 30
0.0000000000000009
 11
104.7692624679148
 21
74.85517756424815
 31
0.0000000000000009
  0
LINE
  5
14C
330
81
100
AcDbEntity
  8
MD_狭い可視
100
AcDbLine
 10
104.7692624679148
 20
74.85517756424815
 30
0.0000000000000009
 11
104.7692624679148
 21
82.65517756424925
 31
-0.0000000000000009
  0
LINE
  5
14D
330
81
100
AcDbEntity
  8
MD_狭い可視
100
AcDbLine
 10
104.7692624679148
 20
82.65517756424925
 30
-0.0000000000000009
 11
117.6692624679162
 21
82.65517756424925
 31
-0.0000000000000009
  0
LINE
  5
14E
330
81
100
AcDbEntity
  8
MD_狭い可視
100
AcDbLine
 10
117.6692624679162
 20
82.65517756424925
 30
-0.0000000000000009
 11
117.6692624679162
 21
74.85517756424815
 31
0.0000000000000009
  0
LINE
  5
14F
330
81
100
AcDbEntity
  8
MD_狭い可視
100
AcDbLine
 10
117.6692624679162
 20
74.85517756424815
 30
0.0000000000000009
 11
114.8692624679152
 21
74.85517756424815
 31
0.0000000000000009
  0
LINE
  5
150
330
81
100
AcDbEntity
  8
MD_狭い可視
100
AcDbLine
 10
114.8692624679152
 20
74.85517756424815
 30
0.0000000000000009
 11
114.8692624679152
 21
73.05517756424888
 31
0.0000000000000009
  0
LINE
  5
151
330
81
100
AcDbEntity
  8
MD_狭い可視
100
AcDbLine
 10
114.8692624679152
 20
73.05517756424888
 30
0.0000000000000009
 11
113.7192624679155
 21
73.05517756424888
 31
0.0000000000000009
  0
LINE
  5
152
330
81
100
AcDbEntity
  8
MD_可視
100
AcDbLine
 10
108.0692624679159
 20
75.45517756424851
 30
0.0
 11
114.3692624679152
 21
75.45517756424851
 31
0.0
  0
LINE
  5
153
330
81
100
AcDbEntity
  8
MD_可視
100
AcDbLine
 10
115.0742624679151
 20
80.29517756424866
 30
0.0
 11
114.4642624679163
 21
80.29517756424866
 31
0.0
  0
LINE
  5
154
330
81
100
AcDbEntity
  8
MD_可視
100
AcDbLine
 10
114.0242624679158
 20
80.29517756424866
 30
0.0
 11
113.4142624679152
 21
80.29517756424866
 31
0.0
  0
LINE
  5
155
330
81
100
AcDbEntity
  8
MD_可視
100
AcDbLine
 10
113.0242624679158
 20
80.29517756424866
 30
0.0
 11
112.4142624679152
 21
80.29517756424866
 31
0.0
  0
LINE
  5
156
330
81
100
AcDbEntity
  8
MD_可視
100
AcDbLine
 10
112.0242624679158
 20
80.29517756424866
 30
0.0
 11
111.4142624679152
 21
80.29517756424866
 31
0.0
  0
LINE
  5
157
330
81
100
AcDbEntity
  8
MD_可視
100
AcDbLine
 10
111.0242624679158
 20
80.29517756424866
 30
0.0
 11
110.4142624679152
 21
80.29517756424866
 31
0.0
  0
LINE
  5
158
330
81
100
AcDbEntity
  8
MD_可視
100
AcDbLine
 10
110.0242624679158
 20
80.29517756424866
 30
0.0
 11
109.4142624679152
 21
80.29517756424866
 31
0.0
  0
LINE
  5
159
330
81
100
AcDbEntity
  8
MD_可視
100
AcDbLine
 10
109.0242624679158
 20
80.29517756424866
 30
0.0
 11
108.4142624679152
 21
80.29517756424866
 31
0.0
  0
LINE
  5
15A
330
81
100
AcDbEntity
  8
MD_可視
100
AcDbLine
 10
107.9742624679147
 20
80.29517756424866
 30
0.0
 11
107.3642624679159
 21
80.29517756424866
 31
0.0
  0
LINE
  5
15B
330
81
100
AcDbEntity
  8
MD_可視
100
AcDbLine
 10
115.9692624679155
 20
78.55517756424887
 30
0.0
 11
117.1692624679163
 21
78.55517756424887
 31
0.0
  0
LINE
  5
15C
330
81
100
AcDbEntity
  8
MD_可視
100
AcDbLine
 10
105.2692624679148
 20
78.55517756424887
 30
0.0
 11
106.4692624679155
 21
78.55517756424887
 31
0.0
  0
LINE
  5
15D
330
81
100
AcDbEntity
  8
MD_可視
100
AcDbLine
 10
106.4692624679155
 20
78.55517756424887
 30
0.0
 11
106.4692624679155
 21
76.35517756424815
 31
0.0
  0
LINE
  5
15E
330
81
100
AcDbEntity
  8
MD_可視
100
AcDbLine
 10
106.4692624679155
 20
76.35517756424815
 30
0.0
 11
106.4692624679155
 21
75.35517756424815
 31
0.0
  0
LINE
  5
15F
330
81
100
AcDbEntity
  8
MD_可視
100
AcDbLine
 10
108.0692624679159
 20
76.35517756424815
 30
0.0
 11
106.4692624679155
 21
76.35517756424815
 31
0.0
  0
LINE
  5
160
330
81
100
AcDbEntity
  8
MD_可視
100
AcDbLine
 10
115.9692624679155
 20
76.35517756424815
 30
0.0
 11
115.9692624679155
 21
78.55517756424887
 31
0.0
  0
LINE
  5
161
330
81
100
AcDbEntity
  8
MD_可視
100
AcDbLine
 10
115.9692624679155
 20
75.35517756424815
 30
0.0
 11
115.9692624679155
 21
76.35517756424815
 31
0.0
  0
LINE
  5
162
330
81
100
AcDbEntity
  8
MD_可視
100
AcDbLine
 10
115.9692624679155
 20
76.35517756424815
 30
0.0
 11
114.3692624679152
 21
76.35517756424815
 31
0.0
  0
LINE
  5
163
330
81
100
AcDbEntity
  8
MD_可視
100
AcDbLine
 10
109.2192624679155
 20
72.25517756424777
 30
-0.0000000000000009
 11
113.2192624679155
 21
72.25517756424777
 31
-0.0000000000000009
  0
LINE
  5
164
330
81
100
AcDbEntity
  8
MD_可視
100
AcDbLine
 10
114.3692624679152
 20
73.55517756424887
 30
0.0000000000000009
 11
114.3692624679152
 21
75.35517756424815
 31
0.0000000000000009
  0
LINE
  5
165
330
81
100
AcDbEntity
  8
MD_可視
100
AcDbLine
 10
114.3692624679152
 20
76.35517756424815
 30
0.0
 11
114.3692624679152
 21
75.35517756424815
 31
0.0
  0
LINE
  5
166
330
81
100
AcDbEntity
  8
MD_可視
100
AcDbLine
 10
114.3692624679152
 20
77.5051775642478
 30
0.0
 11
114.3692624679152
 21
76.35517756424815
 31
0.0
  0
LINE
  5
167
330
81
100
AcDbEntity
  8
MD_可視
100
AcDbLine
 10
108.0692624679159
 20
75.35517756424815
 30
0.0000000000000009
 11
108.0692624679159
 21
73.55517756424887
 31
0.0000000000000009
  0
LINE
  5
168
330
81
100
AcDbEntity
  8
MD_可視
100
AcDbLine
 10
108.0692624679159
 20
76.35517756424815
 30
0.0
 11
108.0692624679159
 21
77.5051775642478
 31
0.0
  0
LINE
  5
169
330
81
100
AcDbEntity
  8
MD_可視
100
AcDbLine
 10
108.0692624679159
 20
75.35517756424815
 30
0.0
 11
108.0692624679159
 21
76.35517756424815
 31
0.0
  0
LINE
  5
16A
330
81
100
AcDbEntity
  8
MD_可視
100
AcDbLine
 10
109.2192624679155
 20
73.55517756424887
 30
0.0000000000000009
 11
109.2192624679155
 21
72.08915216046444
 31
0.0000000000000009
  0
LINE
  5
16B
330
81
100
AcDbEntity
  8
MD_可視
100
AcDbLine
 10
113.2192624679155
 20
72.08915216046444
 30
-0.0000000000000009
 11
113.2192624679155
 21
73.55517756424887
 31
-0.0000000000000009
  0
LINE
  5
16C
330
81
100
AcDbEntity
  8
MD_可視
100
AcDbLine
 10
117.1692624679163
 20
75.35517756424815
 30
0.0000000000000009
 11
117.1692624679163
 21
82.15517756424924
 31
0.0000000000000009
  0
LINE
  5
16D
330
81
100
AcDbEntity
  8
MD_可視
100
AcDbLine
 10
114.3692624679152
 20
75.35517756424815
 30
0.0000000000000009
 11
117.1692624679163
 21
75.35517756424815
 31
0.0000000000000009
  0
LINE
  5
16E
330
81
100
AcDbEntity
  8
MD_可視
100
AcDbLine
 10
105.2692624679148
 20
82.15517756424924
 30
-0.0000000000000009
 11
105.2692624679148
 21
75.35517756424815
 31
-0.0000000000000009
  0
LINE
  5
16F
330
81
100
AcDbEntity
  8
MD_可視
100
AcDbLine
 10
105.2692624679148
 20
75.35517756424815
 30
0.0000000000000009
 11
108.0692624679159
 21
75.35517756424815
 31
0.0000000000000009
  0
LINE
  5
170
330
81
100
AcDbEntity
  8
MD_可視
100
AcDbLine
 10
113.1192624679151
 20
74.15517756424924
 30
0.0
 11
109.3192624679159
 21
74.15517756424924
 31
0.0
  0
LINE
  5
171
330
81
100
AcDbEntity
  8
MD_可視
100
AcDbLine
 10
109.3192624679159
 20
74.15517756424924
 30
0.0
 11
109.3192624679159
 21
73.95517756424851
 31
0.0
  0
LINE
  5
172
330
81
100
AcDbEntity
  8
MD_可視
100
AcDbLine
 10
113.1192624679151
 20
74.15517756424924
 30
0.0
 11
113.1192624679151
 21
73.95517756424851
 31
0.0
  0
LINE
  5
173
330
81
100
AcDbEntity
  8
MD_可視
100
AcDbLine
 10
115.9692624679155
 20
75.45517756424851
 30
0.0
 11
116.0692624679159
 21
75.45517756424851
 31
0.0
  0
LINE
  5
174
330
81
100
AcDbEntity
  8
MD_可視
100
AcDbLine
 10
115.9692624679155
 20
78.45517756424851
 30
0.0
 11
116.0692624679159
 21
78.45517756424851
 31
0.0
  0
LINE
  5
175
330
81
100
AcDbEntity
  8
MD_可視
100
AcDbLine
 10
106.3692624679152
 20
75.45517756424851
 30
0.0
 11
106.4692624679155
 21
75.45517756424851
 31
0.0
  0
LINE
  5
176
330
81
100
AcDbEntity
  8
MD_可視
100
AcDbLine
 10
106.3692624679152
 20
78.45517756424851
 30
0.0
 11
106.4692624679155
 21
78.45517756424851
 31
0.0
  0
LINE
  5
177
330
81
100
AcDbEntity
  8
MD_可視
100
AcDbLine
 10
113.2192624679155
 20
73.55517756424887
 30
0.0000000000000009
 11
114.3692624679152
 21
73.55517756424887
 31
0.0000000000000009
  0
LINE
  5
178
330
81
100
AcDbEntity
  8
MD_可視
100
AcDbLine
 10
108.0692624679159
 20
73.55517756424887
 30
0.0000000000000009
 11
109.2192624679155
 21
73.55517756424887
 31
0.0000000000000009
  0
ELLIPSE
  5
179
330
81
100
AcDbEntity
  8
MD_可視
100
AcDbEllipse
 10
108.7192624679155
 20
72.08915216046444
 30
0.0000000000000009
 11
0.5000000000000476
 21
-0.0000000000000101
 31
0.0
210
0.0
220
0.0
230
-1.0
 40
0.2679491924311129
 41
0.0000000000011895
 42
1.570796326795976
  0
ELLIPSE
  5
17A
330
81
100
AcDbEntity
  8
MD_可視
100
AcDbEllipse
 10
113.7192624679155
 20
72.08915216046444
 30
-0.0000000000000009
 11
0.500000000000008
 21
-0.0000000000000228
 31
0.0
210
0.0
220
0.0
230
-1.0
 40
0.2679491924311187
 41
1.570796326794708
 42
3.141592653589587
  0
LINE
  5
17B
330
81
100
AcDbEntity
  8
MD_可視
100
AcDbLine
 10
116.1692624679163
 20
82.00517756424778
 30
0.0
 11
116.1692624679163
 21
82.15517756424924
 31
0.0
  0
LINE
  5
17C
330
81
100
AcDbEntity
  8
MD_可視
100
AcDbLine
 10
115.0742624679151
 20
80.29517756424866
 30
0.0
 11
115.0742624679151
 21
82.00517756424778
 31
0.0
  0
LINE
  5
17D
330
81
100
AcDbEntity
  8
MD_可視
100
AcDbLine
 10
114.4642624679163
 20
82.00517756424778
 30
0.0
 11
114.4642624679163
 21
80.29517756424866
 31
0.0
  0
LINE
  5
17E
330
81
100
AcDbEntity
  8
MD_可視
100
AcDbLine
 10
114.0242624679158
 20
80.29517756424866
 30
0.0
 11
114.0242624679158
 21
82.00517756424778
 31
0.0
  0
LINE
  5
17F
330
81
100
AcDbEntity
  8
MD_可視
100
AcDbLine
 10
113.4142624679152
 20
82.00517756424778
 30
0.0
 11
113.4142624679152
 21
80.29517756424866
 31
0.0
  0
LINE
  5
180
330
81
100
AcDbEntity
  8
MD_可視
100
AcDbLine
 10
113.0242624679158
 20
80.29517756424866
 30
0.0
 11
113.0242624679158
 21
82.00517756424778
 31
0.0
  0
LINE
  5
181
330
81
100
AcDbEntity
  8
MD_可視
100
AcDbLine
 10
112.4142624679152
 20
82.00517756424778
 30
0.0
 11
112.4142624679152
 21
80.29517756424866
 31
0.0
  0
LINE
  5
182
330
81
100
AcDbEntity
  8
MD_可視
100
AcDbLine
 10
112.0242624679158
 20
80.29517756424866
 30
0.0
 11
112.0242624679158
 21
82.00517756424778
 31
0.0
  0
LINE
  5
183
330
81
100
AcDbEntity
  8
MD_可視
100
AcDbLine
 10
111.4142624679152
 20
82.00517756424778
 30
0.0
 11
111.4142624679152
 21
80.29517756424866
 31
0.0
  0
LINE
  5
184
330
81
100
AcDbEntity
  8
MD_可視
100
AcDbLine
 10
111.0242624679158
 20
80.29517756424866
 30
0.0
 11
111.0242624679158
 21
82.00517756424778
 31
0.0
  0
LINE
  5
185
330
81
100
AcDbEntity
  8
MD_可視
100
AcDbLine
 10
110.4142624679152
 20
82.00517756424778
 30
0.0
 11
110.4142624679152
 21
80.29517756424866
 31
0.0
  0
LINE
  5
186
330
81
100
AcDbEntity
  8
MD_可視
100
AcDbLine
 10
110.0242624679158
 20
80.29517756424866
 30
0.0
 11
110.0242624679158
 21
82.00517756424778
 31
0.0
  0
LINE
  5
187
330
81
100
AcDbEntity
  8
MD_可視
100
AcDbLine
 10
109.4142624679152
 20
82.00517756424778
 30
0.0
 11
109.4142624679152
 21
80.29517756424866
 31
0.0
  0
LINE
  5
188
330
81
100
AcDbEntity
  8
MD_可視
100
AcDbLine
 10
109.0242624679158
 20
80.29517756424866
 30
0.0
 11
109.0242624679158
 21
82.00517756424778
 31
0.0
  0
LINE
  5
189
330
81
100
AcDbEntity
  8
MD_可視
100
AcDbLine
 10
108.4142624679152
 20
82.00517756424778
 30
0.0
 11
108.4142624679152
 21
80.29517756424866
 31
0.0
  0
LINE
  5
18A
330
81
100
AcDbEntity
  8
MD_可視
100
AcDbLine
 10
107.9742624679147
 20
80.29517756424866
 30
0.0
 11
107.9742624679147
 21
82.00517756424778
 31
0.0
  0
LINE
  5
18B
330
81
100
AcDbEntity
  8
MD_可視
100
AcDbLine
 10
107.3642624679159
 20
82.00517756424778
 30
0.0
 11
107.3642624679159
 21
80.29517756424866
 31
0.0
  0
LINE
  5
18C
330
81
100
AcDbEntity
  8
MD_可視
100
AcDbLine
 10
106.2692624679148
 20
82.15517756424924
 30
0.0
 11
106.2692624679148
 21
82.00517756424778
 31
0.0
  0
LINE
  5
18D
330
81
100
AcDbEntity
  8
MD_可視
100
AcDbLine
 10
114.3692624679152
 20
77.5051775642478
 30
0.0
 11
108.0692624679159
 21
77.5051775642478
 31
0.0
  0
LINE
  5
18E
330
81
100
AcDbEntity
  8
MD_可視
100
AcDbLine
 10
113.7192624679155
 20
73.05517756424888
 30
0.0
 11
113.2192624679155
 21
73.55517756424887
 31
0.0
  0
LINE
  5
18F
330
81
100
AcDbEntity
  8
MD_可視
100
AcDbLine
 10
114.8692624679152
 20
73.05517756424888
 30
0.0
 11
114.3692624679152
 21
73.55517756424887
 31
0.0
  0
LINE
  5
190
330
81
100
AcDbEntity
  8
MD_可視
100
AcDbLine
 10
114.8692624679152
 20
74.85517756424815
 30
0.0
 11
114.3692624679152
 21
75.35517756424815
 31
0.0
  0
LINE
  5
191
330
81
100
AcDbEntity
  8
MD_可視
100
AcDbLine
 10
117.6692624679162
 20
74.85517756424815
 30
0.0
 11
117.1692624679163
 21
75.35517756424815
 31
0.0
  0
LINE
  5
192
330
81
100
AcDbEntity
  8
MD_可視
100
AcDbLine
 10
117.6692624679162
 20
82.65517756424925
 30
0.0
 11
117.1692624679163
 21
82.15517756424924
 31
0.0
  0
LINE
  5
193
330
81
100
AcDbEntity
  8
MD_可視
100
AcDbLine
 10
104.7692624679148
 20
82.65517756424925
 30
0.0
 11
105.2692624679148
 21
82.15517756424924
 31
0.0
  0
LINE
  5
194
330
81
100
AcDbEntity
  8
MD_可視
100
AcDbLine
 10
104.7692624679148
 20
74.85517756424815
 30
0.0
 11
105.2692624679148
 21
75.35517756424815
 31
0.0
  0
LINE
  5
195
330
81
100
AcDbEntity
  8
MD_可視
100
AcDbLine
 10
107.5692624679159
 20
74.85517756424815
 30
0.0
 11
108.0692624679159
 21
75.35517756424815
 31
0.0
  0
LINE
  5
196
330
81
100
AcDbEntity
  8
MD_可視
100
AcDbLine
 10
107.5692624679159
 20
73.05517756424888
 30
0.0
 11
108.0692624679159
 21
73.55517756424887
 31
0.0
  0
LINE
  5
197
330
81
100
AcDbEntity
  8
MD_可視
100
AcDbLine
 10
109.2192624679155
 20
73.55517756424887
 30
0.0
 11
108.7192624679155
 21
73.05517756424888
 31
0.0
  0
LINE
  5
198
330
81
100
AcDbEntity
  8
MD_可視
100
AcDbLine
 10
110.871305737146
 20
84.43186025655633
 30
-0.0000000000000009
 11
110.8731086217612
 21
84.54363910271059
 31
-0.0000000000000009
  0
SPLINE
  5
199
330
81
100
AcDbEntity
  8
MD_可視
100
AcDbSpline
210
0.0
220
0.0
230
1.0
 70
     8
 71
     3
 72
    11
 73
     7
 74
     0
 42
0.000000001
 43
0.0000000001
 40
0.0
 40
0.0
 40
0.0
 40
0.0
 40
0.2016553881025728
 40
0.4336305399408936
 40
0.6976393806374574
 40
1.0
 40
1.0
 40
1.0
 40
1.0
 10
110.8142143909917
 20
84.12777371809534
 30
0.0
 10
110.8233514674466
 20
84.14674424817167
 30
0.0
 10
110.8429994194957
 20
84.18753760994514
 30
0.0
 10
110.8584601724105
 20
84.25897532040471
 30
0.0
 10
110.869768704315
 20
84.34133905995441
 30
0.0
 10
110.8707707744343
 20
84.40035444627211
 30
0.0
 10
110.871305737146
 20
84.43186025655633
 30
0.0
  0
SPLINE
  5
19A
330
81
100
AcDbEntity
  8
MD_可視
100
AcDbSpline
210
0.0
220
0.0
230
1.0
 70
     8
 71
     3
 72
    15
 73
    11
 74
     0
 42
0.000000001
 43
0.0000000001
 40
0.0
 40
0.0
 40
0.0
 40
0.0
 40
0.1405533665078957
 40
0.2755162036336282
 40
0.4067860130531324
 40
0.5361320360400003
 40
0.6616486639717293
 40
0.7793756319066585
 40
0.8907748783485162
 40
1.0
 40
1.0
 40
1.0
 40
1.0
 10
110.2168586217612
 20
83.81286987194107
 30
0.0
 10
110.2500012542678
 20
83.8137409795163
 30
0.0
 10
110.3149682665353
 20
83.81544854624371
 30
0.0
 10
110.4093613565383
 20
83.83382824978799
 30
0.0
 10
110.4985460252246
 20
83.86159602834231
 30
0.0
 10
110.58051368636
 20
83.90166848015542
 30
0.0
 10
110.6545763707563
 20
83.94912834120439
 30
0.0
 10
110.7186914723042
 20
84.00290656158176
 30
0.0
 10
110.7732947226304
 20
84.06155012248381
 30
0.0
 10
110.8006644056386
 20
84.10584468527304
 30
0.0
 10
110.8142143909917
 20
84.12777371809534
 30
0.0
  0
SPLINE
  5
19B
330
81
100
AcDbEntity
  8
MD_可視
100
AcDbSpline
210
0.0
220
0.0
230
1.0
 70
     8
 71
     3
 72
    15
 73
    11
 74
     0
 42
0.000000001
 43
0.0000000001
 40
0.0
 40
0.0
 40
0.0
 40
0.0
 40
0.1061584963516582
 40
0.2086435109056539
 40
0.3126827790177271
 40
0.4257489628073061
 40
0.5481445367772042
 40
0.6816950906413785
 40
0.8315091938917099
 40
1.0
 40
1.0
 40
1.0
 40
1.0
 10
109.7961855448393
 20
84.10794198732583
 30
0.0
 10
109.797318564526
 20
84.08751232057147
 30
0.0
 10
109.7995453971725
 20
84.04735993008944
 30
0.0
 10
109.8214739273844
 20
83.99061209589673
 30
0.0
 10
109.8555997775329
 20
83.93928583260642
 30
0.0
 10
109.9030589029335
 20
83.89389382975968
 30
0.0
 10
109.9641720773852
 20
83.85722031826118
 30
0.0
 10
110.0378057590187
 20
83.83087675355454
 30
0.0
 10
110.1234931515791
 20
83.81568910723945
 30
0.0
 10
110.1845427594107
 20
83.81384567187707
 30
0.0
 10
110.2168586217612
 20
83.81286987194107
 30
0.0
  0
SPLINE
  5
19C
330
81
100
AcDbEntity
  8
MD_可視
100
AcDbSpline
210
0.0
220
0.0
230
1.0
 70
     8
 71
     3
 72
    19
 73
    15
 74
     0
 42
0.000000001
 43
0.0000000001
 40
0.0
 40
0.0
 40
0.0
 40
0.0
 40
0.1571850368536656
 40
0.2901195170051146
 40
0.3988967841290896
 40
0.4848126105638885
 40
0.5565266501923368
 40
0.6244701388391288
 40
0.6897920827620883
 40
0.7538159800697616
 40
0.8166770462256426
 40
0.8773833296569058
 40
0.9381315035705078
 40
0.9999999999999998
 40
0.9999999999999998
 40
0.9999999999999998
 40
0.9999999999999998
 10
110.294382660224
 20
84.4240477565563
 30
0.0
 10
110.260483992506
 20
84.41953258033207
 30
0.0
 10
110.1979165541415
 20
84.41119883068678
 30
0.0
 10
110.1125154377714
 20
84.39563001019996
 30
0.0
 10
110.043000321617
 20
84.37976200066442
 30
0.0
 10
109.9874540649944
 20
84.36299708586375
 30
0.0
 10
109.9423220054887
 20
84.34323055365529
 30
0.0
 10
109.9049372757672
 20
84.31867744591725
 30
0.0
 10
109.8718052650893
 20
84.29113920491181
 30
0.0
 10
109.8448893393051
 20
84.25892275558544
 30
0.0
 10
109.8229045698517
 20
84.22431246146334
 30
0.0
 10
109.8080918265023
 20
84.18691571533964
 30
0.0
 10
109.7976517844363
 20
84.14817206173394
 30
0.0
 10
109.7966772593809
 20
84.12143344714605
 30
0.0
 10
109.7961855448393
 20
84.10794198732583
 30
0.0
  0
SPLINE
  5
19D
330
81
100
AcDbEntity
  8
MD_可視
100
AcDbSpline
210
0.0
220
0.0
230
1.0
 70
     8
 71
     3
 72
    15
 73
    11
 74
     0
 42
0.000000001
 43
0.0000000001
 40
0.0
 40
0.0
 40
0.0
 40
0.0
 40
0.091169036894905
 40
0.1924016976612072
 40
0.3024570329705519
 40
0.4219227089474586
 40
0.5523214475357287
 40
0.6913375838488177
 40
0.8412185572400886
 40
1.0
 40
1.0
 40
1.0
 40
1.0
 10
110.8731086217612
 20
84.54363910271059
 30
0.0
 10
110.8561510757972
 20
84.5376067510624
 30
0.0
 10
110.820364138226
 20
84.52487617127735
 30
0.0
 10
110.7626428622789
 20
84.50954864958839
 30
0.0
 10
110.6995759123783
 20
84.49271556601889
 30
0.0
 10
110.6300158731374
 20
84.47825030815145
 30
0.0
 10
110.554819148967
 20
84.4629311973731
 30
0.0
 10
110.4731858462091
 20
84.44934077073412
 30
0.0
 10
110.3858322386404
 20
84.43614326568786
 30
0.0
 10
110.325446275081
 20
84.42815636201521
 30
0.0
 10
110.294382660224
 20
84.4240477565563
 30
0.0
  0
SPLINE
  5
19E
330
81
100
AcDbEntity
  8
MD_可視
100
AcDbSpline
210
0.0
220
0.0
230
1.0
 70
     8
 71
     3
 72
    23
 73
    19
 74
     0
 42
0.000000001
 43
0.0000000001
 40
0.0
 40
0.0
 40
0.0
 40
0.0
 40
0.0648117697566799
 40
0.1277177524885826
 40
0.1890856939603018
 40
0.2495620440969233
 40
0.3097382616110231
 40
0.3702146117476442
 40
0.4310847483631867
 40
0.4939105639025933
 40
0.5565697797704685
 40
0.6175532715464703
 40
0.6781190632575256
 40
0.7390627515703642
 40
0.8016653418183828
 40
0.8649558932749695
 40
0.930889793291023
 40
1.0
 40
1.0
 40
1.0
 40
1.0
 10
114.995704775607
 20
85.12056217963253
 30
0.0
 10
114.9744368106421
 20
85.12022988315221
 30
0.0
 10
114.9325262642141
 20
85.11957506135331
 30
0.0
 10
114.8710640934714
 20
85.11051682197104
 30
0.0
 10
114.8118270394479
 20
85.09761488119876
 30
0.0
 10
114.7550516150659
 20
85.07884437251233
 30
0.0
 10
114.700718287113
 20
85.054671532469
 30
0.0
 10
114.6488391070979
 20
85.025268143645
 30
0.0
 10
114.5998645921463
 20
84.9897918847364
 30
0.0
 10
114.55334817953
 20
84.95006255512818
 30
0.0
 10
114.5109025134406
 20
84.90592875070252
 30
0.0
 10
114.4736626550384
 20
84.85818122254022
 30
0.0
 10
114.4432882682849
 20
84.8065127855807
 30
0.0
 10
114.4167361236432
 20
84.7521874622471
 30
0.0
 10
114.3972822921077
 20
84.69392464495284
 30
0.0
 10
114.3834406460591
 20
84.63250545944175
 30
0.0
 10
114.3748591788026
 20
84.56791856756353
 30
0.0
 10
114.373701219376
 20
84.52363394386521
 30
0.0
 10
114.3731086217613
 20
84.5009708334801
 30
0.0
  0
SPLINE
  5
19F
330
81
100
AcDbEntity
  8
MD_可視
100
AcDbSpline
210
0.0
220
0.0
230
1.0
 70
     8
 71
     3
 72
    23
 73
    19
 74
     0
 42
0.000000001
 43
0.0000000001
 40
0.0
 40
0.0
 40
0.0
 40
0.0
 40
0.0722286336867773
 40
0.1412522079185351
 40
0.2074387069816935
 40
0.2702445807173158
 40
0.3312380828032795
 40
0.3912536638088793
 40
0.450152365962625
 40
0.5090080427085854
 40
0.5677344540982917
 40
0.6257260394334248
 40
0.6837082634859221
 40
0.7424069381207821
 40
0.8030941101274713
 40
0.8658654023020236
 40
0.9313786843923878
 40
1.0
 40
1.0
 40
1.0
 40
1.0
 10
115.6038778525308
 20
84.48113910271059
 30
0.0
 10
115.6035026353402
 20
84.50520369918558
 30
0.0
 10
115.6027688507765
 20
84.55226505437712
 30
0.0
 10
115.594512249223
 20
84.62093757165893
 30
0.0
 10
115.5824843604496
 20
84.68585744779375
 30
0.0
 10
115.5640201550013
 20
84.74647842525881
 30
0.0
 10
115.5413585051228
 20
84.8034422774217
 30
0.0
 10
115.5129637044756
 20
84.85632290001376
 30
0.0
 10
115.4798783960341
 20
84.90556972765444
 30
0.0
 10
115.4410872327153
 20
84.9498787299599
 30
0.0
 10
115.3986663213109
 20
84.9902468354303
 30
0.0
 10
115.3520769333572
 20
85.02531038807317
 30
0.0
 10
115.3018782030521
 20
85.05492346102801
 30
0.0
 10
115.2478890396287
 20
85.07916675164052
 30
0.0
 10
115.19000774308
 20
85.0977463808322
 30
0.0
 10
115.1283541691173
 20
85.11062251767725
 30
0.0
 10
115.0632752259898
 20
85.11961062320915
 30
0.0
 10
115.0185735202267
 20
85.12024013204062
 30
0.0
 10
114.995704775607
 20
85.12056217963253
 30
0.0
  0
SPLINE
  5
1A0
330
81
100
AcDbEntity
  8
MD_可視
100
AcDbSpline
210
0.0
220
0.0
230
1.0
 70
     8
 71
     3
 72
    23
 73
    19
 74
     0
 42
0.000000001
 43
0.0000000001
 40
0.0
 40
0.0
 40
0.0
 40
0.0
 40
0.0639648053401601
 40
0.1248536427375534
 40
0.1843832690019469
 40
0.2427484112953821
 40
0.2999004065254336
 40
0.3570586407157386
 40
0.4157193508918103
 40
0.4752579616300973
 40
0.5355080306549881
 40
0.596291361708855
 40
0.6577282330120777
 40
0.7210515111823935
 40
0.7862613089946909
 40
0.8538343480043144
 40
0.9253180038050908
 40
1.0
 40
1.0
 40
1.0
 40
1.0
 10
115.0107288140698
 20
83.81286987194107
 30
0.0
 10
115.0321944666902
 20
83.81345040984706
 30
0.0
 10
115.074093522102
 20
83.81458356849543
 30
0.0
 10
115.135440543092
 20
83.82336440937979
 30
0.0
 10
115.1939723808736
 20
83.83686673209558
 30
0.0
 10
115.249350117816
 20
83.85681632208799
 30
0.0
 10
115.3014986025555
 20
83.8822774848777
 30
0.0
 10
115.350688603994
 20
83.91326539202418
 30
0.0
 10
115.396888313513
 20
83.94987281853174
 30
0.0
 10
115.4395391383514
 20
83.99203256741566
 30
0.0
 10
115.478086256393
 20
84.03892178537535
 30
0.0
 10
115.5115785909693
 20
84.09025273707266
 30
0.0
 10
115.5411554512648
 20
84.14518089503326
 30
0.0
 10
115.5634019718509
 20
84.20505609689461
 30
0.0
 10
115.5815296652072
 20
84.26834439924276
 30
0.0
 10
115.5948569816664
 20
84.33564421278244
 30
0.0
 10
115.6026815184068
 20
84.40703280887467
 30
0.0
 10
115.6034732993412
 20
84.45607926621416
 30
0.0
 10
115.6038778525308
 20
84.48113910271059
 30
0.0
  0
SPLINE
  5
1A1
330
81
100
AcDbEntity
  8
MD_可視
100
AcDbSpline
210
0.0
220
0.0
230
1.0
 70
     8
 71
     3
 72
    19
 73
    15
 74
     0
 42
0.000000001
 43
0.0000000001
 40
0.0
 40
0.0
 40
0.0
 40
0.0
 40
0.0861768010907643
 40
0.1712222635221415
 40
0.2575725335469352
 40
0.3451499981375385
 40
0.4315078851755365
 40
0.5136438519896105
 40
0.5935389922556496
 40
0.6728059708429015
 40
0.7520584265386355
 40
0.831493262603724
 40
0.9138231989092362
 40
1.0
 40
1.0
 40
1.0
 40
1.0
 10
114.3731086217613
 20
84.5009708334801
 30
0.0
 10
114.3741784140656
 20
84.47085562414761
 30
0.0
 10
114.3763039543209
 20
84.41102056131056
 30
0.0
 10
114.3925619151105
 20
84.32220567268997
 30
0.0
 10
114.4191123130331
 20
84.23555055694853
 30
0.0
 10
114.4554999350202
 20
84.15201759951015
 30
0.0
 10
114.5004319477957
 20
84.07440700969164
 30
0.0
 10
114.5538007049163
 20
84.00563867084022
 30
0.0
 10
114.6144477853795
 20
83.94672227412049
 30
0.0
 10
114.6820472574327
 20
83.89752997072902
 30
0.0
 10
114.75644044625
 20
83.85972704185224
 30
0.0
 10
114.8362949524726
 20
83.83234789295784
 30
0.0
 10
114.9217061810977
 20
83.81579984547897
 30
0.0
 10
114.9806063892756
 20
83.81386128170561
 30
0.0
 10
115.0107288140698
 20
83.81286987194107
 30
0.0
  0
LINE
  5
1A2
330
81
100
AcDbEntity
  8
MD_狭い可視
100
AcDbLine
 10
116.7192624679155
 20
88.65517756424925
 30
0.0
 11
105.7192624679155
 21
88.65517756424925
 31
0.0
  0
LINE
  5
1A3
330
81
100
AcDbEntity
  8
MD_可視
100
AcDbLine
 10
116.7192624679155
 20
90.15517756424923
 30
0.0
 11
116.7192624679155
 21
88.65517756424925
 31
0.0
  0
LINE
  5
1A4
330
81
100
AcDbEntity
  8
MD_可視
100
AcDbLine
 10
116.7192624679155
 20
88.65517756424925
 30
0.0
 11
116.7192624679155
 21
87.65517756424925
 31
0.0
  0
SPLINE
  5
1A5
330
81
100
AcDbEntity
  8
MD_可視
100
AcDbSpline
210
0.0
220
0.0
230
1.0
 70
     8
 71
     3
 72
    14
 73
    10
 74
     0
 42
0.000000001
 43
0.0000000001
 40
0.0
 40
0.0
 40
0.0
 40
0.0
 40
0.0065821656484606
 40
0.0065821656484606
 40
0.0131643312969211
 40
0.0131643312969211
 40
0.0263286625938422
 40
0.0263286625938422
 40
0.029392951525378
 40
0.029392951525378
 40
0.029392951525378
 40
0.029392951525378
 10
115.1883968791608
 20
90.6106503918636
 30
0.0
 10
115.1883968791608
 20
90.63259094402566
 30
0.0
 10
115.1907780708934
 20
90.65476328046498
 30
0.0
 10
115.2001027407059
 20
90.69795131571844
 30
0.0
 10
115.2070459073693
 20
90.71896694254428
 30
0.0
 10
115.2331797251427
 20
90.77830900507251
 30
0.0
 10
115.2578836993852
 20
90.81290818956768
 30
0.0
 10
115.2892438366834
 20
90.84621212131059
 30
0.0
 10
115.2953684627246
 20
90.85228318058762
 30
0.0
 10
115.3016687449799
 20
90.85813776527905
 30
0.0
  0
SPLINE
  5
1A6
330
81
100
AcDbEntity
  8
MD_可視
100
AcDbSpline
210
0.0
220
0.0
230
1.0
 70
     8
 71
     3
 72
    14
 73
    10
 74
     0
 42
0.000000001
 43
0.0000000001
 40
0.2244614209967207
 40
0.2244614209967207
 40
0.2244614209967207
 40
0.2244614209967207
 40
0.2275257099282567
 40
0.2275257099282567
 40
0.2406900412251778
 40
0.2406900412251778
 40
0.2472722068736384
 40
0.2472722068736384
 40
0.2538543725220989
 40
0.2538543725220989
 40
0.2538543725220989
 40
0.2538543725220989
 10
107.1368561908512
 20
90.85813776527905
 30
0.0
 10
107.1431564731065
 20
90.85228318058762
 30
0.0
 10
107.1492810991476
 20
90.84621212131059
 30
0.0
 10
107.1806412364458
 20
90.81290818956768
 30
0.0
 10
107.2053452106884
 20
90.77830900507251
 30
0.0
 10
107.2314790284617
 20
90.71896694254428
 30
0.0
 10
107.2384221951251
 20
90.69795131571844
 30
0.0
 10
107.2477468649376
 20
90.65476328046498
 30
0.0
 10
107.2501280566703
 20
90.63259094402566
 30
0.0
 10
107.2501280566703
 20
90.6106503918636
 30
0.0
  0
LINE
  5
1A7
330
81
100
AcDbEntity
  8
MD_可視
100
AcDbLine
 10
116.7192624679155
 20
90.16837068312634
 30
0.0
 11
116.7192624679155
 21
90.15517756424923
 31
0.0
  0
ELLIPSE
  5
1A8
330
81
100
AcDbEntity
  8
MD_可視
100
AcDbEllipse
 10
111.2192624679155
 20
90.04270124315189
 30
0.0
 11
-6.0
 21
0.0000000000000015
 31
0.0
210
0.0
220
0.0
230
0.9999999999999998
 40
0.0524077792830188
 41
3.55273051591214
 42
3.909518939756298
  0
ELLIPSE
  5
1A9
330
81
100
AcDbEntity
  8
MD_可視
100
AcDbEllipse
 10
111.2192624679155
 20
90.04270124315189
 30
0.0
 11
-6.0
 21
0.0000000000000015
 31
0.0
210
0.0
220
0.0
230
0.9999999999999998
 40
0.0524077792830188
 41
-0.7679262861665067
 42
-0.4111378623223473
  0
LINE
  5
1AA
330
81
100
AcDbEntity
  8
MD_可視
100
AcDbLine
 10
116.7192624679155
 20
90.15517756424923
 30
0.0
 11
105.7192624679155
 21
90.15517756424923
 31
0.0
  0
LINE
  5
1AB
330
81
100
AcDbEntity
  8
MD_可視
100
AcDbLine
 10
116.7192624679155
 20
92.85517756424814
 30
0.0
 11
116.7192624679155
 21
90.16837068312634
 31
0.0
  0
LINE
  5
1AC
330
81
100
AcDbEntity
  8
MD_可視
100
AcDbLine
 10
115.0692624679159
 20
82.00517756424778
 30
0.0
 11
115.0692624679159
 21
80.29517756424866
 31
0.0
  0
LINE
  5
1AD
330
81
100
AcDbEntity
  8
MD_可視
100
AcDbLine
 10
107.3692624679152
 20
82.00517756424778
 30
0.0
 11
107.3692624679152
 21
80.29517756424866
 31
0.0
  0
LINE
  5
1AE
330
81
100
AcDbEntity
  8
MD_可視
100
AcDbLine
 10
107.3642624679159
 20
82.00517756424778
 30
0.0
 11
107.3692624679152
 21
82.00517756424778
 31
0.0
  0
LINE
  5
1AF
330
81
100
AcDbEntity
  8
MD_可視
100
AcDbLine
 10
115.0692624679159
 20
82.00517756424778
 30
0.0
 11
115.0742624679151
 21
82.00517756424778
 31
0.0
  0
LINE
  5
1B0
330
81
100
AcDbEntity
  8
MD_可視
100
AcDbLine
 10
106.3692624679152
 20
78.55517756424887
 30
0.0
 11
106.3692624679152
 21
75.35517756424815
 31
0.0
  0
LINE
  5
1B1
330
81
100
AcDbEntity
  8
MD_狭い可視
100
AcDbLine
 10
105.8692624679151
 20
75.35517756424815
 30
0.0
 11
105.8692624679151
 21
78.55517756424887
 31
0.0
  0
LINE
  5
1B2
330
81
100
AcDbEntity
  8
MD_可視
100
AcDbLine
 10
116.0692624679159
 20
75.35517756424815
 30
0.0
 11
116.0692624679159
 21
78.55517756424887
 31
0.0
  0
LINE
  5
1B3
330
81
100
AcDbEntity
  8
MD_狭い可視
100
AcDbLine
 10
116.5692624679159
 20
78.55517756424887
 30
0.0
 11
116.5692624679159
 21
75.35517756424815
 31
0.0
  0
ENDBLK
  5
1B4
330
81
100
AcDbEntity
  8
0
100
AcDbBlockEnd
  0
BLOCK
  5
1B8
330
1B7
100
AcDbEntity
  8
0
100
AcDbBlockBegin
  2
CustomObjectsInViewport6_0
 70
     0
 10
0.0
 20
0.0
 30
0.0
  3
CustomObjectsInViewport6_0
  1

  0
LINE
  5
1B9
330
1B7
100
AcDbEntity
  8
MD_可視
100
AcDbLine
 10
117.3692624679151
 20
125.4934761636596
 30
0.0
 11
117.3692624679151
 21
125.5934761636597
 31
0.0
210
0.0000000000000003
220
-1.0
230
-0.0000000000000002
  0
LINE
  5
1BA
330
1B7
100
AcDbEntity
  8
MD_可視
100
AcDbLine
 10
105.0692624679159
 20
125.5934761636597
 30
0.0
 11
105.0692624679159
 21
125.4934761636596
 31
0.0
210
0.0000000000000003
220
-1.0
230
-0.0000000000000002
  0
LINE
  5
1BB
330
1B7
100
AcDbEntity
  8
MD_可視
100
AcDbLine
 10
115.1883968791608
 20
110.7439237379114
 30
0.0
 11
107.2501280566703
 21
110.7439237379114
 31
0.0
210
0.0000000000000003
220
-1.0
230
-0.0000000000000002
  0
LINE
  5
1BC
330
1B7
100
AcDbEntity
  8
MD_可視
100
AcDbLine
 10
104.4192624679162
 20
125.4934761636596
 30
0.0
 11
118.0192624679148
 21
125.4934761636596
 31
0.0
210
0.0000000000000003
220
-1.0
230
-0.0000000000000002
  0
LINE
  5
1BD
330
1B7
100
AcDbEntity
  8
MD_可視
100
AcDbLine
 10
107.2192624679155
 20
125.5934761636597
 30
0.0
 11
107.2192624679155
 21
125.4934761636596
 31
0.0
210
0.0000000000000003
220
-1.0
230
-0.0000000000000002
  0
LINE
  5
1BE
330
1B7
100
AcDbEntity
  8
MD_可視
100
AcDbLine
 10
105.6192624679151
 20
125.5934761636597
 30
0.0
 11
105.6192624679151
 21
125.4934761636596
 31
0.0
210
0.0000000000000003
220
-1.0
230
-0.0000000000000002
  0
LINE
  5
1BF
330
1B7
100
AcDbEntity
  8
MD_可視
100
AcDbLine
 10
115.2192624679155
 20
125.5934761636597
 30
0.0
 11
115.2192624679155
 21
125.4934761636596
 31
0.0
210
0.0000000000000003
220
-1.0
230
-0.0000000000000002
  0
LINE
  5
1C0
330
1B7
100
AcDbEntity
  8
MD_可視
100
AcDbLine
 10
116.8192624679159
 20
125.4934761636596
 30
0.0
 11
116.8192624679159
 21
125.5934761636597
 31
0.0
210
0.0000000000000003
220
-1.0
230
-0.0000000000000002
  0
LINE
  5
1C1
330
1B7
100
AcDbEntity
  8
MD_可視
100
AcDbLine
 10
107.2192624679155
 20
121.4034893562947
 30
0.0
 11
107.2192624679155
 21
125.1934761636595
 31
0.0
210
0.0000000000000003
220
-1.0
230
-0.0000000000000002
  0
LINE
  5
1C2
330
1B7
100
AcDbEntity
  8
MD_可視
100
AcDbLine
 10
107.2192624679155
 20
125.1934761636596
 30
0.0
 11
105.7192624679155
 21
125.1934761636596
 31
0.0
210
0.0000000000000003
220
-1.0
230
-0.0000000000000002
  0
LINE
  5
1C3
330
1B7
100
AcDbEntity
  8
MD_可視
100
AcDbLine
 10
105.7192624679155
 20
121.4034893562947
 30
0.0
 11
105.7192624679155
 21
125.1934761636595
 31
0.0
210
0.0000000000000003
220
-1.0
230
-0.0000000000000002
  0
LINE
  5
1C4
330
1B7
100
AcDbEntity
  8
MD_狭い可視
100
AcDbLine
 10
107.2192624679155
 20
121.4034893562947
 30
0.0
 11
105.7192624679155
 21
121.4034893562947
 31
0.0
210
0.0000000000000003
220
-1.0
230
-0.0000000000000002
  0
LINE
  5
1C5
330
1B7
100
AcDbEntity
  8
MD_可視
100
AcDbLine
 10
107.2192624679155
 20
121.4034893562947
 30
0.0
 11
107.2192624679155
 21
120.2705091250865
 31
0.0
210
0.0000000000000003
220
-1.0
230
-0.0000000000000002
  0
LINE
  5
1C6
330
1B7
100
AcDbEntity
  8
MD_可視
100
AcDbLine
 10
105.7192624679155
 20
121.4034893562947
 30
0.0
 11
105.7192624679155
 21
113.3434761636596
 31
0.0
210
0.0000000000000003
220
-1.0
230
-0.0000000000000002
  0
LINE
  5
1C7
330
1B7
100
AcDbEntity
  8
MD_可視
100
AcDbLine
 10
109.2192624679155
 20
111.4434761634655
 30
0.0
 11
113.2192624679155
 21
111.4434761634655
 31
0.0
210
0.0000000000000003
220
-1.0
230
-0.0000000000000002
  0
LINE
  5
1C8
330
1B7
100
AcDbEntity
  8
MD_可視
100
AcDbLine
 10
116.7192624679155
 20
121.4034893562947
 30
0.0
 11
116.7192624679155
 21
113.3434761636596
 31
0.0
210
0.0000000000000003
220
-1.0
230
-0.0000000000000002
  0
LINE
  5
1C9
330
1B7
100
AcDbEntity
  8
MD_狭い可視
100
AcDbLine
 10
116.7192624679155
 20
121.4034893562947
 30
0.0
 11
115.2192624679155
 21
121.4034893562947
 31
0.0
210
0.0000000000000003
220
-1.0
230
-0.0000000000000002
  0
LINE
  5
1CA
330
1B7
100
AcDbEntity
  8
MD_可視
100
AcDbLine
 10
115.2192624679155
 20
121.4034893562947
 30
0.0
 11
115.2192624679155
 21
120.2705091250865
 31
0.0
210
0.0000000000000003
220
-1.0
230
-0.0000000000000002
  0
LINE
  5
1CB
330
1B7
100
AcDbEntity
  8
MD_可視
100
AcDbLine
 10
107.2192624679155
 20
120.2705091250865
 30
0.0
 11
115.2192624679155
 21
120.2705091250865
 31
0.0
210
0.0000000000000003
220
-1.0
230
-0.0000000000000002
  0
LINE
  5
1CC
330
1B7
100
AcDbEntity
  8
MD_可視
100
AcDbLine
 10
113.2192624679155
 20
116.9434761631209
 30
0.0
 11
109.2192624679155
 21
116.9434761631209
 31
0.0
210
0.0000000000000003
220
-1.0
230
-0.0000000000000002
  0
LINE
  5
1CD
330
1B7
100
AcDbEntity
  8
MD_可視
100
AcDbLine
 10
113.2192624679155
 20
116.9434761631209
 30
0.0
 11
113.2192624679155
 21
115.5434761631209
 31
0.0
210
0.0000000000000003
220
-1.0
230
-0.0000000000000002
  0
LINE
  5
1CE
330
1B7
100
AcDbEntity
  8
MD_可視
100
AcDbLine
 10
109.2192624679155
 20
115.5434761631209
 30
0.0
 11
109.2192624679155
 21
116.9434761631209
 31
0.0
210
0.0000000000000003
220
-1.0
230
-0.0000000000000002
  0
LINE
  5
1CF
330
1B7
100
AcDbEntity
  8
MD_可視
100
AcDbLine
 10
113.2192624679155
 20
115.5434761631209
 30
0.0
 11
109.2192624679155
 21
115.5434761631209
 31
0.0
210
0.0000000000000003
220
-1.0
230
-0.0000000000000002
  0
LINE
  5
1D0
330
1B7
100
AcDbEntity
  8
MD_可視
100
AcDbLine
 10
113.2192624679155
 20
115.5434761631209
 30
0.0
 11
113.2192624679155
 21
115.0434761629268
 31
0.0
210
0.0000000000000003
220
-1.0
230
-0.0000000000000002
  0
LINE
  5
1D1
330
1B7
100
AcDbEntity
  8
MD_可視
100
AcDbLine
 10
109.2192624679155
 20
115.0434761629268
 30
0.0
 11
109.2192624679155
 21
115.5434761631209
 31
0.0
210
0.0000000000000003
220
-1.0
230
-0.0000000000000002
  0
LINE
  5
1D2
330
1B7
100
AcDbEntity
  8
MD_可視
100
AcDbLine
 10
113.2192624679155
 20
115.0434761629268
 30
0.0
 11
109.2192624679155
 21
115.0434761629268
 31
0.0
210
0.0000000000000003
220
-1.0
230
-0.0000000000000002
  0
LINE
  5
1D3
330
1B7
100
AcDbEntity
  8
MD_可視
100
AcDbLine
 10
105.7192624679155
 20
113.3434761636596
 30
0.0
 11
105.7192624679155
 21
112.8455604012705
 31
0.0
210
0.0000000000000003
220
-1.0
230
-0.0000000000000002
  0
LINE
  5
1D4
330
1B7
100
AcDbEntity
  8
MD_可視
100
AcDbLine
 10
109.2192624679155
 20
113.3434761636596
 30
0.0
 11
105.7192624679155
 21
113.3434761636596
 31
0.0
210
0.0000000000000003
220
-1.0
230
-0.0000000000000002
  0
LINE
  5
1D5
330
1B7
100
AcDbEntity
  8
MD_可視
100
AcDbLine
 10
116.7192624679155
 20
113.3434761636596
 30
0.0
 11
113.2192624679155
 21
113.3434761636596
 31
0.0
210
0.0000000000000003
220
-1.0
230
-0.0000000000000002
  0
ARC
  5
1D6
330
1B7
100
AcDbEntity
  8
MD_可視
100
AcDbCircle
 10
-111.2192624679155
 20
115.2434761629268
 30
0.0
 40
6.0
210
0.0
220
0.0
230
-1.0
100
AcDbArc
 50
336.4218215273898
 51
336.443535690876
  0
LINE
  5
1D7
330
1B7
100
AcDbEntity
  8
MD_可視
100
AcDbLine
 10
109.2192624679155
 20
112.8434761634655
 30
0.0
 11
105.7201716337331
 21
112.8434761634655
 31
0.0
210
0.0000000000000003
220
-1.0
230
-0.0000000000000002
  0
LINE
  5
1D8
330
1B7
100
AcDbEntity
  8
MD_可視
100
AcDbLine
 10
109.2192624679155
 20
113.3434761636596
 30
0.0
 11
109.2192624679155
 21
112.8434761634655
 31
0.0
210
0.0000000000000003
220
-1.0
230
-0.0000000000000002
  0
LINE
  5
1D9
330
1B7
100
AcDbEntity
  8
MD_可視
100
AcDbLine
 10
116.7183533020979
 20
112.8434761634655
 30
0.0
 11
113.2192624679155
 21
112.8434761634655
 31
0.0
210
0.0000000000000003
220
-1.0
230
-0.0000000000000002
  0
ARC
  5
1DA
330
1B7
100
AcDbEntity
  8
MD_可視
100
AcDbCircle
 10
-111.2192624679155
 20
115.2434761629268
 30
0.0
 40
6.000000000000002
210
0.0
220
0.0
230
-1.0
100
AcDbArc
 50
203.5564643091247
 51
203.578178472611
  0
LINE
  5
1DB
330
1B7
100
AcDbEntity
  8
MD_可視
100
AcDbLine
 10
116.7192624679155
 20
113.3434761636596
 30
0.0
 11
116.7192624679155
 21
112.8455604012705
 31
0.0
210
0.0000000000000003
220
-1.0
230
-0.0000000000000002
  0
LINE
  5
1DC
330
1B7
100
AcDbEntity
  8
MD_可視
100
AcDbLine
 10
113.2192624679155
 20
112.8434761634655
 30
0.0
 11
113.2192624679155
 21
113.3434761636596
 31
0.0
210
0.0000000000000003
220
-1.0
230
-0.0000000000000002
  0
LINE
  5
1DD
330
1B7
100
AcDbEntity
  8
MD_狭い可視
100
AcDbLine
 10
115.3016687449799
 20
110.8464363644962
 30
0.0
 11
107.1368561908512
 21
110.8464363644962
 31
0.0
210
0.0000000000000003
220
-1.0
230
-0.0000000000000002
  0
ELLIPSE
  5
1DE
330
1B7
100
AcDbEntity
  8
MD_可視
100
AcDbEllipse
 10
111.2192624679119
 20
115.2434761629307
 30
0.0
 11
6.000000000004498
 21
0.0000000000029098
 31
0.0
210
0.0
220
-0.0000000000000001
230
1.0
 40
1.0
 41
-0.8224865817377786
 42
-0.411516845969993
  0
LINE
  5
1DF
330
1B7
100
AcDbEntity
  8
MD_可視
100
AcDbLine
 10
113.2192624679155
 20
111.4434761634655
 30
0.0
 11
113.2192624679155
 21
112.8434761634655
 31
0.0
210
0.0000000000000003
220
-1.0
230
-0.0000000000000002
  0
LINE
  5
1E0
330
1B7
100
AcDbEntity
  8
MD_可視
100
AcDbLine
 10
109.2192624679155
 20
112.8434761634655
 30
0.0
 11
109.2192624679155
 21
111.4434761634655
 31
0.0
210
0.0000000000000003
220
-1.0
230
-0.0000000000000002
  0
ELLIPSE
  5
1E1
330
1B7
100
AcDbEntity
  8
MD_可視
100
AcDbEllipse
 10
111.2192624679137
 20
115.2434761629258
 30
0.0
 11
0.0000000000020163
 21
-5.999999999998632
 31
-0.0000000000000003
210
0.0
220
-0.0000000000000001
230
0.9999999999999998
 40
1.0
 41
5.12390582635409
 42
5.534875562122152
  0
LINE
  5
1E2
330
1B7
100
AcDbEntity
  8
MD_可視
100
AcDbLine
 10
116.7192624679155
 20
125.1934761636596
 30
0.0
 11
118.0192624679148
 21
125.1934761636596
 31
0.0
210
0.0000000000000003
220
-1.0
230
-0.0000000000000002
  0
LINE
  5
1E3
330
1B7
100
AcDbEntity
  8
MD_可視
100
AcDbLine
 10
104.4192624679162
 20
125.1934761636596
 30
0.0
 11
105.7192624679155
 21
125.1934761636596
 31
0.0
210
0.0000000000000003
220
-1.0
230
-0.0000000000000002
  0
LINE
  5
1E4
330
1B7
100
AcDbEntity
  8
MD_可視
100
AcDbLine
 10
104.4192624679162
 20
125.1911690465645
 30
0.0
 11
104.4192624679162
 21
125.1934761636596
 31
0.0
210
0.0000000000000003
220
-1.0
230
-0.0000000000000002
  0
LINE
  5
1E5
330
1B7
100
AcDbEntity
  8
MD_可視
100
AcDbLine
 10
104.4192624679162
 20
125.1911690465645
 30
0.0
 11
104.3192624679159
 21
125.1911690468146
 31
0.0
210
0.0000000000000003
220
-1.0
230
-0.0000000000000002
  0
LINE
  5
1E6
330
1B7
100
AcDbEntity
  8
MD_狭い可視
100
AcDbLine
 10
104.3192624679159
 20
125.1911690468146
 30
0.0
 11
104.3192624679159
 21
105.3934761636596
 31
0.0
210
0.0000000000000003
220
-1.0
230
-0.0000000000000002
  0
LINE
  5
1E7
330
1B7
100
AcDbEntity
  8
MD_可視
100
AcDbLine
 10
118.1192624679151
 20
105.3934761636596
 30
0.0
 11
104.3192624679159
 21
105.3934761636596
 31
0.0
210
0.0000000000000003
220
-1.0
230
-0.0000000000000002
  0
LINE
  5
1E8
330
1B7
100
AcDbEntity
  8
MD_狭い可視
100
AcDbLine
 10
118.1192624679151
 20
105.3934761636596
 30
0.0
 11
118.1192624679151
 21
125.1911690468146
 31
0.0
210
0.0000000000000003
220
-1.0
230
-0.0000000000000002
  0
LINE
  5
1E9
330
1B7
100
AcDbEntity
  8
MD_可視
100
AcDbLine
 10
118.0192624679148
 20
125.1911690465645
 30
0.0
 11
118.1192624679151
 21
125.1911690468146
 31
0.0
210
0.0000000000000003
220
-1.0
230
-0.0000000000000002
  0
LINE
  5
1EA
330
1B7
100
AcDbEntity
  8
MD_可視
100
AcDbLine
 10
118.0192624679148
 20
125.1934761636596
 30
0.0
 11
118.0192624679148
 21
125.1911690465645
 31
0.0
210
0.0000000000000003
220
-1.0
230
-0.0000000000000002
  0
LINE
  5
1EB
330
1B7
100
AcDbEntity
  8
MD_可視
100
AcDbLine
 10
118.1192624679151
 20
105.3934761636596
 30
0.0
 11
118.5192624679148
 21
105.3934761636596
 31
0.0
210
0.0000000000000003
220
-1.0
230
-0.0000000000000002
  0
LINE
  5
1EC
330
1B7
100
AcDbEntity
  8
MD_可視
100
AcDbLine
 10
103.9192624679162
 20
105.3934761636596
 30
0.0
 11
104.3192624679159
 21
105.3934761636596
 31
0.0
210
0.0000000000000003
220
-1.0
230
-0.0000000000000002
  0
LINE
  5
1ED
330
1B7
100
AcDbEntity
  8
MD_可視
100
AcDbLine
 10
103.9192624679162
 20
105.3934761636596
 30
0.0
 11
103.9192624679162
 21
125.1726899551207
 31
0.0
210
0.0000000000000003
220
-1.0
230
-0.0000000000000002
  0
LINE
  5
1EE
330
1B7
100
AcDbEntity
  8
MD_可視
100
AcDbLine
 10
118.5192624679148
 20
125.1726899551207
 30
0.0
 11
118.5192624679148
 21
105.3934761636596
 31
0.0
210
0.0000000000000003
220
-1.0
230
-0.0000000000000002
  0
SPLINE
  5
1EF
330
1B7
100
AcDbEntity
  8
MD_可視
100
AcDbSpline
210
0.0
220
0.0
230
1.0
 70
     8
 71
     3
 72
    14
 73
    10
 74
     0
 42
0.000000001
 43
0.0000000001
 40
0.1207034243617316
 40
0.1207034243617316
 40
0.1207034243617316
 40
0.1207034243617316
 40
0.1357694336663689
 40
0.1357694336663689
 40
0.1508354429710062
 40
0.1508354429710062
 40
0.1659245541309337
 40
0.1659245541309337
 40
0.1810136652908612
 40
0.1810136652908612
 40
0.1810136652908612
 40
0.1810136652908612
 10
118.1192624679151
 20
125.1911690465645
 30
0.0
 10
118.1694824989317
 20
125.1911690465645
 30
0.0
 10
118.2230493185925
 20
125.1909556989819
 30
0.0
 10
118.3215862980796
 20
125.1898706279999
 30
0.0
 10
118.3665561829857
 20
125.1889739448211
 30
0.0
 10
118.4376198479876
 20
125.1863737985723
 30
0.0
 10
118.4684219821793
 20
125.1844915344795
 30
0.0
 10
118.5092425477451
 20
125.1794024783716
 30
0.0
 10
118.5192624679148
 20
125.1761707265661
 30
0.0
 10
118.5192624679148
 20
125.1726899551207
 30
0.0
  0
LINE
  5
1F0
330
1B7
100
AcDbEntity
  8
MD_可視
100
AcDbLine
 10
118.0192624679148
 20
125.1934761636596
 30
0.0
 11
118.0192624679148
 21
125.4934761636596
 31
0.0
210
0.0000000000000003
220
-1.0
230
-0.0000000000000002
  0
SPLINE
  5
1F1
330
1B7
100
AcDbEntity
  8
MD_可視
100
AcDbSpline
210
0.0
220
0.0
230
1.0
 70
     8
 71
     3
 72
    14
 73
    10
 74
     0
 42
0.000000001
 43
0.0000000001
 40
0.1810966077943337
 40
0.1810966077943337
 40
0.1810966077943337
 40
0.1810966077943337
 40
0.1961857189542612
 40
0.1961857189542612
 40
0.2112748301141886
 40
0.2112748301141886
 40
0.2263408394188259
 40
0.2263408394188259
 40
0.2414068487234632
 40
0.2414068487234632
 40
0.2414068487234632
 40
0.2414068487234632
 10
103.9192624679162
 20
125.1726899551207
 30
0.0
 10
103.9192624679162
 20
125.1761707265661
 30
0.0
 10
103.929282388086
 20
125.1794024783716
 30
0.0
 10
103.9701029536518
 20
125.1844915344795
 30
0.0
 10
104.0009050878434
 20
125.1863737985723
 30
0.0
 10
104.0719687528453
 20
125.1889739448211
 30
0.0
 10
104.1169386377514
 20
125.1898706279999
 30
0.0
 10
104.2154756172385
 20
125.1909556989819
 30
0.0
 10
104.2690424368993
 20
125.1911690465645
 30
0.0
 10
104.3192624679159
 20
125.1911690465645
 30
0.0
  0
LINE
  5
1F2
330
1B7
100
AcDbEntity
  8
MD_可視
100
AcDbLine
 10
104.4192624679162
 20
125.1934761636596
 30
0.0
 11
104.4192624679162
 21
125.4934761636596
 31
0.0
210
0.0000000000000003
220
-1.0
230
-0.0000000000000002
  0
LINE
  5
1F3
330
1B7
100
AcDbEntity
  8
MD_可視
100
AcDbLine
 10
107.2192624679155
 20
125.1934761636596
 30
0.0
 11
115.2192624679155
 21
125.1934761636596
 31
0.0
210
0.0000000000000003
220
-1.0
230
-0.0000000000000002
  0
LINE
  5
1F4
330
1B7
100
AcDbEntity
  8
MD_可視
100
AcDbLine
 10
116.7192624679155
 20
125.1934761636596
 30
0.0
 11
115.2192624679155
 21
125.1934761636596
 31
0.0
210
0.0000000000000003
220
-1.0
230
-0.0000000000000002
  0
LINE
  5
1F5
330
1B7
100
AcDbEntity
  8
MD_可視
100
AcDbLine
 10
115.2192624679155
 20
121.4034893562947
 30
0.0
 11
115.2192624679155
 21
125.1934761636595
 31
0.0
210
0.0000000000000003
220
-1.0
230
-0.0000000000000002
  0
LINE
  5
1F6
330
1B7
100
AcDbEntity
  8
MD_可視
100
AcDbLine
 10
116.7192624679155
 20
121.4034893562947
 30
0.0
 11
116.7192624679155
 21
125.1934761636595
 31
0.0
210
0.0000000000000003
220
-1.0
230
-0.0000000000000002
  0
SPLINE
  5
1F7
330
1B7
100
AcDbEntity
  8
MD_可視
100
AcDbSpline
210
0.0
220
0.0
230
1.0
 70
     8
 71
     3
 72
    14
 73
    10
 74
     0
 42
0.000000001
 43
0.0000000001
 40
0.0
 40
0.0
 40
0.0
 40
0.0
 40
0.0065821656484606
 40
0.0065821656484606
 40
0.0131643312969211
 40
0.0131643312969211
 40
0.0263286625938422
 40
0.0263286625938422
 40
0.029392951525378
 40
0.029392951525378
 40
0.029392951525378
 40
0.029392951525378
 10
115.1883968791608
 20
110.7439237379114
 30
0.0
 10
115.1883968791608
 20
110.7439237379114
 30
0.0
 10
115.1907780708934
 20
110.7460208544756
 30
0.0
 10
115.2001027407059
 20
110.7542726876005
 30
0.0
 10
115.2070459073693
 20
110.7604281328224
 30
0.0
 10
115.2331797251427
 20
110.7837660965258
 30
0.0
 10
115.2578836993852
 20
110.8060518803285
 30
0.0
 10
115.2892438366834
 20
110.8349257838189
 30
0.0
 10
115.2953684627246
 20
110.8405888011276
 30
0.0
 10
115.3016687449799
 20
110.8464363644962
 30
0.0
  0
SPLINE
  5
1F8
330
1B7
100
AcDbEntity
  8
MD_可視
100
AcDbSpline
210
0.0
220
0.0
230
1.0
 70
     8
 71
     3
 72
    14
 73
    10
 74
     0
 42
0.000000001
 43
0.0000000001
 40
0.2244614209967207
 40
0.2244614209967207
 40
0.2244614209967207
 40
0.2244614209967207
 40
0.2275257099282567
 40
0.2275257099282567
 40
0.2406900412251778
 40
0.2406900412251778
 40
0.2472722068736384
 40
0.2472722068736384
 40
0.2538543725220989
 40
0.2538543725220989
 40
0.2538543725220989
 40
0.2538543725220989
 10
107.1368561908512
 20
110.8464363644962
 30
0.0
 10
107.1431564731065
 20
110.8405888011276
 30
0.0
 10
107.1492810991476
 20
110.8349257838189
 30
0.0
 10
107.1806412364458
 20
110.8060518803285
 30
0.0
 10
107.2053452106884
 20
110.7837660965258
 30
0.0
 10
107.2314790284617
 20
110.7604281328224
 30
0.0
 10
107.2384221951251
 20
110.7542726876005
 30
0.0
 10
107.2477468649376
 20
110.7460208544756
 30
0.0
 10
107.2501280566703
 20
110.7439237379114
 30
0.0
 10
107.2501280566703
 20
110.7439237379114
 30
0.0
  0
LINE
  5
1F9
330
1B7
100
AcDbEntity
  8
MD_可視
100
AcDbLine
 10
107.2192624679155
 20
122.1934761636596
 30
0.0
 11
115.2192624679155
 21
122.1934761636596
 31
0.0
210
0.0000000000000003
220
-1.0
230
-0.0000000000000002
  0
LINE
  5
1FA
330
1B7
100
AcDbEntity
  8
MD_可視
100
AcDbLine
 10
118.5192624679148
 20
125.5737063136973
 30
0.0
 11
118.5192624679148
 21
135.2934761636596
 31
0.0
210
0.0000000000000003
220
-1.0
230
-0.0000000000000002
  0
LINE
  5
1FB
330
1B7
100
AcDbEntity
  8
MD_可視
100
AcDbLine
 10
118.5192624679148
 20
125.5737063136969
 30
0.0
 11
118.5192624679148
 21
125.1726899551203
 31
0.0
210
0.0000000000000003
220
-1.0
230
-0.0000000000000002
  0
LINE
  5
1FC
330
1B7
100
AcDbEntity
  8
MD_可視
100
AcDbLine
 10
118.1192624679151
 20
135.2934761636596
 30
0.0
 11
118.5192624679148
 21
135.2934761636596
 31
0.0
210
0.0000000000000003
220
-1.0
230
-0.0000000000000002
  0
LINE
  5
1FD
330
1B7
100
AcDbEntity
  8
MD_可視
100
AcDbLine
 10
103.9192624679162
 20
135.2934761636596
 30
0.0
 11
104.3192624679159
 21
135.2934761636596
 31
0.0
210
0.0000000000000003
220
-1.0
230
-0.0000000000000002
  0
LINE
  5
1FE
330
1B7
100
AcDbEntity
  8
MD_可視
100
AcDbLine
 10
118.1192624679151
 20
135.2934761636596
 30
0.0
 11
104.3192624679159
 21
135.2934761636596
 31
0.0
210
0.0000000000000003
220
-1.0
230
-0.0000000000000002
  0
LINE
  5
1FF
330
1B7
100
AcDbEntity
  8
MD_可視
100
AcDbLine
 10
118.1192624679151
 20
125.5934761636597
 30
0.0
 11
104.3192624679159
 21
125.5934761636597
 31
0.0
210
0.0000000000000003
220
-1.0
230
-0.0000000000000002
  0
LINE
  5
200
330
1B7
100
AcDbEntity
  8
MD_可視
100
AcDbLine
 10
103.9192624679162
 20
125.5737063136973
 30
0.0
 11
103.9192624679162
 21
135.2934761636596
 31
0.0
210
0.0000000000000003
220
-1.0
230
-0.0000000000000002
  0
LINE
  5
201
330
1B7
100
AcDbEntity
  8
MD_可視
100
AcDbLine
 10
103.9192624679162
 20
125.5737063136969
 30
0.0
 11
103.9192624679162
 21
125.1726899551203
 31
0.0
210
0.0000000000000003
220
-1.0
230
-0.0000000000000002
  0
LINE
  5
202
330
1B7
100
AcDbEntity
  8
MD_可視
100
AcDbLine
 10
104.3192624679159
 20
125.5912816317615
 30
0.0
 11
104.3192624679159
 21
125.191169046816
 31
0.0
210
0.0000000000000003
220
-1.0
230
-0.0000000000000002
  0
SPLINE
  5
203
330
1B7
100
AcDbEntity
  8
MD_可視
100
AcDbSpline
210
0.0
220
0.0
230
1.0
 70
     8
 71
     3
 72
    14
 73
    10
 74
     0
 42
0.000000001
 43
0.0000000001
 40
-0.1206877541597957
 40
-0.1206877541597957
 40
-0.1206877541597957
 40
-0.1206877541597957
 40
-0.1056216057138046
 40
-0.1056216057138046
 40
-0.0905554572678135
 40
-0.0905554572678135
 40
-0.0754684111425704
 40
-0.0754684111425704
 40
-0.0603813650173274
 40
-0.0603813650173274
 40
-0.0603813650173274
 40
-0.0603813650173274
 10
104.3192624679159
 20
125.5912816317614
 30
0.0
 10
104.2690419730952
 20
125.5912816317614
 30
0.0
 10
104.2154746006927
 20
125.5910786943561
 30
0.0
 10
104.1169362154833
 20
125.5900465639953
 30
0.0
 10
104.0719654514232
 20
125.5891936303419
 30
0.0
 10
104.000905122497
 20
125.5867205043122
 30
0.0
 10
103.9701047160615
 20
125.584930365463
 30
0.0
 10
103.9292840617709
 20
125.5800903914279
 30
0.0
 10
103.9192624679162
 20
125.5770168155125
 30
0.0
 10
103.9192624679162
 20
125.5737063136973
 30
0.0
  0
LINE
  5
204
330
1B7
100
AcDbEntity
  8
MD_可視
100
AcDbLine
 10
104.3192624679159
 20
125.5912816317614
 30
0.0
 11
104.3192624679159
 21
125.5934761636597
 31
0.0
210
0.0000000000000003
220
-1.0
230
-0.0000000000000002
  0
SPLINE
  5
205
330
1B7
100
AcDbEntity
  8
MD_可視
100
AcDbSpline
210
0.0
220
0.0
230
1.0
 70
     8
 71
     3
 72
    14
 73
    10
 74
     0
 42
0.000000001
 43
0.0000000001
 40
0.0
 40
0.0
 40
0.0
 40
0.0
 40
0.0150661484459911
 40
0.0150661484459911
 40
0.0301322968919822
 40
0.0301322968919822
 40
0.0452193430172253
 40
0.0452193430172253
 40
0.0603063891424683
 40
0.0603063891424683
 40
0.0603063891424683
 40
0.0603063891424683
 10
118.1192624679151
 20
125.5912816317614
 30
0.0
 10
118.1694829627358
 20
125.5912816317614
 30
0.0
 10
118.2230503351384
 20
125.5910786943561
 30
0.0
 10
118.3215887203478
 20
125.5900465639953
 30
0.0
 10
118.3665594844078
 20
125.5891936303419
 30
0.0
 10
118.4376198133341
 20
125.5867205043122
 30
0.0
 10
118.4684202197695
 20
125.584930365463
 30
0.0
 10
118.5092408740602
 20
125.5800903914279
 30
0.0
 10
118.5192624679148
 20
125.5770168155125
 30
0.0
 10
118.5192624679148
 20
125.5737063136973
 30
0.0
  0
LINE
  5
206
330
1B7
100
AcDbEntity
  8
MD_可視
100
AcDbLine
 10
118.1192624679151
 20
125.5912816317615
 30
0.0
 11
118.1192624679151
 21
125.191169046816
 31
0.0
210
0.0000000000000003
220
-1.0
230
-0.0000000000000002
  0
LINE
  5
207
330
1B7
100
AcDbEntity
  8
MD_可視
100
AcDbLine
 10
118.1192624679151
 20
125.5934761636597
 30
0.0
 11
118.1192624679151
 21
125.5912816317614
 31
0.0
210
0.0000000000000003
220
-1.0
230
-0.0000000000000002
  0
LINE
  5
208
330
1B7
100
AcDbEntity
  8
MD_狭い可視
100
AcDbLine
 10
104.3192624679159
 20
125.5934761636597
 30
0.0
 11
104.3192624679159
 21
135.2934761636596
 31
0.0
210
0.0000000000000003
220
-1.0
230
-0.0000000000000002
  0
LINE
  5
209
330
1B7
100
AcDbEntity
  8
MD_狭い可視
100
AcDbLine
 10
118.1192624679151
 20
125.5934761636597
 30
0.0
 11
118.1192624679151
 21
135.2934761636596
 31
0.0
210
0.0000000000000003
220
-1.0
230
-0.0000000000000002
  0
ENDBLK
  5
20A
330
1B7
100
AcDbEntity
  8
0
100
AcDbBlockEnd
  0
BLOCK
  5
20E
330
20D
100
AcDbEntity
  8
0
100
AcDbBlockBegin
  2
CustomObjectsInViewport8_0
 70
     0
 10
0.0
 20
0.0
 30
0.0
  3
CustomObjectsInViewport8_0
  1

  0
SPLINE
  5
20F
330
20D
100
AcDbEntity
  8
MD_可視
100
AcDbSpline
210
0.0
220
0.0
230
1.0
 70
     8
 71
     3
 72
    16
 73
    12
 74
     0
 42
0.000000001
 43
0.0000000001
 40
0.1915318358489339
 40
0.1915318358489339
 40
0.1915318358489339
 40
0.1915318358489339
 40
0.2082705684396551
 40
0.2082705684396551
 40
0.2275257099282568
 40
0.2275257099282568
 40
0.2406900412251779
 40
0.2406900412251779
 40
0.2472722068736384
 40
0.2472722068736384
 40
0.253854372522099
 40
0.253854372522099
 40
0.253854372522099
 40
0.253854372522099
 10
143.3163071117485
 20
90.26113005469959
 30
0.0
 10
143.2754259993703
 20
90.26334552724073
 30
0.0
 10
143.232915910398
 20
90.27291851732844
 30
0.0
 10
143.1470252893284
 20
90.31093107596822
 30
0.0
 10
143.1044334497244
 20
90.34186223646065
 30
0.0
 10
143.0467528388505
 20
90.40839259415951
 30
0.0
 10
143.0244670550479
 20
90.44299177865468
 30
0.0
 10
143.0011290913444
 20
90.50233384118291
 30
0.0
 10
142.9949736461225
 20
90.52334946800874
 30
0.0
 10
142.9867218129976
 20
90.56653750326404
 30
0.0
 10
142.9846246964335
 20
90.58870983970155
 30
0.0
 10
142.9846246964335
 20
90.6106503918636
 30
0.0
  0
LINE
  5
210
330
20D
100
AcDbEntity
  8
MD_可視
100
AcDbLine
 10
147.2841771221817
 20
70.05517756424888
 30
0.0
 11
147.2841771221817
 21
71.65517756424924
 31
0.0
210
-1.0
220
-0.0000000000000002
230
0.0
  0
LINE
  5
211
330
20D
100
AcDbEntity
  8
MD_可視
100
AcDbLine
 10
147.2841771221817
 20
70.05517756424888
 30
0.0
 11
147.7841771221815
 21
70.05517756424888
 31
0.0
210
-1.0
220
-0.0000000000000002
230
0.0
  0
LINE
  5
212
330
20D
100
AcDbEntity
  8
MD_可視
100
AcDbLine
 10
147.7841771221815
 20
70.05517756424888
 30
0.0
 11
149.3841771221817
 21
71.65517756424924
 31
0.0
210
-1.0
220
-0.0000000000000002
230
0.0
  0
LINE
  5
213
330
20D
100
AcDbEntity
  8
MD_可視
100
AcDbLine
 10
143.4841771221817
 20
71.65517756424924
 30
0.0
 11
145.0841771221816
 21
70.05517756424888
 31
0.0
210
-1.0
220
-0.0000000000000002
230
0.0
  0
LINE
  5
214
330
20D
100
AcDbEntity
  8
MD_可視
100
AcDbLine
 10
145.0841771221816
 20
70.05517756424888
 30
0.0
 11
145.5841771221817
 21
70.05517756424888
 31
0.0
210
-1.0
220
-0.0000000000000002
230
0.0
  0
LINE
  5
215
330
20D
100
AcDbEntity
  8
MD_可視
100
AcDbLine
 10
145.5841771221817
 20
70.05517756424888
 30
0.0
 11
145.5841771221817
 21
71.65517756424924
 31
0.0
210
-1.0
220
-0.0000000000000002
230
0.0
  0
LINE
  5
216
330
20D
100
AcDbEntity
  8
MD_可視
100
AcDbLine
 10
157.7341771221816
 20
86.5087260709024
 30
0.0
 11
157.7341771221816
 21
87.55517756424886
 31
0.0
210
-1.0
220
-0.0000000000000002
230
0.0
  0
LINE
  5
217
330
20D
100
AcDbEntity
  8
MD_可視
100
AcDbLine
 10
157.7341771221816
 20
86.85517756424816
 30
0.0
 11
157.779154350497
 21
86.85517756424816
 31
0.0
210
-1.0
220
-0.0000000000000002
230
0.0
  0
LINE
  5
218
330
20D
100
AcDbEntity
  8
MD_可視
100
AcDbLine
 10
153.6441903148168
 20
91.45517756424853
 30
0.0
 11
145.5841771221817
 21
91.45517756424853
 31
0.0
210
-1.0
220
-0.0000000000000002
230
0.0
  0
LINE
  5
219
330
20D
100
AcDbEntity
  8
MD_可視
100
AcDbLine
 10
149.184177121643
 20
91.45517756424853
 30
0.0
 11
147.784177121643
 21
92.85517756424814
 31
0.0
210
-1.0
220
-0.0000000000000002
230
0.0
  0
LINE
  5
21A
330
20D
100
AcDbEntity
  8
MD_可視
100
AcDbLine
 10
147.784177121643
 20
92.85517756424814
 30
0.0
 11
147.2841771214489
 21
92.85517756424814
 31
0.0
210
-1.0
220
-0.0000000000000002
230
0.0
  0
LINE
  5
21B
330
20D
100
AcDbEntity
  8
MD_可視
100
AcDbLine
 10
147.2841771214489
 20
92.85517756424814
 30
0.0
 11
147.2841771214489
 21
91.45517756424853
 31
0.0
210
-1.0
220
-0.0000000000000002
230
0.0
  0
LINE
  5
21C
330
20D
100
AcDbEntity
  8
MD_可視
100
AcDbLine
 10
145.5841771221817
 20
91.45517756424853
 30
0.0
 11
145.5841771221817
 21
92.85517756424814
 31
0.0
210
-1.0
220
-0.0000000000000002
230
0.0
  0
LINE
  5
21D
330
20D
100
AcDbEntity
  8
MD_可視
100
AcDbLine
 10
145.0841771219864
 20
92.85517756424814
 30
0.0
 11
145.0862613597912
 21
92.85517756424814
 31
0.0
210
-1.0
220
-0.0000000000000002
230
0.0
  0
LINE
  5
21E
330
20D
100
AcDbEntity
  8
MD_可視
100
AcDbLine
 10
145.5841771221817
 20
92.85517756424814
 30
0.0
 11
145.0862613597925
 21
92.85517756424814
 31
0.0
210
-1.0
220
-0.0000000000000002
230
0.0
  0
LINE
  5
21F
330
20D
100
AcDbEntity
  8
MD_可視
100
AcDbLine
 10
145.0841771219876
 20
92.8551775642463
 30
0.0
 11
143.0871373230182
 21
90.85813776527905
 31
0.0
210
-1.0
220
-0.0000000000000002
230
0.0
  0
LINE
  5
220
330
20D
100
AcDbEntity
  8
MD_可視
100
AcDbLine
 10
137.6341771221817
 20
87.65517756424925
 30
0.0
 11
157.4318700053367
 21
87.65517756460212
 31
0.0
210
-1.0
220
-0.0000000000000002
230
0.0
  0
LINE
  5
221
330
20D
100
AcDbEntity
  8
MD_可視
100
AcDbLine
 10
157.4341771221817
 20
87.65517756424925
 30
0.0
 11
157.4318700050866
 21
87.65517756424925
 31
0.0
210
-1.0
220
-0.0000000000000002
230
0.0
  0
LINE
  5
222
330
20D
100
AcDbEntity
  8
MD_可視
100
AcDbLine
 10
150.9341771221817
 20
71.65517756424924
 30
0.0
 11
137.6341771221817
 21
71.65517756424924
 31
0.0
210
-1.0
220
-0.0000000000000002
230
0.0
  0
LINE
  5
223
330
20D
100
AcDbEntity
  8
MD_可視
100
AcDbLine
 10
137.6341771221817
 20
72.05517756424888
 30
0.0
 11
137.6341771221817
 21
71.65517756424924
 31
0.0
210
-1.0
220
-0.0000000000000002
230
0.0
  0
LINE
  5
224
330
20D
100
AcDbEntity
  8
MD_可視
100
AcDbLine
 10
137.6341771221817
 20
72.05517756424888
 30
0.0
 11
137.6341771221817
 21
87.25517756424777
 31
0.0
210
-1.0
220
-0.0000000000000002
230
0.0
  0
LINE
  5
225
330
20D
100
AcDbEntity
  8
MD_可視
100
AcDbLine
 10
137.6341771221817
 20
87.65517756424742
 30
0.0
 11
137.6341771221817
 21
87.25517756424777
 31
0.0
210
-1.0
220
-0.0000000000000002
230
0.0
  0
LINE
  5
226
330
20D
100
AcDbEntity
  8
MD_可視
100
AcDbLine
 10
151.2341771221817
 20
74.61670196573868
 30
0.0
 11
151.2341771221817
 21
71.95517756424852
 31
0.0
210
-1.0
220
-0.0000000000000002
230
0.0
  0
LINE
  5
227
330
20D
100
AcDbEntity
  8
MD_可視
100
AcDbLine
 10
154.8351825253471
 20
81.65517756424923
 30
0.0
 11
155.4006111765809
 21
81.65517756424923
 31
0.0
210
-1.0
220
-0.0000000000000002
230
0.0
  0
LINE
  5
228
330
20D
100
AcDbEntity
  8
MD_狭い可視
100
AcDbLine
 10
137.6341771221817
 20
72.05517756424888
 30
0.0
 11
150.9395953401378
 21
72.05517756424888
 31
0.0
210
-1.0
220
-0.0000000000000002
230
0.0
  0
ARC
  5
229
330
20D
100
AcDbEntity
  8
MD_可視
100
AcDbCircle
 10
165.7018884232263
 20
71.65517756424924
 30
0.0
 40
14.76771130104466
100
AcDbArc
 50
136.2752751594607
 51
178.4478898164673
  0
ARC
  5
22A
330
20D
100
AcDbEntity
  8
MD_可視
100
AcDbCircle
 10
148.764196115534
 20
87.85517756424814
 30
0.0
 40
8.669981006647681
100
AcDbArc
 50
316.2752751594596
 51
356.0317136464791
  0
LINE
  5
22B
330
20D
100
AcDbEntity
  8
MD_狭い可視
100
AcDbLine
 10
157.4133909136427
 20
87.25517756424777
 30
0.0
 11
137.6341771221817
 21
87.25517756424777
 31
0.0
210
-1.0
220
-0.0000000000000002
230
0.0
  0
LINE
  5
22C
330
20D
100
AcDbEntity
  8
MD_可視
100
AcDbLine
 10
151.2341771221817
 20
73.2551775642478
 30
0.0
 11
151.3341771221816
 21
73.2551775642478
 31
0.0
210
-1.0
220
-0.0000000000000002
230
0.0
  0
LINE
  5
22D
330
20D
100
AcDbEntity
  8
MD_可視
100
AcDbLine
 10
151.3341771221816
 20
74.15517756424924
 30
0.0
 11
151.2341771221817
 21
74.15517756424924
 31
0.0
210
-1.0
220
-0.0000000000000002
230
0.0
  0
SPLINE
  5
22E
330
20D
100
AcDbEntity
  8
MD_可視
100
AcDbSpline
210
0.0
220
0.0
230
1.0
 70
     8
 71
     3
 72
    14
 73
    10
 74
     0
 42
0.000000001
 43
0.0000000001
 40
0.1207034243617316
 40
0.1207034243617316
 40
0.1207034243617316
 40
0.1207034243617316
 40
0.1357694336663689
 40
0.1357694336663689
 40
0.1508354429710062
 40
0.1508354429710062
 40
0.1659245541309337
 40
0.1659245541309337
 40
0.1810136652908612
 40
0.1810136652908612
 40
0.1810136652908612
 40
0.1810136652908612
 10
157.4318700050866
 20
87.65517756424925
 30
0.0
 10
157.4318700050866
 20
87.65517756424925
 30
0.0
 10
157.431656657504
 20
87.6451417064127
 30
0.0
 10
157.430571586522
 20
87.60433198569444
 30
0.0
 10
157.4296749033431
 20
87.57355812646892
 30
0.0
 10
157.4270747570944
 20
87.50251675993784
 30
0.0
 10
157.4251924930016
 20
87.45749867560517
 30
0.0
 10
157.4201034368936
 20
87.35891634971633
 30
0.0
 10
157.4168716850881
 20
87.3053540147139
 30
0.0
 10
157.4133909136427
 20
87.25517756424777
 30
0.0
  0
ELLIPSE
  5
22F
330
20D
100
AcDbEntity
  8
MD_可視
100
AcDbEllipse
 10
150.9501341122988
 20
72.05488793647965
 30
0.0
 11
-0.0108200741596275
 21
-0.3999006199970242
 31
0.0
210
0.0
220
0.0
230
1.0
 40
0.0263537808967725
 41
-1.570807524343408
 42
-1.318086861173543
  0
LINE
  5
230
330
20D
100
AcDbEntity
  8
MD_可視
100
AcDbLine
 10
157.4341771221817
 20
87.65517756424925
 30
0.0
 11
157.4341771221817
 21
87.55517756424886
 31
0.0
210
-1.0
220
-0.0000000000000002
230
0.0
  0
LINE
  5
231
330
20D
100
AcDbEntity
  8
MD_可視
100
AcDbLine
 10
157.4341771221817
 20
87.55517756424886
 30
0.0
 11
157.7341771221816
 21
87.55517756424886
 31
0.0
210
-1.0
220
-0.0000000000000002
230
0.0
  0
LINE
  5
232
330
20D
100
AcDbEntity
  8
MD_可視
100
AcDbLine
 10
151.2341771221817
 20
71.95517756424852
 30
0.0
 11
150.9372246251237
 21
71.95517756424852
 31
0.0
210
-1.0
220
-0.0000000000000002
230
0.0
  0
LINE
  5
233
330
20D
100
AcDbEntity
  8
MD_可視
100
AcDbLine
 10
150.9372246251237
 20
71.95517756424852
 30
0.0
 11
150.9341771221817
 21
71.95517756424852
 31
0.0
210
-1.0
220
-0.0000000000000002
230
0.0
  0
LINE
  5
234
330
20D
100
AcDbEntity
  8
MD_可視
100
AcDbLine
 10
150.9341771221817
 20
71.65517756424924
 30
0.0
 11
150.9341771221817
 21
71.95517756424852
 31
0.0
210
-1.0
220
-0.0000000000000002
230
0.0
  0
LINE
  5
235
330
20D
100
AcDbEntity
  8
MD_可視
100
AcDbLine
 10
157.4341771221817
 20
87.85517756424814
 30
0.0
 11
157.4341771221817
 21
87.65517756424925
 31
0.0
210
-1.0
220
-0.0000000000000002
230
0.0
  0
ARC
  5
236
330
20D
100
AcDbEntity
  8
MD_可視
100
AcDbCircle
 10
-151.4341771221817
 20
88.65517756424925
 30
0.0000000000000098
 40
1.5
210
0.0
220
0.0000000000000001
230
-1.0
100
AcDbArc
 50
90.0
 51
180.0
  0
LINE
  5
237
330
20D
100
AcDbEntity
  8
MD_可視
100
AcDbLine
 10
152.9341771221817
 20
88.65517756424925
 30
0.0
 11
152.9341771221817
 21
87.65517756424925
 31
0.0
210
-1.0
220
-0.0000000000000002
230
0.0
  0
ARC
  5
238
330
20D
100
AcDbEntity
  8
MD_可視
100
AcDbCircle
 10
153.6441903148168
 20
87.66017756424842
 30
0.0
 40
3.794999999999998
100
AcDbArc
 50
2.945348960732656
 51
89.99999999999673
  0
SPLINE
  5
239
330
20D
100
AcDbEntity
  8
MD_可視
100
AcDbSpline
210
0.0
220
0.0
230
1.0
 70
     8
 71
     3
 72
    14
 73
    10
 74
     0
 42
0.000000001
 43
0.0000000001
 40
0.0
 40
0.0
 40
0.0
 40
0.0
 40
0.0065821656484606
 40
0.0065821656484606
 40
0.0131643312969211
 40
0.0131643312969211
 40
0.0263286625938422
 40
0.0263286625938422
 40
0.029392951525378
 40
0.029392951525378
 40
0.029392951525378
 40
0.029392951525378
 10
142.9846246964335
 20
90.6106503918636
 30
0.0
 10
142.9846246964335
 20
90.63259094402566
 30
0.0
 10
142.9867218129976
 20
90.65476328046498
 30
0.0
 10
142.9949736461225
 20
90.69795131571844
 30
0.0
 10
143.0011290913444
 20
90.71896694254428
 30
0.0
 10
143.0244670550479
 20
90.77830900507251
 30
0.0
 10
143.0467528388505
 20
90.81290818956768
 30
0.0
 10
143.0756267423409
 20
90.84621212131059
 30
0.0
 10
143.0812897596497
 20
90.85228318058762
 30
0.0
 10
143.0871373230182
 20
90.85813776527905
 30
0.0
  0
LINE
  5
23A
330
20D
100
AcDbEntity
  8
MD_可視
100
AcDbLine
 10
145.0862613597925
 20
90.16837068312634
 30
0.0
 11
145.3380010644547
 21
90.15517756424923
 31
0.0
210
-1.0
220
-0.0000000000000002
230
0.0
  0
LINE
  5
23B
330
20D
100
AcDbEntity
  8
MD_可視
100
AcDbLine
 10
143.3163071117485
 20
90.26113005470142
 30
0.0
 11
145.0862613597925
 21
90.16837068312815
 31
0.0
210
-1.0
220
-0.0000000000000002
230
0.0
  0
LINE
  5
23C
330
20D
100
AcDbEntity
  8
MD_可視
100
AcDbLine
 10
145.3380010644547
 20
90.15517756424923
 30
0.0
 11
151.4341771221817
 21
90.15517756424923
 31
0.0
210
-1.0
220
-0.0000000000000002
230
0.0
  0
LINE
  5
23D
330
20D
100
AcDbEntity
  8
MD_可視
100
AcDbLine
 10
145.0862613597925
 20
92.85517756424814
 30
0.0
 11
145.0862613597925
 21
90.16837068312634
 31
0.0
210
-1.0
220
-0.0000000000000002
230
0.0
  0
LINE
  5
23E
330
20D
100
AcDbEntity
  8
MD_可視
100
AcDbLine
 10
167.5341771221817
 20
87.25517756424777
 30
0.0
 11
167.5341771221817
 21
72.05517756424888
 31
0.0
210
-1.0
220
-0.0000000000000002
230
0.0
  0
LINE
  5
23F
330
20D
100
AcDbEntity
  8
MD_狭い可視
100
AcDbLine
 10
157.8144072722194
 20
87.25517756424777
 30
0.0
 11
167.5341771221817
 21
87.25517756424777
 31
0.0
210
-1.0
220
-0.0000000000000002
230
0.0
  0
ARC
  5
240
330
20D
100
AcDbEntity
  8
MD_可視
100
AcDbCircle
 10
-148.7195190025236
 20
87.85517756424814
 30
0.0000000000000098
 40
9.114658119658127
210
0.0
220
0.0000000000000001
230
-1.0
100
AcDbArc
 50
183.7743976731795
 51
223.724724840537
  0
ARC
  5
241
330
20D
100
AcDbEntity
  8
MD_可視
100
AcDbCircle
 10
-165.6572113102159
 20
71.65517756424924
 30
0.000000000000008
 40
14.32303418803421
210
0.0
220
0.0000000000000001
230
-1.0
100
AcDbArc
 50
1.600309796394874
 51
43.72472484053814
  0
LINE
  5
242
330
20D
100
AcDbEntity
  8
MD_狭い可視
100
AcDbLine
 10
151.3397636203657
 20
72.05517756424888
 30
0.0
 11
167.5341771221817
 21
72.05517756424888
 31
0.0
210
-1.0
220
-0.0000000000000002
230
0.0
  0
LINE
  5
243
330
20D
100
AcDbEntity
  8
MD_可視
100
AcDbLine
 10
167.5341771221817
 20
87.65517756424742
 30
0.0
 11
167.5341771221817
 21
87.25517756424777
 31
0.0
210
-1.0
220
-0.0000000000000002
230
0.0
  0
LINE
  5
244
330
20D
100
AcDbEntity
  8
MD_可視
100
AcDbLine
 10
167.5341771221817
 20
71.65517756424924
 30
0.0
 11
167.5341771221817
 21
72.05517756424888
 31
0.0
210
-1.0
220
-0.0000000000000002
230
0.0
  0
LINE
  5
245
330
20D
100
AcDbEntity
  8
MD_可視
100
AcDbLine
 10
151.3341771221816
 20
71.65517756424924
 30
0.0
 11
151.3341771221816
 21
75.06899786426949
 31
0.0
210
-1.0
220
-0.0000000000000002
230
0.0
  0
LINE
  5
246
330
20D
100
AcDbEntity
  8
MD_可視
100
AcDbLine
 10
167.5341771221817
 20
71.65517756424924
 30
0.0
 11
151.3341771221816
 21
71.65517756424924
 31
0.0
210
-1.0
220
-0.0000000000000002
230
0.0
  0
LINE
  5
247
330
20D
100
AcDbEntity
  8
MD_可視
100
AcDbLine
 10
155.3063993444039
 20
81.55517756424888
 30
0.0
 11
154.7440009867264
 21
81.55517756424888
 31
0.0
210
-1.0
220
-0.0000000000000002
230
0.0
  0
SPLINE
  5
248
330
20D
100
AcDbEntity
  8
MD_可視
100
AcDbSpline
210
0.0
220
0.0
230
1.0
 70
     8
 71
     3
 72
    14
 73
    10
 74
     0
 42
0.000000001
 43
0.0000000001
 40
0.120570007454013
 40
0.120570007454013
 40
0.120570007454013
 40
0.120570007454013
 40
0.1356375538748845
 40
0.1356375538748845
 40
0.150705100295756
 40
0.150705100295756
 40
0.1657750306747279
 40
0.1657750306747279
 40
0.1808449610536997
 40
0.1808449610536997
 40
0.1808449610536997
 40
0.1808449610536997
 10
151.3341771221816
 20
71.65517756424924
 30
0.0
 10
151.3341771221816
 20
71.65517756424924
 30
0.0
 10
151.3341660962056
 20
71.66521514005943
 30
0.0
 10
151.3342528765202
 20
71.70603680282511
 30
0.0
 10
151.3343657813807
 20
71.7368208983371
 30
0.0
 10
151.334946829608
 20
71.80785442415981
 30
0.0
 10
151.3354562852066
 20
71.85283977404471
 30
0.0
 10
151.3371556989174
 20
71.95139477321209
 30
0.0
 10
151.3383607583575
 20
72.00496405570084
 30
0.0
 10
151.3397636203657
 20
72.05517756424888
 30
0.0
  0
SPLINE
  5
249
330
20D
100
AcDbEntity
  8
MD_可視
100
AcDbSpline
210
0.0
220
0.0
230
1.0
 70
     8
 71
     3
 72
    14
 73
    10
 74
     0
 42
0.000000001
 43
0.0000000001
 40
0.0
 40
0.0
 40
0.0
 40
0.0
 40
0.0150661484459911
 40
0.0150661484459911
 40
0.0301322968919822
 40
0.0301322968919822
 40
0.0452193430172253
 40
0.0452193430172253
 40
0.0603063891424683
 40
0.0603063891424683
 40
0.0603063891424683
 40
0.0603063891424683
 10
157.8319825902835
 20
87.65517756424925
 30
0.0
 10
157.8319825902835
 20
87.65517756424925
 30
0.0
 10
157.8317796528781
 20
87.64514155393042
 30
0.0
 10
157.8307475225173
 20
87.60433071396255
 30
0.0
 10
157.829894588864
 20
87.57355588757489
 30
0.0
 10
157.8274214628342
 20
87.50251573148853
 30
0.0
 10
157.8256313239851
 20
87.45750136623064
 30
0.0
 10
157.8207913499499
 20
87.35892195717861
 30
0.0
 10
157.8177177740346
 20
87.30535863779186
 30
0.0
 10
157.8144072722194
 20
87.25517756424777
 30
0.0
  0
LINE
  5
24A
330
20D
100
AcDbEntity
  8
MD_可視
100
AcDbLine
 10
157.8341771221817
 20
87.65517756424925
 30
0.0
 11
157.8319825902835
 21
87.65517756424925
 31
0.0
210
-1.0
220
-0.0000000000000002
230
0.0
  0
LINE
  5
24B
330
20D
100
AcDbEntity
  8
MD_可視
100
AcDbLine
 10
157.8341771221817
 20
87.65517756424925
 30
0.0
 11
167.5341771221817
 21
87.65517756424925
 31
0.0
210
-1.0
220
-0.0000000000000002
230
0.0
  0
ENDBLK
  5
24C
330
20D
100
AcDbEntity
  8
0
100
AcDbBlockEnd
  0
ENDSEC
  0
SECTION
  2
ENTITIES
  0
INSERT
  5
7F
330
70
100
AcDbEntity
  8
MD_可視
100
AcDbBlockReference
  2
CustomObjectsInViewport4_0
 10
0.0
 20
0.0
 30
0.0
  0
INSERT
  5
1B5
330
70
100
AcDbEntity
  8
MD_可視
100
AcDbBlockReference
  2
CustomObjectsInViewport6_0
 10
0.0
 20
0.0
 30
0.0
  0
INSERT
  5
20B
330
70
100
AcDbEntity
  8
MD_可視
100
AcDbBlockReference
  2
CustomObjectsInViewport8_0
 10
0.0
 20
0.0
 30
0.0
  0
ENDSEC
  0
SECTION
  2
OBJECTS
  0
DICTIONARY
  5
C
330
0
100
AcDbDictionary
281
     1
  3
ACAD_CIP_PREVIOUS_PRODUCT_INFO
350
25C
  3
ACAD_COLOR
350
63
  3
ACAD_DETAILVIEWSTYLE
350
6A
  3
ACAD_GROUP
350
D
  3
ACAD_LAST_SAVED_VERSION_INFO
350
25E
  3
ACAD_LAYOUT
350
62
  3
ACAD_MATERIAL
350
10
  3
ACAD_MLEADERSTYLE
350
66
  3
ACAD_MLINESTYLE
350
5F
  3
ACAD_PLOTSETTINGS
350
61
  3
ACAD_PLOTSTYLENAME
350
E
  3
ACAD_SCALELIST
350
42
  3
ACAD_SECTIONVIEWSTYLE
350
68
  3
ACAD_TABLESTYLE
350
64
  3
ACAD_VISUALSTYLE
350
29
  3
ACDB_RECOMPOSE_DATA
350
26A
  3
AcDbVariableDictionary
350
24E
  0
DICTIONARY
  5
7D
330
70
100
AcDbDictionary
280
     1
281
     1
  3
ACAD_SORTENTS
360
7E
  0
XRECORD
  5
25C
102
{ACAD_REACTORS
330
C
102
}
330
C
100
AcDbXrecord
280
     1
300
ACD
300
2024
300

  0
DICTIONARY
  5
63
102
{ACAD_REACTORS
330
C
102
}
330
C
100
AcDbDictionary
281
     1
  0
DICTIONARY
  5
6A
102
{ACAD_REACTORS
330
C
102
}
330
C
100
AcDbDictionary
281
     1
  3
Imperial24
350
6B
  3
Metric50
350
257
  0
DICTIONARY
  5
D
102
{ACAD_REACTORS
330
C
102
}
330
C
100
AcDbDictionary
281
     1
  0
XRECORD
  5
25E
102
{ACAD_REACTORS
330
C
102
}
330
C
100
AcDbXrecord
280
     1
300
{14C3E9FE-7C4B-DD43-A4E5-02E3CBB4B207}
301
{D72EA1C6-2516-914E-A575-26C11F06C466}
302
{14C3E9FE-7C4B-DD43-A4E5-02E3CBB4B207}
303
C:\Users\dsp199\Desktop\CAD HP UP\ジャック、JJ\NSJJC6BK-KEY.dxf
  0
DICTIONARY
  5
62
102
{ACAD_REACTORS
330
C
102
}
330
C
100
AcDbDictionary
281
     1
  3
Model
350
73
  3
レイアウト1
350
6F
  3
レイアウト2
350
77
  0
DICTIONARY
  5
10
102
{ACAD_REACTORS
330
C
102
}
330
C
100
AcDbDictionary
281
     1
  3
ByBlock
350
19
  3
ByLayer
350
11
  3
Global
350
21
  0
DICTIONARY
  5
66
102
{ACAD_REACTORS
330
C
102
}
330
C
100
AcDbDictionary
281
     1
  3
Standard
350
67
  0
DICTIONARY
  5
5F
102
{ACAD_REACTORS
330
C
102
}
330
C
100
AcDbDictionary
281
     1
  3
Standard
350
60
  0
DICTIONARY
  5
61
102
{ACAD_REACTORS
330
C
102
}
330
C
100
AcDbDictionary
281
     1
  0
ACDBDICTIONARYWDFLT
  5
E
102
{ACAD_REACTORS
330
C
102
}
330
C
100
AcDbDictionary
281
     1
  3
Normal
350
F
100
AcDbDictionaryWithDefault
340
F
  0
DICTIONARY
  5
42
102
{ACAD_REACTORS
330
C
102
}
330
C
100
AcDbDictionary
281
     1
  3
A0
350
43
  3
A1
350
44
  3
A2
350
45
  3
A3
350
46
  3
A4
350
47
  3
A5
350
48
  3
A6
350
49
  3
A7
350
4A
  3
A8
350
4B
  3
A9
350
4C
  3
B0
350
4D
  3
B1
350
4E
  3
B2
350
4F
  3
B3
350
50
  3
B4
350
51
  3
B5
350
52
  3
B6
350
53
  0
DICTIONARY
  5
68
102
{ACAD_REACTORS
330
C
102
}
330
C
100
AcDbDictionary
281
     1
  3
Imperial24
350
69
  3
Metric50
350
256
  0
DICTIONARY
  5
64
102
{ACAD_REACTORS
330
C
102
}
330
C
100
AcDbDictionary
281
     1
  3
Standard
350
65
  0
DICTIONARY
  5
29
102
{ACAD_REACTORS
330
C
102
}
330
C
100
AcDbDictionary
281
     1
  3
2dWireframe
350
2F
  3
Basic
350
2E
  3
Brighten
350
35
  3
ColorChange
350
39
  3
Conceptual
350
32
  3
Dim
350
34
  3
EdgeColorOff
350
41
  3
Facepattern
350
38
  3
Flat
350
2A
  3
FlatWithEdges
350
2B
  3
Gouraud
350
2C
  3
GouraudWithEdges
350
2D
  3
Hidden
350
31
  3
JitterOff
350
3F
  3
Linepattern
350
37
  3
OverhangOff
350
40
  3
Realistic
350
33
  3
Shaded
350
3E
  3
Shaded with edges
350
3D
  3
Shades of Gray
350
3A
  3
Sketchy
350
3B
  3
Thicken
350
36
  3
Wireframe
350
30
  3
X-Ray
350
3C
  0
XRECORD
  5
26A
102
{ACAD_REACTORS
330
C
102
}
330
C
100
AcDbXrecord
280
     1
 90
        1
330
65
  0
DICTIONARY
  5
24E
102
{ACAD_REACTORS
330
C
102
}
330
C
100
AcDbDictionary
281
     1
  3
ANNOALLVISIBLE
350
253
  3
CANNOSCALE
350
254
  3
CMLEADERSTYLE
350
250
  3
CTABLESTYLE
350
24F
  3
CVIEWDETAILSTYLE
350
251
  3
CVIEWSECTIONSTYLE
350
252
  0
SORTENTSTABLE
  5
7E
102
{ACAD_REACTORS
330
7D
102
}
330
7D
100
AcDbSortentsTable
330
70
  0
ACDBDETAILVIEWSTYLE
  5
6B
102
{ACAD_REACTORS
330
6A
102
}
330
6A
100
AcDbModelDocViewStyle
 70
     0
  3
Imperial24
290
     0
300
Imperial24
 90
        0
100
AcDbDetailViewStyle
 70
     0
 71
     0
 90
        3
 71
     1
340
55
 62
   256
 40
0.24
340
0
 62
   256
 40
0.24
300

 40
0.36
280
     3
 71
     2
340
5D
 90
       25
 62
   256
 71
     3
340
55
 62
   256
 40
0.24
 90
        1
 40
0.75
 90
        1
300
%<\AcVar ViewType \f "%tc1">% %<\AcVar ViewDetailId>%\PSCALE %<\AcVar ViewScale \f "%sn">%
 71
     4
340
5D
 90
       25
 62
   256
340
5D
 90
       25
 62
   256
280
     0
  0
ACDBDETAILVIEWSTYLE
  5
257
102
{ACAD_REACTORS
330
6A
102
}
330
6A
100
AcDbModelDocViewStyle
 70
     0
  3
Metric50
290
     0
300
Metric50
 90
        0
100
AcDbDetailViewStyle
 70
     0
 71
     0
 90
        3
 71
     1
340
55
 62
   256
 40
5.0
340
0
 62
   256
 40
5.0
300

 40
0.0
280
     1
 71
     2
340
5D
 90
       25
 62
   256
 71
     3
340
55
 62
   256
 40
5.0
 90
        0
 40
15.0
 90
        1
300
%<\AcVar ViewDetailId>% (%<\AcVar ViewScale \f "%sn">%)
 71
     4
340
5D
 90
       25
 62
   256
340
5D
 90
       25
 62
   256
280
     0
  0
LAYOUT
  5
73
102
{ACAD_REACTORS
330
62
102
}
330
62
100
AcDbPlotSettings
  1

  2
none_device
  4
ISO_A4_(210.00_x_297.00_MM)
  6

 40
7.5
 41
20.0
 42
7.5
 43
20.0
 44
210.0
 45
297.0
 46
0.0
 47
0.0
 48
0.0
 49
0.0
140
0.0
141
0.0
142
1.0
143
2.03309023804074
 70
 11952
 72
     1
 73
     1
 74
     0
  7

 75
     0
147
0.4918620832903537
 76
     0
 77
     2
 78
   300
148
132.7520955882353
149
13.59
100
AcDbLayout
  1
Model
 70
     1
 71
     0
 10
0.0
 20
0.0
 11
12.0
 21
9.0
 12
0.0
 22
0.0
 32
0.0
 14
0.0
 24
0.0
 34
0.0
 15
0.0
 25
0.0
 35
0.0
146
0.0
 13
0.0
 23
0.0
 33
0.0
 16
1.0
 26
0.0
 36
0.0
 17
0.0
 27
1.0
 37
0.0
 76
     0
330
70
331
57
1001
ACAD_PSEXT
1000
なし
1000
なし
1000
適切ではありません
1000
新しいプロッタ環境設定名を選択しない限り、レイアウトは印刷されません。
1070
     0
  0
LAYOUT
  5
6F
102
{ACAD_REACTORS
330
62
102
}
330
62
100
AcDbPlotSettings
  1

  2
Microsoft Print to PDF
  4

  6

 40
0.0
 41
0.0
 42
0.0
 43
0.0
 44
0.0
 45
0.0
 46
0.0
 47
0.0
 48
0.0
 49
0.0
140
0.0
141
0.0
142
1.0
143
1.0
 70
   688
 72
     0
 73
     0
 74
     5
  7

 75
    16
147
1.0
 76
     0
 77
     2
 78
   300
148
0.0
149
0.0
100
AcDbLayout
  1
レイアウト1
 70
     1
 71
     1
 10
0.0
 20
0.0
 11
12.0
 21
9.0
 12
0.0
 22
0.0
 32
0.0
 14
1.000000000000000E+20
 24
1.000000000000000E+20
 34
1.000000000000000E+20
 15
-1.000000000000000E+20
 25
-1.000000000000000E+20
 35
-1.000000000000000E+20
146
0.0
 13
0.0
 23
0.0
 33
0.0
 16
1.0
 26
0.0
 36
0.0
 17
0.0
 27
1.0
 37
0.0
 76
     0
330
6C
  0
LAYOUT
  5
77
102
{ACAD_REACTORS
330
62
102
}
330
62
100
AcDbPlotSettings
  1

  2
Microsoft Print to PDF
  4

  6

 40
0.0
 41
0.0
 42
0.0
 43
0.0
 44
0.0
 45
0.0
 46
0.0
 47
0.0
 48
0.0
 49
0.0
140
0.0
141
0.0
142
1.0
143
1.0
 70
   688
 72
     0
 73
     0
 74
     5
  7

 75
    16
147
1.0
 76
     0
 77
     2
 78
   300
148
0.0
149
0.0
100
AcDbLayout
  1
レイアウト2
 70
     1
 71
     2
 10
0.0
 20
0.0
 11
12.0
 21
9.0
 12
0.0
 22
0.0
 32
0.0
 14
0.0
 24
0.0
 34
0.0
 15
0.0
 25
0.0
 35
0.0
146
0.0
 13
0.0
 23
0.0
 33
0.0
 16
1.0
 26
0.0
 36
0.0
 17
0.0
 27
1.0
 37
0.0
 76
     0
330
74
  0
MATERIAL
  5
19
102
{ACAD_XDICTIONARY
360
1A
102
}
102
{ACAD_REACTORS
330
10
102
}
330
10
100
AcDbMaterial
  1
ByBlock
 72
     0
 43
0.0208333333333333
 43
0.0
 43
0.0
 43
0.0
 43
0.0
 43
0.0208333333333333
 43
0.0
 43
0.0
 43
0.0
 43
0.0
 43
1.0
 43
0.0
 43
0.0
 43
0.0
 43
0.0
 43
1.0
 77
     0
 47
0.0208333333333333
 47
0.0
 47
0.0
 47
0.0
 47
0.0
 47
0.0208333333333333
 47
0.0
 47
0.0
 47
0.0
 47
0.0
 47
1.0
 47
0.0
 47
0.0
 47
0.0
 47
0.0
 47
1.0
171
     0
 49
0.0208333333333333
 49
0.0
 49
0.0
 49
0.0
 49
0.0
 49
0.0208333333333333
 49
0.0
 49
0.0
 49
0.0
 49
0.0
 49
1.0
 49
0.0
 49
0.0
 49
0.0
 49
0.0
 49
1.0
175
     0
142
0.0208333333333333
142
0.0
142
0.0
142
0.0
142
0.0
142
0.0208333333333333
142
0.0
142
0.0
142
0.0
142
0.0
142
1.0
142
0.0
142
0.0
142
0.0
142
0.0
142
1.0
179
     0
144
0.0208333333333333
144
0.0
144
0.0
144
0.0
144
0.0
144
0.0208333333333333
144
0.0
144
0.0
144
0.0
144
0.0
144
1.0
144
0.0
144
0.0
144
0.0
144
0.0
144
1.0
147
0.0208333333333333
147
0.0
147
0.0
147
0.0
147
0.0
147
0.0208333333333333
147
0.0
147
0.0
147
0.0
147
0.0
147
1.0
147
0.0
147
0.0
147
0.0
147
0.0
147
1.0
  0
MATERIAL
  5
11
102
{ACAD_XDICTIONARY
360
12
102
}
102
{ACAD_REACTORS
330
10
102
}
330
10
100
AcDbMaterial
  1
ByLayer
 72
     0
 43
0.0208333333333333
 43
0.0
 43
0.0
 43
0.0
 43
0.0
 43
0.0208333333333333
 43
0.0
 43
0.0
 43
0.0
 43
0.0
 43
1.0
 43
0.0
 43
0.0
 43
0.0
 43
0.0
 43
1.0
 77
     0
 47
0.0208333333333333
 47
0.0
 47
0.0
 47
0.0
 47
0.0
 47
0.0208333333333333
 47
0.0
 47
0.0
 47
0.0
 47
0.0
 47
1.0
 47
0.0
 47
0.0
 47
0.0
 47
0.0
 47
1.0
171
     0
 49
0.0208333333333333
 49
0.0
 49
0.0
 49
0.0
 49
0.0
 49
0.0208333333333333
 49
0.0
 49
0.0
 49
0.0
 49
0.0
 49
1.0
 49
0.0
 49
0.0
 49
0.0
 49
0.0
 49
1.0
175
     0
142
0.0208333333333333
142
0.0
142
0.0
142
0.0
142
0.0
142
0.0208333333333333
142
0.0
142
0.0
142
0.0
142
0.0
142
1.0
142
0.0
142
0.0
142
0.0
142
0.0
142
1.0
179
     0
144
0.0208333333333333
144
0.0
144
0.0
144
0.0
144
0.0
144
0.0208333333333333
144
0.0
144
0.0
144
0.0
144
0.0
144
1.0
144
0.0
144
0.0
144
0.0
144
0.0
144
1.0
147
0.0208333333333333
147
0.0
147
0.0
147
0.0
147
0.0
147
0.0208333333333333
147
0.0
147
0.0
147
0.0
147
0.0
147
1.0
147
0.0
147
0.0
147
0.0
147
0.0
147
1.0
  0
MATERIAL
  5
21
102
{ACAD_XDICTIONARY
360
22
102
}
102
{ACAD_REACTORS
330
10
102
}
330
10
100
AcDbMaterial
  1
Global
 72
     0
 43
0.0208333333333333
 43
0.0
 43
0.0
 43
0.0
 43
0.0
 43
0.0208333333333333
 43
0.0
 43
0.0
 43
0.0
 43
0.0
 43
1.0
 43
0.0
 43
0.0
 43
0.0
 43
0.0
 43
1.0
 77
     0
 47
0.0208333333333333
 47
0.0
 47
0.0
 47
0.0
 47
0.0
 47
0.0208333333333333
 47
0.0
 47
0.0
 47
0.0
 47
0.0
 47
1.0
 47
0.0
 47
0.0
 47
0.0
 47
0.0
 47
1.0
171
     0
 49
0.0208333333333333
 49
0.0
 49
0.0
 49
0.0
 49
0.0
 49
0.0208333333333333
 49
0.0
 49
0.0
 49
0.0
 49
0.0
 49
1.0
 49
0.0
 49
0.0
 49
0.0
 49
0.0
 49
1.0
175
     0
142
0.0208333333333333
142
0.0
142
0.0
142
0.0
142
0.0
142
0.0208333333333333
142
0.0
142
0.0
142
0.0
142
0.0
142
1.0
142
0.0
142
0.0
142
0.0
142
0.0
142
1.0
179
     0
144
0.0208333333333333
144
0.0
144
0.0
144
0.0
144
0.0
144
0.0208333333333333
144
0.0
144
0.0
144
0.0
144
0.0
144
1.0
144
0.0
144
0.0
144
0.0
144
0.0
144
1.0
147
0.0208333333333333
147
0.0
147
0.0
147
0.0
147
0.0
147
0.0208333333333333
147
0.0
147
0.0
147
0.0
147
0.0
147
1.0
147
0.0
147
0.0
147
0.0
147
0.0
147
1.0
  0
MLEADERSTYLE
  5
67
102
{ACAD_REACTORS
330
66
102
}
330
66
100
AcDbMLeaderStyle
179
     2
170
     2
171
     1
172
     0
 90
        2
 40
0.0
 41
0.0
173
     1
 91
-1056964608
340
5B
 92
       -2
290
     1
 42
0.09
291
     1
 43
0.36
  3
Standard
 44
0.18
300

342
55
174
     1
178
     6
175
     1
176
     0
 93
-1056964608
 45
0.18
292
     0
297
     0
 46
0.18
 94
-1056964608
 47
1.0
 49
1.0
140
1.0
293
     1
141
0.0
294
     1
177
     0
142
1.0
295
     0
296
     0
143
0.125
271
     0
272
     9
273
     9
298
     1
  0
MLINESTYLE
  5
60
102
{ACAD_REACTORS
330
5F
102
}
330
5F
100
AcDbMlineStyle
  2
STANDARD
 70
     0
  3

 62
   256
 51
90.0
 52
90.0
 71
     2
 49
0.5
 62
   256
  6
BYLAYER
 49
-0.5
 62
   256
  6
BYLAYER
  0
ACDBPLACEHOLDER
  5
F
102
{ACAD_REACTORS
330
E
102
}
330
E
  0
SCALE
  5
43
102
{ACAD_REACTORS
330
42
102
}
330
42
100
AcDbScale
 70
     0
300
1:1
140
1.0
141
1.0
290
     1
  0
SCALE
  5
44
102
{ACAD_REACTORS
330
42
102
}
330
42
100
AcDbScale
 70
     0
300
1:2
140
1.0
141
2.0
290
     0
  0
SCALE
  5
45
102
{ACAD_REACTORS
330
42
102
}
330
42
100
AcDbScale
 70
     0
300
1:4
140
1.0
141
4.0
290
     0
  0
SCALE
  5
46
102
{ACAD_REACTORS
330
42
102
}
330
42
100
AcDbScale
 70
     0
300
1:5
140
1.0
141
5.0
290
     0
  0
SCALE
  5
47
102
{ACAD_REACTORS
330
42
102
}
330
42
100
AcDbScale
 70
     0
300
1:8
140
1.0
141
8.0
290
     0
  0
SCALE
  5
48
102
{ACAD_REACTORS
330
42
102
}
330
42
100
AcDbScale
 70
     0
300
1:10
140
1.0
141
10.0
290
     0
  0
SCALE
  5
49
102
{ACAD_REACTORS
330
42
102
}
330
42
100
AcDbScale
 70
     0
300
1:16
140
1.0
141
16.0
290
     0
  0
SCALE
  5
4A
102
{ACAD_REACTORS
330
42
102
}
330
42
100
AcDbScale
 70
     0
300
1:20
140
1.0
141
20.0
290
     0
  0
SCALE
  5
4B
102
{ACAD_REACTORS
330
42
102
}
330
42
100
AcDbScale
 70
     0
300
1:30
140
1.0
141
30.0
290
     0
  0
SCALE
  5
4C
102
{ACAD_REACTORS
330
42
102
}
330
42
100
AcDbScale
 70
     0
300
1:40
140
1.0
141
40.0
290
     0
  0
SCALE
  5
4D
102
{ACAD_REACTORS
330
42
102
}
330
42
100
AcDbScale
 70
     0
300
1:50
140
1.0
141
50.0
290
     0
  0
SCALE
  5
4E
102
{ACAD_REACTORS
330
42
102
}
330
42
100
AcDbScale
 70
     0
300
1:100
140
1.0
141
100.0
290
     0
  0
SCALE
  5
4F
102
{ACAD_REACTORS
330
42
102
}
330
42
100
AcDbScale
 70
     0
300
2:1
140
2.0
141
1.0
290
     0
  0
SCALE
  5
50
102
{ACAD_REACTORS
330
42
102
}
330
42
100
AcDbScale
 70
     0
300
4:1
140
4.0
141
1.0
290
     0
  0
SCALE
  5
51
102
{ACAD_REACTORS
330
42
102
}
330
42
100
AcDbScale
 70
     0
300
8:1
140
8.0
141
1.0
290
     0
  0
SCALE
  5
52
102
{ACAD_REACTORS
330
42
102
}
330
42
100
AcDbScale
 70
     0
300
10:1
140
10.0
141
1.0
290
     0
  0
SCALE
  5
53
102
{ACAD_REACTORS
330
42
102
}
330
42
100
AcDbScale
 70
     0
300
100:1
140
100.0
141
1.0
290
     0
  0
ACDBSECTIONVIEWSTYLE
  5
69
102
{ACAD_REACTORS
330
68
102
}
330
68
100
AcDbModelDocViewStyle
 70
     0
  3
Imperial24
290
     0
300
Imperial24
 90
        0
100
AcDbSectionViewStyle
 70
     0
 71
     0
 90
       78
 71
     1
340
55
 62
   256
 40
0.24
340
0
340
0
 62
   256
 40
0.24
300
I, O, Q, S, X, Z
 40
0.48
 90
        3
 40
0.18
 90
        1
 71
     2
340
5D
 90
       25
 62
   256
340
5D
 90
       50
 62
   256
 40
0.24
 40
0.0
 40
0.24
 71
     3
340
55
 62
   256
 40
0.24
 90
        1
 40
0.75
 90
        1
300
%<\AcVar ViewType \f "%tc1">% %<\AcVar ViewSectionStartId>%-%<\AcVar ViewSectionEndId>%\PSCALE %<\AcVar ViewScale \f "%sn">%
 71
     4
 62
   256
 62
   257
300
ANSI31
 40
1.0
 90
        0
290
     0
290
     0
 90
        6
 40
0.0
 40
1.570796326794896
 40
0.2617993877991494
 40
1.308996938995747
 40
-0.2617993877991494
 40
1.832595714594045
  0
ACDBSECTIONVIEWSTYLE
  5
256
102
{ACAD_REACTORS
330
68
102
}
330
68
100
AcDbModelDocViewStyle
 70
     0
  3
Metric50
290
     0
300
Metric50
 90
        0
100
AcDbSectionViewStyle
 70
     0
 71
     0
 90
      102
 71
     1
340
55
 62
   256
 40
5.0
340
0
340
0
 62
   256
 40
5.0
300
I, O, Q, S, X, Z
 40
10.0
 90
        0
 40
2.5
 90
        0
 71
     2
340
5D
 90
       25
 62
   256
340
5D
 90
       50
 62
   256
 40
5.0
 40
2.5
 40
5.0
 71
     3
340
55
 62
   256
 40
5.0
 90
        0
 40
15.0
 90
        1
300
%<\AcVar ViewSectionStartId>%-%<\AcVar ViewSectionEndId>% (%<\AcVar ViewScale \f "%sn">%)
 71
     4
 62
   256
 62
   257
300
ANSI31
 40
1.0
 90
        0
290
     0
290
     0
 90
        6
 40
0.0
 40
1.570796326794896
 40
0.2617993877991494
 40
1.308996938995747
 40
-0.2617993877991494
 40
1.832595714594045
  0
TABLESTYLE
  5
65
102
{ACAD_XDICTIONARY
360
260
102
}
102
{ACAD_REACTORS
330
64
102
}
330
64
100
AcDbTableStyle
280
     0
  3
Standard
 70
     0
 71
     3
 40
1.5
 41
1.5
280
     0
281
     0
  7
Standard
140
4.5
170
     2
 62
     0
 63
     7
283
     0
 90
      512
 91
        0
  1

274
    -2
284
     1
 64
     0
275
    -2
285
     1
 65
     0
276
    -2
286
     1
 66
     0
277
    -2
287
     1
 67
     0
278
    -2
288
     1
 68
     0
279
    -2
289
     1
 69
     0
  7
Standard
140
6.0
170
     5
 62
     0
 63
     7
283
     0
 90
      512
 91
        0
  1

274
    -2
284
     1
 64
     0
275
    -2
285
     1
 65
     0
276
    -2
286
     1
 66
     0
277
    -2
287
     1
 67
     0
278
    -2
288
     1
 68
     0
279
    -2
289
     1
 69
     0
  7
Standard
140
4.5
170
     5
 62
     0
 63
     7
283
     0
 90
      512
 91
        0
  1

274
    -2
284
     1
 64
     0
275
    -2
285
     1
 65
     0
276
    -2
286
     1
 66
     0
277
    -2
287
     1
 67
     0
278
    -2
288
     1
 68
     0
279
    -2
289
     1
 69
     0
  0
VISUALSTYLE
  5
2F
102
{ACAD_REACTORS
330
29
102
}
330
29
100
AcDbVisualStyle
  2
2dWireframe
 70
     4
177
     3
291
     0
 70
    58
 90
        0
176
     1
 90
        2
176
     1
 90
        0
176
     1
 90
        0
176
     1
 40
0.6
176
     1
 40
30.0
176
     1
 62
     7
420
 16777215
176
     1
 90
        1
176
     1
 90
        4
176
     1
 62
     7
176
     1
 62
   257
176
     1
 90
        1
176
     1
 90
        1
176
     1
 40
1.0
176
     1
 90
        0
176
     1
 62
   257
176
     1
 40
1.0
176
     1
 90
        1
176
     1
 90
        6
176
     1
 90
        2
176
     1
 62
     7
176
     1
 90
        5
176
     1
 90
        0
176
     1
 90
        0
176
     1
290
     0
176
     1
 90
        1
176
     1
 40
0.0
176
     1
 90
        0
176
     1
290
     1
176
     1
290
     1
176
     1
290
     0
176
     1
290
     0
176
     1
290
     0
176
     1
290
     0
176
     1
290
     0
176
     1
290
     0
176
     1
290
     0
176
     1
 90
       50
176
     1
 40
0.0
176
     1
 40
1.0
176
     1
 90
        0
176
     1
 62
    18
176
     1
 90
       50
176
     1
 90
        3
176
     1
 62
     5
420
      255
176
     1
290
     0
176
     1
 90
       50
176
     1
 90
       50
176
     1
 90
       50
176
     1
290
     0
176
     1
 90
       50
176
     1
 62
   256
176
     0
 40
1.0
176
     0
 90
        2
176
     1
  1
strokes_ogs.tif
176
     1
290
     0
176
     1
 40
1.0
176
     1
 40
1.0
176
     1
  0
VISUALSTYLE
  5
2E
102
{ACAD_REACTORS
330
29
102
}
330
29
100
AcDbVisualStyle
  2
Basic
 70
     7
177
     3
291
     1
 70
    58
 90
        1
176
     1
 90
        0
176
     1
 90
        1
176
     1
 90
        0
176
     1
 40
0.6
176
     1
 40
30.0
176
     1
 62
     7
420
 16777215
176
     1
 90
        0
176
     1
 90
        4
176
     1
 62
     7
176
     1
 62
   257
176
     1
 90
        1
176
     1
 90
        1
176
     1
 40
1.0
176
     1
 90
        8
176
     1
 62
     7
176
     1
 40
1.0
176
     1
 90
        1
176
     1
 90
        6
176
     1
 90
        2
176
     1
 62
     7
176
     1
 90
        5
176
     1
 90
        0
176
     1
 90
        0
176
     1
290
     0
176
     1
 90
        1
176
     1
 40
0.0
176
     1
 90
        0
176
     1
290
     0
176
     1
290
     1
176
     1
290
     1
176
     1
290
     0
176
     1
290
     0
176
     1
290
     0
176
     1
290
     0
176
     1
290
     0
176
     1
290
     0
176
     1
 90
       50
176
     1
 40
0.0
176
     1
 40
1.0
176
     1
 90
        0
176
     1
 62
    18
176
     1
 90
       50
176
     1
 90
        3
176
     1
 62
     5
420
      255
176
     1
290
     0
176
     1
 90
       50
176
     1
 90
       50
176
     1
 90
       50
176
     1
290
     0
176
     1
 90
       50
176
     1
 62
   256
176
     0
 40
1.0
176
     0
 90
        2
176
     1
  1
strokes_ogs.tif
176
     1
290
     0
176
     1
 40
1.0
176
     1
 40
1.0
176
     1
  0
VISUALSTYLE
  5
35
102
{ACAD_REACTORS
330
29
102
}
330
29
100
AcDbVisualStyle
  2
Brighten
 70
    12
177
     3
291
     1
 70
    58
 90
        2
176
     1
 90
        2
176
     1
 90
        0
176
     1
 90
        0
176
     1
 40
0.6
176
     1
 40
30.0
176
     1
 62
     7
420
 16777215
176
     1
 90
        1
176
     1
 90
        4
176
     1
 62
     7
176
     1
 62
   257
176
     1
 90
        1
176
     1
 90
        1
176
     1
 40
1.0
176
     1
 90
        8
176
     1
 62
     7
176
     1
 40
1.0
176
     1
 90
        1
176
     1
 90
        6
176
     1
 90
        2
176
     1
 62
     7
176
     1
 90
        5
176
     1
 90
        0
176
     1
 90
        0
176
     1
290
     0
176
     1
 90
        1
176
     1
 40
50.0
176
     1
 90
        0
176
     1
290
     0
176
     1
290
     1
176
     1
290
     1
176
     1
290
     0
176
     1
290
     0
176
     1
290
     0
176
     1
290
     0
176
     1
290
     0
176
     1
290
     0
176
     1
 90
       50
176
     1
 40
0.0
176
     1
 40
1.0
176
     1
 90
        0
176
     1
 62
    18
176
     1
 90
       50
176
     1
 90
        3
176
     1
 62
     5
420
      255
176
     1
290
     0
176
     1
 90
       50
176
     1
 90
       50
176
     1
 90
       50
176
     1
290
     0
176
     1
 90
       50
176
     1
 62
   256
176
     0
 40
1.0
176
     0
 90
        2
176
     1
  1
strokes_ogs.tif
176
     1
290
     0
176
     1
 40
1.0
176
     1
 40
1.0
176
     1
  0
VISUALSTYLE
  5
39
102
{ACAD_REACTORS
330
29
102
}
330
29
100
AcDbVisualStyle
  2
ColorChange
 70
    16
177
     3
291
     1
 70
    58
 90
        2
176
     1
 90
        2
176
     1
 90
        3
176
     1
 90
        0
176
     1
 40
0.6
176
     1
 40
30.0
176
     1
 62
     8
420
  8421504
176
     1
 90
        1
176
     1
 90
        4
176
     1
 62
     7
176
     1
 62
   257
176
     1
 90
        1
176
     1
 90
        1
176
     1
 40
1.0
176
     1
 90
        8
176
     1
 62
     8
420
  8421504
176
     1
 40
1.0
176
     1
 90
        1
176
     1
 90
        6
176
     1
 90
        2
176
     1
 62
     7
176
     1
 90
        5
176
     1
 90
        0
176
     1
 90
        0
176
     1
290
     0
176
     1
 90
        1
176
     1
 40
0.0
176
     1
 90
        0
176
     1
290
     0
176
     1
290
     1
176
     1
290
     1
176
     1
290
     0
176
     1
290
     0
176
     1
290
     0
176
     1
290
     0
176
     1
290
     0
176
     1
290
     0
176
     1
 90
       50
176
     1
 40
0.0
176
     1
 40
1.0
176
     1
 90
        0
176
     1
 62
    18
176
     1
 90
       50
176
     1
 90
        3
176
     1
 62
     5
420
      255
176
     1
290
     0
176
     1
 90
       50
176
     1
 90
       50
176
     1
 90
       50
176
     1
290
     0
176
     1
 90
       50
176
     1
 62
   256
176
     0
 40
1.0
176
     0
 90
        2
176
     1
  1
strokes_ogs.tif
176
     1
290
     0
176
     1
 40
1.0
176
     1
 40
1.0
176
     1
  0
VISUALSTYLE
  5
32
102
{ACAD_REACTORS
330
29
102
}
330
29
100
AcDbVisualStyle
  2
Conceptual
 70
     9
177
     3
291
     0
 70
    58
 90
        3
176
     1
 90
        2
176
     1
 90
        0
176
     1
 90
        0
176
     1
 40
0.6
176
     1
 40
30.0
176
     1
 62
     7
420
 16777215
176
     1
 90
        2
176
     1
 90
        2
176
     1
 62
     7
176
     1
 62
   257
176
     1
 90
        1
176
     1
 90
        1
176
     1
 40
179.0
176
     1
 90
        8
176
     1
 62
     7
176
     1
 40
1.0
176
     1
 90
        1
176
     1
 90
        6
176
     1
 90
        2
176
     1
 62
     7
176
     1
 90
        3
176
     1
 90
        0
176
     1
 90
        0
176
     1
290
     0
176
     1
 90
        1
176
     1
 40
0.0
176
     1
 90
        0
176
     1
290
     0
176
     1
290
     1
176
     1
290
     1
176
     1
290
     0
176
     1
290
     0
176
     1
290
     0
176
     1
290
     0
176
     1
290
     0
176
     1
290
     0
176
     1
 90
       50
176
     1
 40
0.0
176
     1
 40
1.0
176
     1
 90
        0
176
     1
 62
    18
176
     1
 90
       50
176
     1
 90
        3
176
     1
 62
     5
420
      255
176
     1
290
     0
176
     1
 90
       50
176
     1
 90
       50
176
     1
 90
       50
176
     1
290
     0
176
     1
 90
       50
176
     1
 62
   256
176
     0
 40
1.0
176
     0
 90
        2
176
     1
  1
strokes_ogs.tif
176
     1
290
     0
176
     1
 40
1.0
176
     1
 40
1.0
176
     1
  0
VISUALSTYLE
  5
34
102
{ACAD_REACTORS
330
29
102
}
330
29
100
AcDbVisualStyle
  2
Dim
 70
    11
177
     3
291
     1
 70
    58
 90
        2
176
     1
 90
        2
176
     1
 90
        0
176
     1
 90
        0
176
     1
 40
0.6
176
     1
 40
30.0
176
     1
 62
     7
420
 16777215
176
     1
 90
        1
176
     1
 90
        4
176
     1
 62
     7
176
     1
 62
   257
176
     1
 90
        1
176
     1
 90
        1
176
     1
 40
1.0
176
     1
 90
        8
176
     1
 62
     7
176
     1
 40
1.0
176
     1
 90
        1
176
     1
 90
        6
176
     1
 90
        2
176
     1
 62
     7
176
     1
 90
        5
176
     1
 90
        0
176
     1
 90
        0
176
     1
290
     0
176
     1
 90
        1
176
     1
 40
-50.0
176
     1
 90
        0
176
     1
290
     0
176
     1
290
     1
176
     1
290
     1
176
     1
290
     0
176
     1
290
     0
176
     1
290
     0
176
     1
290
     0
176
     1
290
     0
176
     1
290
     0
176
     1
 90
       50
176
     1
 40
0.0
176
     1
 40
1.0
176
     1
 90
        0
176
     1
 62
    18
176
     1
 90
       50
176
     1
 90
        3
176
     1
 62
     5
420
      255
176
     1
290
     0
176
     1
 90
       50
176
     1
 90
       50
176
     1
 90
       50
176
     1
290
     0
176
     1
 90
       50
176
     1
 62
   256
176
     0
 40
1.0
176
     0
 90
        2
176
     1
  1
strokes_ogs.tif
176
     1
290
     0
176
     1
 40
1.0
176
     1
 40
1.0
176
     1
  0
VISUALSTYLE
  5
41
102
{ACAD_REACTORS
330
29
102
}
330
29
100
AcDbVisualStyle
  2
EdgeColorOff
 70
    22
177
     3
291
     1
 70
    58
 90
        2
176
     0
 90
        2
176
     0
 90
        0
176
     0
 90
        0
176
     0
 40
0.6
176
     0
 40
30.0
176
     0
 62
     7
420
 16777215
176
     0
 90
        1
176
     0
 90
        4
176
     0
 62
     7
176
     0
 62
   257
176
     0
 90
        1
176
     0
 90
        1
176
     0
 40
1.0
176
     0
 90
        8
176
     2
 62
     7
176
     0
 40
1.0
176
     0
 90
        1
176
     0
 90
        6
176
     0
 90
        2
176
     0
 62
     7
176
     0
 90
        5
176
     0
 90
        0
176
     0
 90
        0
176
     0
290
     0
176
     0
 90
        1
176
     0
 40
0.0
176
     0
 90
        0
176
     0
290
     0
176
     0
290
     1
176
     0
290
     1
176
     0
290
     0
176
     0
290
     0
176
     0
290
     0
176
     0
290
     0
176
     0
290
     0
176
     0
290
     0
176
     0
 90
       50
176
     0
 40
0.0
176
     0
 40
1.0
176
     0
 90
        0
176
     0
 62
    18
176
     0
 90
       50
176
     0
 90
        3
176
     0
 62
     5
420
      255
176
     0
290
     0
176
     0
 90
       50
176
     0
 90
       50
176
     0
 90
       50
176
     0
290
     0
176
     0
 90
       50
176
     0
 62
   256
176
     0
 40
1.0
176
     0
 90
        2
176
     0
  1
strokes_ogs.tif
176
     0
290
     0
176
     0
 40
1.0
176
     0
 40
1.0
176
     0
  0
VISUALSTYLE
  5
38
102
{ACAD_REACTORS
330
29
102
}
330
29
100
AcDbVisualStyle
  2
Facepattern
 70
    15
177
     3
291
     1
 70
    58
 90
        2
176
     1
 90
        2
176
     1
 90
        0
176
     1
 90
        0
176
     1
 40
0.6
176
     1
 40
30.0
176
     1
 62
     7
420
 16777215
176
     1
 90
        1
176
     1
 90
        4
176
     1
 62
     7
176
     1
 62
   257
176
     1
 90
        1
176
     1
 90
        1
176
     1
 40
1.0
176
     1
 90
        8
176
     1
 62
     7
176
     1
 40
1.0
176
     1
 90
        1
176
     1
 90
        6
176
     1
 90
        2
176
     1
 62
     7
176
     1
 90
        5
176
     1
 90
        0
176
     1
 90
        0
176
     1
290
     0
176
     1
 90
        1
176
     1
 40
0.0
176
     1
 90
        0
176
     1
290
     0
176
     1
290
     1
176
     1
290
     1
176
     1
290
     0
176
     1
290
     0
176
     1
290
     0
176
     1
290
     0
176
     1
290
     0
176
     1
290
     0
176
     1
 90
       50
176
     1
 40
0.0
176
     1
 40
1.0
176
     1
 90
        0
176
     1
 62
    18
176
     1
 90
       50
176
     1
 90
        3
176
     1
 62
     5
420
      255
176
     1
290
     0
176
     1
 90
       50
176
     1
 90
       50
176
     1
 90
       50
176
     1
290
     0
176
     1
 90
       50
176
     1
 62
   256
176
     0
 40
1.0
176
     0
 90
        2
176
     1
  1
strokes_ogs.tif
176
     1
290
     0
176
     1
 40
1.0
176
     1
 40
1.0
176
     1
  0
VISUALSTYLE
  5
2A
102
{ACAD_REACTORS
330
29
102
}
330
29
100
AcDbVisualStyle
  2
Flat
 70
     0
177
     3
291
     1
 70
    58
 90
        2
176
     1
 90
        1
176
     1
 90
        1
176
     1
 90
        2
176
     1
 40
0.6
176
     1
 40
30.0
176
     1
 62
     7
420
 16777215
176
     1
 90
        0
176
     1
 90
        0
176
     1
 62
     7
176
     1
 62
   257
176
     1
 90
        1
176
     1
 90
        1
176
     1
 40
1.0
176
     1
 90
        8
176
     1
 62
     7
176
     1
 40
1.0
176
     1
 90
        1
176
     1
 90
        6
176
     1
 90
        2
176
     1
 62
     7
176
     1
 90
        5
176
     1
 90
        0
176
     1
 90
        0
176
     1
290
     0
176
     1
 90
       13
176
     1
 40
0.0
176
     1
 90
        0
176
     1
290
     0
176
     1
290
     1
176
     1
290
     1
176
     1
290
     0
176
     1
290
     0
176
     1
290
     0
176
     1
290
     0
176
     1
290
     0
176
     1
290
     0
176
     1
 90
       50
176
     1
 40
0.0
176
     1
 40
1.0
176
     1
 90
        0
176
     1
 62
    18
176
     1
 90
       50
176
     1
 90
        3
176
     1
 62
     5
420
      255
176
     1
290
     0
176
     1
 90
       50
176
     1
 90
       50
176
     1
 90
       50
176
     1
290
     0
176
     1
 90
       50
176
     1
 62
   256
176
     0
 40
1.0
176
     0
 90
        2
176
     1
  1
strokes_ogs.tif
176
     1
290
     0
176
     1
 40
1.0
176
     1
 40
1.0
176
     1
  0
VISUALSTYLE
  5
2B
102
{ACAD_REACTORS
330
29
102
}
330
29
100
AcDbVisualStyle
  2
FlatWithEdges
 70
     1
177
     3
291
     1
 70
    58
 90
        2
176
     1
 90
        1
176
     1
 90
        1
176
     1
 90
        2
176
     1
 40
0.6
176
     1
 40
30.0
176
     1
 62
     7
420
 16777215
176
     1
 90
        1
176
     1
 90
        0
176
     1
 62
     7
176
     1
 62
   257
176
     1
 90
        1
176
     1
 90
        1
176
     1
 40
1.0
176
     1
 90
        0
176
     1
 62
   257
176
     1
 40
1.0
176
     1
 90
        1
176
     1
 90
        6
176
     1
 90
        2
176
     1
 62
     7
176
     1
 90
        5
176
     1
 90
        0
176
     1
 90
        0
176
     1
290
     0
176
     1
 90
       13
176
     1
 40
0.0
176
     1
 90
        0
176
     1
290
     0
176
     1
290
     1
176
     1
290
     1
176
     1
290
     0
176
     1
290
     0
176
     1
290
     0
176
     1
290
     0
176
     1
290
     0
176
     1
290
     0
176
     1
 90
       50
176
     1
 40
0.0
176
     1
 40
1.0
176
     1
 90
        0
176
     1
 62
    18
176
     1
 90
       50
176
     1
 90
        3
176
     1
 62
     5
420
      255
176
     1
290
     0
176
     1
 90
       50
176
     1
 90
       50
176
     1
 90
       50
176
     1
290
     0
176
     1
 90
       50
176
     1
 62
   256
176
     0
 40
1.0
176
     0
 90
        2
176
     1
  1
strokes_ogs.tif
176
     1
290
     0
176
     1
 40
1.0
176
     1
 40
1.0
176
     1
  0
VISUALSTYLE
  5
2C
102
{ACAD_REACTORS
330
29
102
}
330
29
100
AcDbVisualStyle
  2
Gouraud
 70
     2
177
     3
291
     1
 70
    58
 90
        2
176
     1
 90
        2
176
     1
 90
        1
176
     1
 90
        2
176
     1
 40
0.6
176
     1
 40
30.0
176
     1
 62
     7
420
 16777215
176
     1
 90
        0
176
     1
 90
        0
176
     1
 62
     7
176
     1
 62
   257
176
     1
 90
        1
176
     1
 90
        1
176
     1
 40
1.0
176
     1
 90
        0
176
     1
 62
     7
176
     1
 40
1.0
176
     1
 90
        1
176
     1
 90
        6
176
     1
 90
        2
176
     1
 62
     7
176
     1
 90
        5
176
     1
 90
        0
176
     1
 90
        0
176
     1
290
     0
176
     1
 90
       13
176
     1
 40
0.0
176
     1
 90
        0
176
     1
290
     0
176
     1
290
     1
176
     1
290
     1
176
     1
290
     0
176
     1
290
     0
176
     1
290
     0
176
     1
290
     0
176
     1
290
     0
176
     1
290
     0
176
     1
 90
       50
176
     1
 40
0.0
176
     1
 40
1.0
176
     1
 90
        0
176
     1
 62
    18
176
     1
 90
       50
176
     1
 90
        3
176
     1
 62
     5
420
      255
176
     1
290
     0
176
     1
 90
       50
176
     1
 90
       50
176
     1
 90
       50
176
     1
290
     0
176
     1
 90
       50
176
     1
 62
   256
176
     0
 40
1.0
176
     0
 90
        2
176
     1
  1
strokes_ogs.tif
176
     1
290
     0
176
     1
 40
1.0
176
     1
 40
1.0
176
     1
  0
VISUALSTYLE
  5
2D
102
{ACAD_REACTORS
330
29
102
}
330
29
100
AcDbVisualStyle
  2
GouraudWithEdges
 70
     3
177
     3
291
     1
 70
    58
 90
        2
176
     1
 90
        2
176
     1
 90
        1
176
     1
 90
        2
176
     1
 40
0.6
176
     1
 40
30.0
176
     1
 62
     7
420
 16777215
176
     1
 90
        1
176
     1
 90
        0
176
     1
 62
     7
176
     1
 62
   257
176
     1
 90
        1
176
     1
 90
        1
176
     1
 40
1.0
176
     1
 90
        0
176
     1
 62
   257
176
     1
 40
1.0
176
     1
 90
        1
176
     1
 90
        6
176
     1
 90
        2
176
     1
 62
     7
176
     1
 90
        5
176
     1
 90
        0
176
     1
 90
        0
176
     1
290
     0
176
     1
 90
       13
176
     1
 40
0.0
176
     1
 90
        0
176
     1
290
     0
176
     1
290
     1
176
     1
290
     1
176
     1
290
     0
176
     1
290
     0
176
     1
290
     0
176
     1
290
     0
176
     1
290
     0
176
     1
290
     0
176
     1
 90
       50
176
     1
 40
0.0
176
     1
 40
1.0
176
     1
 90
        0
176
     1
 62
    18
176
     1
 90
       50
176
     1
 90
        3
176
     1
 62
     5
420
      255
176
     1
290
     0
176
     1
 90
       50
176
     1
 90
       50
176
     1
 90
       50
176
     1
290
     0
176
     1
 90
       50
176
     1
 62
   256
176
     0
 40
1.0
176
     0
 90
        2
176
     1
  1
strokes_ogs.tif
176
     1
290
     0
176
     1
 40
1.0
176
     1
 40
1.0
176
     1
  0
VISUALSTYLE
  5
31
102
{ACAD_REACTORS
330
29
102
}
330
29
100
AcDbVisualStyle
  2
Hidden
 70
     6
177
     3
291
     0
 70
    58
 90
        1
176
     1
 90
        2
176
     1
 90
        2
176
     1
 90
        0
176
     1
 40
0.6
176
     1
 40
30.0
176
     1
 62
     7
420
 16777215
176
     1
 90
        2
176
     1
 90
        2
176
     1
 62
     7
176
     1
 62
   257
176
     1
 90
        2
176
     1
 90
        1
176
     1
 40
40.0
176
     1
 90
        0
176
     1
 62
   257
176
     1
 40
1.0
176
     1
 90
        1
176
     1
 90
        6
176
     1
 90
        2
176
     1
 62
     7
176
     1
 90
        3
176
     1
 90
        0
176
     1
 90
        0
176
     1
290
     0
176
     1
 90
        1
176
     1
 40
0.0
176
     1
 90
        0
176
     1
290
     0
176
     1
290
     1
176
     1
290
     1
176
     1
290
     0
176
     1
290
     0
176
     1
290
     0
176
     1
290
     0
176
     1
290
     0
176
     1
290
     0
176
     1
 90
       50
176
     1
 40
0.0
176
     1
 40
1.0
176
     1
 90
        0
176
     1
 62
    18
176
     1
 90
       50
176
     1
 90
        3
176
     1
 62
     5
420
      255
176
     1
290
     0
176
     1
 90
       50
176
     1
 90
       50
176
     1
 90
       50
176
     1
290
     0
176
     1
 90
       50
176
     1
 62
   256
176
     0
 40
1.0
176
     0
 90
        2
176
     1
  1
strokes_ogs.tif
176
     1
290
     0
176
     1
 40
1.0
176
     1
 40
1.0
176
     1
  0
VISUALSTYLE
  5
3F
102
{ACAD_REACTORS
330
29
102
}
330
29
100
AcDbVisualStyle
  2
JitterOff
 70
    20
177
     3
291
     1
 70
    58
 90
        2
176
     0
 90
        2
176
     0
 90
        0
176
     0
 90
        0
176
     0
 40
0.6
176
     0
 40
30.0
176
     0
 62
     7
420
 16777215
176
     0
 90
        1
176
     0
 90
        4
176
     0
 62
     7
176
     0
 62
   257
176
     0
 90
        1
176
     0
 90
        1
176
     0
 40
1.0
176
     0
 90
       10
176
     2
 62
     7
176
     0
 40
1.0
176
     0
 90
        1
176
     0
 90
        6
176
     0
 90
        2
176
     0
 62
     7
176
     0
 90
        5
176
     0
 90
        0
176
     0
 90
        0
176
     0
290
     0
176
     0
 90
        1
176
     0
 40
0.0
176
     0
 90
        0
176
     0
290
     0
176
     0
290
     1
176
     0
290
     1
176
     0
290
     0
176
     0
290
     0
176
     0
290
     0
176
     0
290
     0
176
     0
290
     0
176
     0
290
     0
176
     0
 90
       50
176
     0
 40
0.0
176
     0
 40
1.0
176
     0
 90
        0
176
     0
 62
    18
176
     0
 90
       50
176
     0
 90
        3
176
     0
 62
     5
420
      255
176
     0
290
     0
176
     0
 90
       50
176
     0
 90
       50
176
     0
 90
       50
176
     0
290
     0
176
     0
 90
       50
176
     0
 62
   256
176
     0
 40
1.0
176
     0
 90
        2
176
     0
  1
strokes_ogs.tif
176
     0
290
     0
176
     0
 40
1.0
176
     0
 40
1.0
176
     0
  0
VISUALSTYLE
  5
37
102
{ACAD_REACTORS
330
29
102
}
330
29
100
AcDbVisualStyle
  2
Linepattern
 70
    14
177
     3
291
     1
 70
    58
 90
        2
176
     1
 90
        2
176
     1
 90
        0
176
     1
 90
        0
176
     1
 40
0.6
176
     1
 40
30.0
176
     1
 62
     7
420
 16777215
176
     1
 90
        1
176
     1
 90
        4
176
     1
 62
     7
176
     1
 62
   257
176
     1
 90
        7
176
     1
 90
        7
176
     1
 40
1.0
176
     1
 90
        8
176
     1
 62
     7
176
     1
 40
1.0
176
     1
 90
        1
176
     1
 90
        6
176
     1
 90
        2
176
     1
 62
     7
176
     1
 90
        5
176
     1
 90
        0
176
     1
 90
        0
176
     1
290
     0
176
     1
 90
        1
176
     1
 40
0.0
176
     1
 90
        0
176
     1
290
     0
176
     1
290
     1
176
     1
290
     1
176
     1
290
     0
176
     1
290
     0
176
     1
290
     0
176
     1
290
     0
176
     1
290
     0
176
     1
290
     0
176
     1
 90
       50
176
     1
 40
0.0
176
     1
 40
1.0
176
     1
 90
        0
176
     1
 62
    18
176
     1
 90
       50
176
     1
 90
        3
176
     1
 62
     5
420
      255
176
     1
290
     0
176
     1
 90
       50
176
     1
 90
       50
176
     1
 90
       50
176
     1
290
     0
176
     1
 90
       50
176
     1
 62
   256
176
     0
 40
1.0
176
     0
 90
        2
176
     1
  1
strokes_ogs.tif
176
     1
290
     0
176
     1
 40
1.0
176
     1
 40
1.0
176
     1
  0
VISUALSTYLE
  5
40
102
{ACAD_REACTORS
330
29
102
}
330
29
100
AcDbVisualStyle
  2
OverhangOff
 70
    21
177
     3
291
     1
 70
    58
 90
        2
176
     0
 90
        2
176
     0
 90
        0
176
     0
 90
        0
176
     0
 40
0.6
176
     0
 40
30.0
176
     0
 62
     7
420
 16777215
176
     0
 90
        1
176
     0
 90
        4
176
     0
 62
     7
176
     0
 62
   257
176
     0
 90
        1
176
     0
 90
        1
176
     0
 40
1.0
176
     0
 90
        9
176
     2
 62
     7
176
     0
 40
1.0
176
     0
 90
        1
176
     0
 90
        6
176
     0
 90
        2
176
     0
 62
     7
176
     0
 90
        5
176
     0
 90
        0
176
     0
 90
        0
176
     0
290
     0
176
     0
 90
        1
176
     0
 40
0.0
176
     0
 90
        0
176
     0
290
     0
176
     0
290
     1
176
     0
290
     1
176
     0
290
     0
176
     0
290
     0
176
     0
290
     0
176
     0
290
     0
176
     0
290
     0
176
     0
290
     0
176
     0
 90
       50
176
     0
 40
0.0
176
     0
 40
1.0
176
     0
 90
        0
176
     0
 62
    18
176
     0
 90
       50
176
     0
 90
        3
176
     0
 62
     5
420
      255
176
     0
290
     0
176
     0
 90
       50
176
     0
 90
       50
176
     0
 90
       50
176
     0
290
     0
176
     0
 90
       50
176
     0
 62
   256
176
     0
 40
1.0
176
     0
 90
        2
176
     0
  1
strokes_ogs.tif
176
     0
290
     0
176
     0
 40
1.0
176
     0
 40
1.0
176
     0
  0
VISUALSTYLE
  5
33
102
{ACAD_REACTORS
330
29
102
}
330
29
100
AcDbVisualStyle
  2
Realistic
 70
     8
177
     3
291
     0
 70
    58
 90
        2
176
     1
 90
        3
176
     1
 90
        0
176
     1
 90
        2
176
     1
 40
0.6
176
     1
 40
30.0
176
     1
 62
     7
420
 16777215
176
     1
 90
        0
176
     1
 90
        0
176
     1
 62
     7
176
     1
 62
   257
176
     1
 90
        1
176
     1
 90
        1
176
     1
 40
1.0
176
     1
 90
        8
176
     1
 62
   257
176
     1
 40
1.0
176
     1
 90
        1
176
     1
 90
        6
176
     1
 90
        2
176
     1
 62
     7
176
     1
 90
        3
176
     1
 90
        0
176
     1
 90
        0
176
     1
290
     0
176
     1
 90
       13
176
     1
 40
0.0
176
     1
 90
        0
176
     1
290
     0
176
     1
290
     1
176
     1
290
     1
176
     1
290
     0
176
     1
290
     0
176
     1
290
     0
176
     1
290
     0
176
     1
290
     0
176
     1
290
     0
176
     1
 90
       50
176
     1
 40
0.0
176
     1
 40
1.0
176
     1
 90
        0
176
     1
 62
    18
176
     1
 90
       50
176
     1
 90
        3
176
     1
 62
     5
420
      255
176
     1
290
     0
176
     1
 90
       50
176
     1
 90
       50
176
     1
 90
       50
176
     1
290
     0
176
     1
 90
       50
176
     1
 62
   256
176
     0
 40
1.0
176
     0
 90
        2
176
     1
  1
strokes_ogs.tif
176
     1
290
     0
176
     1
 40
1.0
176
     1
 40
1.0
176
     1
  0
VISUALSTYLE
  5
3E
102
{ACAD_REACTORS
330
29
102
}
330
29
100
AcDbVisualStyle
  2
Shaded
 70
    27
177
     3
291
     0
 70
    58
 90
        2
176
     1
 90
        2
176
     1
 90
        1
176
     1
 90
        2
176
     1
 40
0.6
176
     1
 40
30.0
176
     1
 62
     7
420
 16777215
176
     1
 90
        0
176
     1
 90
        4
176
     1
 62
     7
176
     1
 62
   257
176
     1
 90
        1
176
     1
 90
        1
176
     1
 40
1.0
176
     1
 90
        8
176
     1
 62
   257
176
     1
 40
1.0
176
     1
 90
        1
176
     1
 90
        6
176
     1
 90
        2
176
     1
 62
     8
420
  7895160
176
     1
 90
        3
176
     1
 90
        0
176
     1
 90
        0
176
     1
290
     0
176
     1
 90
        5
176
     1
 40
0.0
176
     1
 90
        0
176
     1
290
     0
176
     1
290
     1
176
     1
290
     1
176
     1
290
     0
176
     1
290
     0
176
     1
290
     0
176
     1
290
     0
176
     1
290
     0
176
     1
290
     0
176
     1
 90
       50
176
     1
 40
0.0
176
     1
 40
1.0
176
     1
 90
        0
176
     1
 62
    18
176
     1
 90
       50
176
     1
 90
        3
176
     1
 62
     5
420
      255
176
     1
290
     0
176
     1
 90
       50
176
     1
 90
       50
176
     1
 90
       50
176
     1
290
     0
176
     1
 90
       50
176
     1
 62
   256
176
     0
 40
1.0
176
     0
 90
        2
176
     1
  1
strokes_ogs.tif
176
     1
290
     0
176
     1
 40
1.0
176
     1
 40
1.0
176
     1
  0
VISUALSTYLE
  5
3D
102
{ACAD_REACTORS
330
29
102
}
330
29
100
AcDbVisualStyle
  2
Shaded with edges
 70
    26
177
     3
291
     0
 70
    58
 90
        2
176
     1
 90
        2
176
     1
 90
        1
176
     1
 90
        2
176
     1
 40
0.6
176
     1
 40
30.0
176
     1
 62
     7
420
 16777215
176
     1
 90
        1
176
     1
 90
        2
176
     1
 62
     7
176
     1
 62
   257
176
     1
 90
        2
176
     1
 90
        1
176
     1
 40
1.0
176
     1
 90
        8
176
     1
 62
   257
176
     1
 40
1.0
176
     1
 90
        1
176
     1
 90
        6
176
     1
 90
        2
176
     1
 62
     7
176
     1
 90
        3
176
     1
 90
        0
176
     1
 90
        0
176
     1
290
     0
176
     1
 90
        5
176
     1
 40
0.0
176
     1
 90
        0
176
     1
290
     0
176
     1
290
     1
176
     1
290
     1
176
     1
290
     0
176
     1
290
     0
176
     1
290
     0
176
     1
290
     0
176
     1
290
     0
176
     1
290
     0
176
     1
 90
       50
176
     1
 40
0.0
176
     1
 40
1.0
176
     1
 90
        0
176
     1
 62
    18
176
     1
 90
       50
176
     1
 90
        3
176
     1
 62
     5
420
      255
176
     1
290
     0
176
     1
 90
       50
176
     1
 90
       50
176
     1
 90
       50
176
     1
290
     0
176
     1
 90
       50
176
     1
 62
   256
176
     0
 40
1.0
176
     0
 90
        2
176
     1
  1
strokes_ogs.tif
176
     1
290
     0
176
     1
 40
1.0
176
     1
 40
1.0
176
     1
  0
VISUALSTYLE
  5
3A
102
{ACAD_REACTORS
330
29
102
}
330
29
100
AcDbVisualStyle
  2
Shades of Gray
 70
    23
177
     3
291
     0
 70
    58
 90
        2
176
     1
 90
        2
176
     1
 90
        3
176
     1
 90
        0
176
     1
 40
0.6
176
     1
 40
30.0
176
     1
 62
     7
420
 16777215
176
     1
 90
        2
176
     1
 90
        2
176
     1
 62
     7
176
     1
 62
     7
176
     1
 90
        1
176
     1
 90
        1
176
     1
 40
40.0
176
     1
 90
        8
176
     1
 62
     7
176
     1
 40
1.0
176
     1
 90
        1
176
     1
 90
        6
176
     1
 90
        2
176
     1
 62
     7
176
     1
 90
        3
176
     1
 90
        0
176
     1
 90
        0
176
     1
290
     0
176
     1
 90
        1
176
     1
 40
0.0
176
     1
 90
        0
176
     1
290
     0
176
     1
290
     1
176
     1
290
     1
176
     1
290
     0
176
     1
290
     0
176
     1
290
     0
176
     1
290
     0
176
     1
290
     0
176
     1
290
     0
176
     1
 90
       50
176
     1
 40
0.0
176
     1
 40
1.0
176
     1
 90
        0
176
     1
 62
    18
176
     1
 90
       50
176
     1
 90
        3
176
     1
 62
     5
420
      255
176
     1
290
     0
176
     1
 90
       50
176
     1
 90
       50
176
     1
 90
       50
176
     1
290
     0
176
     1
 90
       50
176
     1
 62
   256
176
     0
 40
1.0
176
     0
 90
        2
176
     1
  1
strokes_ogs.tif
176
     1
290
     0
176
     1
 40
1.0
176
     1
 40
1.0
176
     1
  0
VISUALSTYLE
  5
3B
102
{ACAD_REACTORS
330
29
102
}
330
29
100
AcDbVisualStyle
  2
Sketchy
 70
    24
177
     3
291
     0
 70
    58
 90
        1
176
     1
 90
        2
176
     1
 90
        2
176
     1
 90
        0
176
     1
 40
0.6
176
     1
 40
30.0
176
     1
 62
     7
420
 16777215
176
     1
 90
        2
176
     1
 90
        2
176
     1
 62
     7
176
     1
 62
     7
176
     1
 90
        1
176
     1
 90
        1
176
     1
 40
40.0
176
     1
 90
       11
176
     1
 62
     7
176
     1
 40
1.0
176
     1
 90
        1
176
     1
 90
        6
176
     1
 90
        2
176
     1
 62
     7
176
     1
 90
        6
176
     1
 90
        0
176
     1
 90
        0
176
     1
290
     0
176
     1
 90
        1
176
     1
 40
0.0
176
     1
 90
        0
176
     1
290
     0
176
     1
290
     1
176
     1
290
     1
176
     1
290
     0
176
     1
290
     0
176
     1
290
     0
176
     1
290
     0
176
     1
290
     0
176
     1
290
     0
176
     1
 90
       50
176
     1
 40
0.0
176
     1
 40
1.0
176
     1
 90
        0
176
     1
 62
    18
176
     1
 90
       50
176
     1
 90
        3
176
     1
 62
     5
420
      255
176
     1
290
     0
176
     1
 90
       50
176
     1
 90
       50
176
     1
 90
       50
176
     1
290
     0
176
     1
 90
       50
176
     1
 62
   256
176
     0
 40
1.0
176
     0
 90
        2
176
     1
  1
strokes_ogs.tif
176
     1
290
     0
176
     1
 40
1.0
176
     1
 40
1.0
176
     1
  0
VISUALSTYLE
  5
36
102
{ACAD_REACTORS
330
29
102
}
330
29
100
AcDbVisualStyle
  2
Thicken
 70
    13
177
     3
291
     1
 70
    58
 90
        2
176
     1
 90
        2
176
     1
 90
        0
176
     1
 90
        0
176
     1
 40
0.6
176
     1
 40
30.0
176
     1
 62
     7
420
 16777215
176
     1
 90
        1
176
     1
 90
        4
176
     1
 62
     7
176
     1
 62
   257
176
     1
 90
        1
176
     1
 90
        1
176
     1
 40
1.0
176
     1
 90
       12
176
     1
 62
     7
176
     1
 40
1.0
176
     1
 90
        1
176
     1
 90
        6
176
     1
 90
        2
176
     1
 62
     7
176
     1
 90
        5
176
     1
 90
        0
176
     1
 90
        0
176
     1
290
     0
176
     1
 90
        1
176
     1
 40
0.0
176
     1
 90
        0
176
     1
290
     0
176
     1
290
     1
176
     1
290
     1
176
     1
290
     0
176
     1
290
     0
176
     1
290
     0
176
     1
290
     0
176
     1
290
     0
176
     1
290
     0
176
     1
 90
       50
176
     1
 40
0.0
176
     1
 40
1.0
176
     1
 90
        0
176
     1
 62
    18
176
     1
 90
       50
176
     1
 90
        3
176
     1
 62
     5
420
      255
176
     1
290
     0
176
     1
 90
       50
176
     1
 90
       50
176
     1
 90
       50
176
     1
290
     0
176
     1
 90
       50
176
     1
 62
   256
176
     0
 40
1.0
176
     0
 90
        2
176
     1
  1
strokes_ogs.tif
176
     1
290
     0
176
     1
 40
1.0
176
     1
 40
1.0
176
     1
  0
VISUALSTYLE
  5
30
102
{ACAD_REACTORS
330
29
102
}
330
29
100
AcDbVisualStyle
  2
Wireframe
 70
     5
177
     3
291
     0
 70
    58
 90
        0
176
     1
 90
        2
176
     1
 90
        0
176
     1
 90
        0
176
     1
 40
0.6
176
     1
 40
30.0
176
     1
 62
     7
420
 16777215
176
     1
 90
        1
176
     1
 90
        4
176
     1
 62
     7
176
     1
 62
   257
176
     1
 90
        1
176
     1
 90
        1
176
     1
 40
1.0
176
     1
 90
        0
176
     1
 62
   257
176
     1
 40
1.0
176
     1
 90
        1
176
     1
 90
        6
176
     1
 90
        2
176
     1
 62
     7
176
     1
 90
        3
176
     1
 90
        0
176
     1
 90
        0
176
     1
290
     0
176
     1
 90
        1
176
     1
 40
0.0
176
     1
 90
        0
176
     1
290
     0
176
     1
290
     1
176
     1
290
     1
176
     1
290
     0
176
     1
290
     0
176
     1
290
     0
176
     1
290
     0
176
     1
290
     0
176
     1
290
     0
176
     1
 90
       50
176
     1
 40
0.0
176
     1
 40
1.0
176
     1
 90
        0
176
     1
 62
    18
176
     1
 90
       50
176
     1
 90
        3
176
     1
 62
     5
420
      255
176
     1
290
     0
176
     1
 90
       50
176
     1
 90
       50
176
     1
 90
       50
176
     1
290
     0
176
     1
 90
       50
176
     1
 62
   256
176
     0
 40
1.0
176
     0
 90
        2
176
     1
  1
strokes_ogs.tif
176
     1
290
     0
176
     1
 40
1.0
176
     1
 40
1.0
176
     1
  0
VISUALSTYLE
  5
3C
102
{ACAD_REACTORS
330
29
102
}
330
29
100
AcDbVisualStyle
  2
X-Ray
 70
    25
177
     3
291
     0
 70
    58
 90
        2
176
     1
 90
        2
176
     1
 90
        1
176
     1
 90
        1
176
     1
 40
0.5
176
     1
 40
30.0
176
     1
 62
     7
420
 16777215
176
     1
 90
        1
176
     1
 90
        0
176
     1
 62
     7
176
     1
 62
   257
176
     1
 90
        1
176
     1
 90
        1
176
     1
 40
1.0
176
     1
 90
        8
176
     1
 62
     7
176
     1
 40
1.0
176
     1
 90
        1
176
     1
 90
        6
176
     1
 90
        2
176
     1
 62
     7
176
     1
 90
        3
176
     1
 90
        0
176
     1
 90
        0
176
     1
290
     0
176
     1
 90
       13
176
     1
 40
0.0
176
     1
 90
        0
176
     1
290
     0
176
     1
290
     1
176
     1
290
     1
176
     1
290
     0
176
     1
290
     0
176
     1
290
     0
176
     1
290
     0
176
     1
290
     0
176
     1
290
     0
176
     1
 90
       50
176
     1
 40
0.0
176
     1
 40
1.0
176
     1
 90
        0
176
     1
 62
    18
176
     1
 90
       50
176
     1
 90
        3
176
     1
 62
     5
420
      255
176
     1
290
     0
176
     1
 90
       50
176
     1
 90
       50
176
     1
 90
       50
176
     1
290
     0
176
     1
 90
       50
176
     1
 62
   256
176
     0
 40
1.0
176
     0
 90
        2
176
     1
  1
strokes_ogs.tif
176
     1
290
     0
176
     1
 40
1.0
176
     1
 40
1.0
176
     1
  0
DICTIONARYVAR
  5
253
102
{ACAD_REACTORS
330
24E
102
}
330
24E
100
DictionaryVariables
280
     0
  1
0
  0
DICTIONARYVAR
  5
254
102
{ACAD_REACTORS
330
24E
102
}
330
24E
100
DictionaryVariables
280
     0
  1
1:1
  0
DICTIONARYVAR
  5
250
102
{ACAD_REACTORS
330
24E
102
}
330
24E
100
DictionaryVariables
280
     0
  1
STANDARD
  0
DICTIONARYVAR
  5
24F
102
{ACAD_REACTORS
330
24E
102
}
330
24E
100
DictionaryVariables
280
     0
  1
STANDARD
  0
DICTIONARYVAR
  5
251
102
{ACAD_REACTORS
330
24E
102
}
330
24E
100
DictionaryVariables
280
     0
  1
Imperial24
  0
DICTIONARYVAR
  5
252
102
{ACAD_REACTORS
330
24E
102
}
330
24E
100
DictionaryVariables
280
     0
  1
Imperial24
  0
DICTIONARY
  5
1A
330
19
100
AcDbDictionary
280
     1
281
     1
  3
BUMPTILE
360
1C
  3
DIFFUSETILE
360
1B
  3
OPACITYTILE
360
1F
  3
REFLECTIONTILE
360
1E
  3
REFRACTIONTILE
360
20
  3
SPECULARTILE
360
1D
  0
DICTIONARY
  5
12
330
11
100
AcDbDictionary
280
     1
281
     1
  3
BUMPTILE
360
14
  3
DIFFUSETILE
360
13
  3
OPACITYTILE
360
17
  3
REFLECTIONTILE
360
16
  3
REFRACTIONTILE
360
18
  3
SPECULARTILE
360
15
  0
DICTIONARY
  5
22
330
21
100
AcDbDictionary
280
     1
281
     1
  3
BUMPTILE
360
24
  3
DIFFUSETILE
360
23
  3
OPACITYTILE
360
27
  3
REFLECTIONTILE
360
26
  3
REFRACTIONTILE
360
28
  3
SPECULARTILE
360
25
  0
DICTIONARY
  5
260
330
65
100
AcDbDictionary
280
     1
281
     1
  3
ACAD_ROUNDTRIP_2008_TABLESTYLE_CELLSTYLEMAP
360
269
  0
XRECORD
  5
1C
102
{ACAD_REACTORS
330
1A
102
}
330
1A
100
AcDbXrecord
280
     1
270
     1
271
     1
  0
XRECORD
  5
1B
102
{ACAD_REACTORS
330
1A
102
}
330
1A
100
AcDbXrecord
280
     1
270
     1
271
     1
  0
XRECORD
  5
1F
102
{ACAD_REACTORS
330
1A
102
}
330
1A
100
AcDbXrecord
280
     1
270
     1
271
     1
  0
XRECORD
  5
1E
102
{ACAD_REACTORS
330
1A
102
}
330
1A
100
AcDbXrecord
280
     1
270
     1
271
     1
  0
XRECORD
  5
20
102
{ACAD_REACTORS
330
1A
102
}
330
1A
100
AcDbXrecord
280
     1
270
     1
271
     1
  0
XRECORD
  5
1D
102
{ACAD_REACTORS
330
1A
102
}
330
1A
100
AcDbXrecord
280
     1
270
     1
271
     1
  0
XRECORD
  5
14
102
{ACAD_REACTORS
330
12
102
}
330
12
100
AcDbXrecord
280
     1
270
     1
271
     1
  0
XRECORD
  5
13
102
{ACAD_REACTORS
330
12
102
}
330
12
100
AcDbXrecord
280
     1
270
     1
271
     1
  0
XRECORD
  5
17
102
{ACAD_REACTORS
330
12
102
}
330
12
100
AcDbXrecord
280
     1
270
     1
271
     1
  0
XRECORD
  5
16
102
{ACAD_REACTORS
330
12
102
}
330
12
100
AcDbXrecord
280
     1
270
     1
271
     1
  0
XRECORD
  5
18
102
{ACAD_REACTORS
330
12
102
}
330
12
100
AcDbXrecord
280
     1
270
     1
271
     1
  0
XRECORD
  5
15
102
{ACAD_REACTORS
330
12
102
}
330
12
100
AcDbXrecord
280
     1
270
     1
271
     1
  0
XRECORD
  5
24
102
{ACAD_REACTORS
330
22
102
}
330
22
100
AcDbXrecord
280
     1
270
     1
271
     1
  0
XRECORD
  5
23
102
{ACAD_REACTORS
330
22
102
}
330
22
100
AcDbXrecord
280
     1
270
     1
271
     1
  0
XRECORD
  5
27
102
{ACAD_REACTORS
330
22
102
}
330
22
100
AcDbXrecord
280
     1
270
     1
271
     1
  0
XRECORD
  5
26
102
{ACAD_REACTORS
330
22
102
}
330
22
100
AcDbXrecord
280
     1
270
     1
271
     1
  0
XRECORD
  5
28
102
{ACAD_REACTORS
330
22
102
}
330
22
100
AcDbXrecord
280
     1
270
     1
271
     1
  0
XRECORD
  5
25
102
{ACAD_REACTORS
330
22
102
}
330
22
100
AcDbXrecord
280
     1
270
     1
271
     1
  0
CELLSTYLEMAP
  5
269
102
{ACAD_REACTORS
330
260
102
}
330
260
100
AcDbCellStyleMap
 90
        3
300
CELLSTYLE
  1
TABLEFORMAT_BEGIN
 90
        5
170
     1
 91
        0
 92
    32768
 62
   257
 93
        1
300
CONTENTFORMAT
  1
CONTENTFORMAT_BEGIN
 90
        0
 91
        0
 92
      512
 93
        0
300

 40
0.0
140
1.0
 94
        5
 62
     0
340
55
144
6.0
309
CONTENTFORMAT_END
171
     1
301
MARGIN
  1
CELLMARGIN_BEGIN
 40
1.5
 40
1.5
 40
1.5
 40
1.5
 40
0.18
 40
0.18
309
CELLMARGIN_END
 94
        6
 95
        1
302
GRIDFORMAT
  1
GRIDFORMAT_BEGIN
 90
        0
 91
        1
 62
     0
 92
       -2
340
5B
 93
        0
 40
1.125
309
GRIDFORMAT_END
 95
        2
302
GRIDFORMAT
  1
GRIDFORMAT_BEGIN
 90
        0
 91
        1
 62
     0
 92
       -2
340
5B
 93
        0
 40
1.125
309
GRIDFORMAT_END
 95
        4
302
GRIDFORMAT
  1
GRIDFORMAT_BEGIN
 90
        0
 91
        1
 62
     0
 92
       -2
340
5B
 93
        0
 40
1.125
309
GRIDFORMAT_END
 95
        8
302
GRIDFORMAT
  1
GRIDFORMAT_BEGIN
 90
        0
 91
        1
 62
     0
 92
       -2
340
5B
 93
        0
 40
1.125
309
GRIDFORMAT_END
 95
       16
302
GRIDFORMAT
  1
GRIDFORMAT_BEGIN
 90
        0
 91
        1
 62
     0
 92
       -2
340
5B
 93
        0
 40
1.125
309
GRIDFORMAT_END
 95
       32
302
GRIDFORMAT
  1
GRIDFORMAT_BEGIN
 90
        0
 91
        1
 62
     0
 92
       -2
340
5B
 93
        0
 40
1.125
309
GRIDFORMAT_END
309
TABLEFORMAT_END
  1
CELLSTYLE_BEGIN
 90
        1
 91
        1
300
_TITLE
309
CELLSTYLE_END
300
CELLSTYLE
  1
TABLEFORMAT_BEGIN
 90
        5
170
     1
 91
        0
 92
        0
 62
   257
 93
        1
300
CONTENTFORMAT
  1
CONTENTFORMAT_BEGIN
 90
        0
 91
        0
 92
      512
 93
        0
300

 40
0.0
140
1.0
 94
        5
 62
     0
340
55
144
4.5
309
CONTENTFORMAT_END
171
     1
301
MARGIN
  1
CELLMARGIN_BEGIN
 40
1.5
 40
1.5
 40
1.5
 40
1.5
 40
0.18
 40
0.18
309
CELLMARGIN_END
 94
        6
 95
        1
302
GRIDFORMAT
  1
GRIDFORMAT_BEGIN
 90
        0
 91
        1
 62
     0
 92
       -2
340
5B
 93
        0
 40
1.125
309
GRIDFORMAT_END
 95
        2
302
GRIDFORMAT
  1
GRIDFORMAT_BEGIN
 90
        0
 91
        1
 62
     0
 92
       -2
340
5B
 93
        0
 40
1.125
309
GRIDFORMAT_END
 95
        4
302
GRIDFORMAT
  1
GRIDFORMAT_BEGIN
 90
        0
 91
        1
 62
     0
 92
       -2
340
5B
 93
        0
 40
1.125
309
GRIDFORMAT_END
 95
        8
302
GRIDFORMAT
  1
GRIDFORMAT_BEGIN
 90
        0
 91
        1
 62
     0
 92
       -2
340
5B
 93
        0
 40
1.125
309
GRIDFORMAT_END
 95
       16
302
GRIDFORMAT
  1
GRIDFORMAT_BEGIN
 90
        0
 91
        1
 62
     0
 92
       -2
340
5B
 93
        0
 40
1.125
309
GRIDFORMAT_END
 95
       32
302
GRIDFORMAT
  1
GRIDFORMAT_BEGIN
 90
        0
 91
        1
 62
     0
 92
       -2
340
5B
 93
        0
 40
1.125
309
GRIDFORMAT_END
309
TABLEFORMAT_END
  1
CELLSTYLE_BEGIN
 90
        2
 91
        1
300
_HEADER
309
CELLSTYLE_END
300
CELLSTYLE
  1
TABLEFORMAT_BEGIN
 90
        5
170
     1
 91
        0
 92
        0
 62
   257
 93
        1
300
CONTENTFORMAT
  1
CONTENTFORMAT_BEGIN
 90
        0
 91
        0
 92
      512
 93
        0
300

 40
0.0
140
1.0
 94
        2
 62
     0
340
55
144
4.5
309
CONTENTFORMAT_END
171
     1
301
MARGIN
  1
CELLMARGIN_BEGIN
 40
1.5
 40
1.5
 40
1.5
 40
1.5
 40
0.18
 40
0.18
309
CELLMARGIN_END
 94
        6
 95
        1
302
GRIDFORMAT
  1
GRIDFORMAT_BEGIN
 90
        0
 91
        1
 62
     0
 92
       -2
340
5B
 93
        0
 40
1.125
309
GRIDFORMAT_END
 95
        2
302
GRIDFORMAT
  1
GRIDFORMAT_BEGIN
 90
        0
 91
        1
 62
     0
 92
       -2
340
5B
 93
        0
 40
1.125
309
GRIDFORMAT_END
 95
        4
302
GRIDFORMAT
  1
GRIDFORMAT_BEGIN
 90
        0
 91
        1
 62
     0
 92
       -2
340
5B
 93
        0
 40
1.125
309
GRIDFORMAT_END
 95
        8
302
GRIDFORMAT
  1
GRIDFORMAT_BEGIN
 90
        0
 91
        1
 62
     0
 92
       -2
340
5B
 93
        0
 40
1.125
309
GRIDFORMAT_END
 95
       16
302
GRIDFORMAT
  1
GRIDFORMAT_BEGIN
 90
        0
 91
        1
 62
     0
 92
       -2
340
5B
 93
        0
 40
1.125
309
GRIDFORMAT_END
 95
       32
302
GRIDFORMAT
  1
GRIDFORMAT_BEGIN
 90
        0
 91
        1
 62
     0
 92
       -2
340
5B
 93
        0
 40
1.125
309
GRIDFORMAT_END
309
TABLEFORMAT_END
  1
CELLSTYLE_BEGIN
 90
        3
 91
        2
300
_DATA
309
CELLSTYLE_END
  0
ENDSEC
  0
EOF
