  0
SECTION
  2
HEADER
  9
$ACADVER
  1
AC1032
  9
$ACADMAINTVER
 90
      250
  9
$DWGCODEPAGE
  3
ANSI_932
  9
$LASTSAVEDBY
  1
dsp199
  9
$REQUIREDVERSIONS
160
                 0
  9
$INSBASE
 10
0.0
 20
0.0
 30
0.0
  9
$EXTMIN
 10
118.342554885539
 20
66.51987731535519
 30
-0.000000000000001
  9
$EXTMAX
 10
186.3116718507081
 20
137.1970994143952
 30
0.0000000000000009
  9
$LIMMIN
 10
0.0
 20
0.0
  9
$LIMMAX
 10
12.0
 20
9.0
  9
$ORTHOMODE
 70
     0
  9
$REGENMODE
 70
     1
  9
$FILLMODE
 70
     1
  9
$QTEXTMODE
 70
     0
  9
$MIRRTEXT
 70
     0
  9
$LTSCALE
 40
1.0
  9
$ATTMODE
 70
     1
  9
$TEXTSIZE
 40
2.5
  9
$TRACEWID
 40
1.0
  9
$TEXTSTYLE
  7
Standard
  9
$CLAYER
  8
0
  9
$CELTYPE
  6
ByLayer
  9
$CECOLOR
 62
   256
  9
$CELTSCALE
 40
1.0
  9
$DISPSILH
 70
     0
  9
$DIMSCALE
 40
1.0
  9
$DIMASZ
 40
2.5
  9
$DIMEXO
 40
0.625
  9
$DIMDLI
 40
3.75
  9
$DIMRND
 40
0.0
  9
$DIMDLE
 40
0.0
  9
$DIMEXE
 40
1.25
  9
$DIMTP
 40
0.0
  9
$DIMTM
 40
0.0
  9
$DIMTXT
 40
2.5
  9
$DIMCEN
 40
2.5
  9
$DIMTSZ
 40
0.0
  9
$DIMTOL
 70
     0
  9
$DIMLIM
 70
     0
  9
$DIMTIH
 70
     0
  9
$DIMTOH
 70
     0
  9
$DIMSE1
 70
     0
  9
$DIMSE2
 70
     0
  9
$DIMTAD
 70
     1
  9
$DIMZIN
 70
     8
  9
$DIMBLK
  1

  9
$DIMASO
 70
     1
  9
$DIMSHO
 70
     1
  9
$DIMPOST
  1

  9
$DIMAPOST
  1

  9
$DIMALT
 70
     0
  9
$DIMALTD
 70
     3
  9
$DIMALTF
 40
0.03937007874016
  9
$DIMLFAC
 40
1.0
  9
$DIMTOFL
 70
     1
  9
$DIMTVP
 40
0.0
  9
$DIMTIX
 70
     0
  9
$DIMSOXD
 70
     0
  9
$DIMSAH
 70
     0
  9
$DIMBLK1
  1

  9
$DIMBLK2
  1

  9
$DIMSTYLE
  2
ISO-25
  9
$DIMCLRD
 70
     0
  9
$DIMCLRE
 70
     0
  9
$DIMCLRT
 70
     0
  9
$DIMTFAC
 40
1.0
  9
$DIMGAP
 40
0.625
  9
$DIMJUST
 70
     0
  9
$DIMSD1
 70
     0
  9
$DIMSD2
 70
     0
  9
$DIMTOLJ
 70
     0
  9
$DIMTZIN
 70
     8
  9
$DIMALTZ
 70
     0
  9
$DIMALTTZ
 70
     0
  9
$DIMUPT
 70
     0
  9
$DIMDEC
 70
     2
  9
$DIMTDEC
 70
     2
  9
$DIMALTU
 70
     2
  9
$DIMALTTD
 70
     3
  9
$DIMTXSTY
  7
Standard
  9
$DIMAUNIT
 70
     0
  9
$DIMADEC
 70
     0
  9
$DIMALTRND
 40
0.0
  9
$DIMAZIN
 70
     0
  9
$DIMDSEP
 70
    44
  9
$DIMATFIT
 70
     3
  9
$DIMFRAC
 70
     0
  9
$DIMLDRBLK
  1

  9
$DIMLUNIT
 70
     2
  9
$DIMLWD
 70
    -2
  9
$DIMLWE
 70
    -2
  9
$DIMTMOVE
 70
     0
  9
$DIMFXL
 40
1.0
  9
$DIMFXLON
 70
     0
  9
$DIMJOGANG
 40
0.7853981633974483
  9
$DIMTFILL
 70
     0
  9
$DIMTFILLCLR
 70
     0
  9
$DIMARCSYM
 70
     0
  9
$DIMLTYPE
  6

  9
$DIMLTEX1
  6

  9
$DIMLTEX2
  6

  9
$DIMTXTDIRECTION
 70
     0
  9
$LUNITS
 70
     2
  9
$LUPREC
 70
     4
  9
$SKETCHINC
 40
1.0
  9
$FILLETRAD
 40
0.0
  9
$AUNITS
 70
     0
  9
$AUPREC
 70
     0
  9
$MENU
  1
.
  9
$ELEVATION
 40
0.0
  9
$PELEVATION
 40
0.0
  9
$THICKNESS
 40
0.0
  9
$LIMCHECK
 70
     0
  9
$CHAMFERA
 40
0.0
  9
$CHAMFERB
 40
0.0
  9
$CHAMFERC
 40
0.0
  9
$CHAMFERD
 40
0.0
  9
$SKPOLY
 70
     0
  9
$TDCREATE
 40
2460391.488634260
  9
$TDUCREATE
 40
2460391.113634259
  9
$TDUPDATE
 40
2460391.488877315
  9
$TDUUPDATE
 40
2460391.113877315
  9
$TDINDWG
 40
0.0002314815
  9
$TDUSRTIMER
 40
0.0002314815
  9
$USRTIMER
 70
     1
  9
$ANGBASE
 50
0.0
  9
$ANGDIR
 70
     0
  9
$PDMODE
 70
     0
  9
$PDSIZE
 40
0.0
  9
$PLINEWID
 40
0.0
  9
$SPLFRAME
 70
     0
  9
$SPLINETYPE
 70
     6
  9
$SPLINESEGS
 70
     8
  9
$HANDSEED
  5
270
  9
$SURFTAB1
 70
     6
  9
$SURFTAB2
 70
     6
  9
$SURFTYPE
 70
     6
  9
$SURFU
 70
     6
  9
$SURFV
 70
     6
  9
$UCSBASE
  2

  9
$UCSNAME
  2

  9
$UCSORG
 10
0.0
 20
0.0
 30
0.0
  9
$UCSXDIR
 10
1.0
 20
0.0
 30
0.0
  9
$UCSYDIR
 10
0.0
 20
1.0
 30
0.0
  9
$UCSORTHOREF
  2

  9
$UCSORTHOVIEW
 70
     0
  9
$UCSORGTOP
 10
0.0
 20
0.0
 30
0.0
  9
$UCSORGBOTTOM
 10
0.0
 20
0.0
 30
0.0
  9
$UCSORGLEFT
 10
0.0
 20
0.0
 30
0.0
  9
$UCSORGRIGHT
 10
0.0
 20
0.0
 30
0.0
  9
$UCSORGFRONT
 10
0.0
 20
0.0
 30
0.0
  9
$UCSORGBACK
 10
0.0
 20
0.0
 30
0.0
  9
$PUCSBASE
  2

  9
$PUCSNAME
  2

  9
$PUCSORG
 10
0.0
 20
0.0
 30
0.0
  9
$PUCSXDIR
 10
1.0
 20
0.0
 30
0.0
  9
$PUCSYDIR
 10
0.0
 20
1.0
 30
0.0
  9
$PUCSORTHOREF
  2

  9
$PUCSORTHOVIEW
 70
     0
  9
$PUCSORGTOP
 10
0.0
 20
0.0
 30
0.0
  9
$PUCSORGBOTTOM
 10
0.0
 20
0.0
 30
0.0
  9
$PUCSORGLEFT
 10
0.0
 20
0.0
 30
0.0
  9
$PUCSORGRIGHT
 10
0.0
 20
0.0
 30
0.0
  9
$PUCSORGFRONT
 10
0.0
 20
0.0
 30
0.0
  9
$PUCSORGBACK
 10
0.0
 20
0.0
 30
0.0
  9
$USERI1
 70
     0
  9
$USERI2
 70
     0
  9
$USERI3
 70
     0
  9
$USERI4
 70
     0
  9
$USERI5
 70
     0
  9
$USERR1
 40
0.0
  9
$USERR2
 40
0.0
  9
$USERR3
 40
0.0
  9
$USERR4
 40
0.0
  9
$USERR5
 40
0.0
  9
$WORLDVIEW
 70
     1
  9
$SHADEDGE
 70
     3
  9
$SHADEDIF
 70
    70
  9
$TILEMODE
 70
     1
  9
$MAXACTVP
 70
    64
  9
$PINSBASE
 10
0.0
 20
0.0
 30
0.0
  9
$PLIMCHECK
 70
     0
  9
$PEXTMIN
 10
1.000000000000000E+20
 20
1.000000000000000E+20
 30
1.000000000000000E+20
  9
$PEXTMAX
 10
-1.000000000000000E+20
 20
-1.000000000000000E+20
 30
-1.000000000000000E+20
  9
$PLIMMIN
 10
0.0
 20
0.0
  9
$PLIMMAX
 10
12.0
 20
9.0
  9
$UNITMODE
 70
     0
  9
$VISRETAIN
 70
     1
  9
$PLINEGEN
 70
     0
  9
$PSLTSCALE
 70
     1
  9
$TREEDEPTH
 70
  3020
  9
$CMLSTYLE
  2
Standard
  9
$CMLJUST
 70
     0
  9
$CMLSCALE
 40
20.0
  9
$PROXYGRAPHICS
 70
     1
  9
$MEASUREMENT
 70
     1
  9
$CELWEIGHT
370
    -1
  9
$ENDCAPS
280
     0
  9
$JOINSTYLE
280
     0
  9
$LWDISPLAY
290
     0
  9
$INSUNITS
 70
     4
  9
$HYPERLINKBASE
  1

  9
$STYLESHEET
  1

  9
$XEDIT
290
     1
  9
$CEPSNTYPE
380
     0
  9
$PSTYLEMODE
290
     1
  9
$FINGERPRINTGUID
  2
{175E6299-4CDE-1A47-9273-565787D64F1E}
  9
$VERSIONGUID
  2
{5B1151AE-531E-1743-B5F8-AE3938CA6463}
  9
$EXTNAMES
290
     1
  9
$PSVPSCALE
 40
0.0
  9
$OLESTARTUP
290
     0
  9
$SORTENTS
280
   127
  9
$INDEXCTL
280
     0
  9
$HIDETEXT
280
     1
  9
$XCLIPFRAME
280
     2
  9
$HALOGAP
280
     0
  9
$OBSCOLOR
 70
   257
  9
$OBSLTYPE
280
     0
  9
$INTERSECTIONDISPLAY
280
     0
  9
$INTERSECTIONCOLOR
 70
   257
  9
$DIMASSOC
280
     2
  9
$PROJECTNAME
  1

  9
$CAMERADISPLAY
290
     0
  9
$LENSLENGTH
 40
50.0
  9
$CAMERAHEIGHT
 40
0.0
  9
$STEPSPERSEC
 40
2.0
  9
$STEPSIZE
 40
6.0
  9
$3DDWFPREC
 40
2.0
  9
$PSOLWIDTH
 40
5.0
  9
$PSOLHEIGHT
 40
80.0
  9
$LOFTANG1
 40
1.570796326794896
  9
$LOFTANG2
 40
1.570796326794896
  9
$LOFTMAG1
 40
0.0
  9
$LOFTMAG2
 40
0.0
  9
$LOFTPARAM
 70
     7
  9
$LOFTNORMALS
280
     1
  9
$LATITUDE
 40
37.795
  9
$LONGITUDE
 40
-122.394
  9
$NORTHDIRECTION
 40
0.0
  9
$TIMEZONE
 70
 -8000
  9
$LIGHTGLYPHDISPLAY
280
     1
  9
$TILEMODELIGHTSYNCH
280
     1
  9
$CMATERIAL
347
11
  9
$SOLIDHIST
280
     0
  9
$SHOWHIST
280
     1
  9
$DWFFRAME
280
     2
  9
$DGNFRAME
280
     0
  9
$REALWORLDSCALE
290
     1
  9
$INTERFERECOLOR
 62
     1
  9
$INTERFEREOBJVS
345
33
  9
$INTERFEREVPVS
346
30
  9
$CSHADOW
280
     0
  9
$SHADOWPLANELOCATION
 40
0.0
  0
ENDSEC
  0
SECTION
  2
CLASSES
  0
CLASS
  1
ACDBDICTIONARYWDFLT
  2
AcDbDictionaryWithDefault
  3
ObjectDBX Classes
 90
        0
 91
        1
280
     0
281
     0
  0
CLASS
  1
MATERIAL
  2
AcDbMaterial
  3
ObjectDBX Classes
 90
     1153
 91
        3
280
     0
281
     0
  0
CLASS
  1
VISUALSTYLE
  2
AcDbVisualStyle
  3
ObjectDBX Classes
 90
     4095
 91
       24
280
     0
281
     0
  0
CLASS
  1
SCALE
  2
AcDbScale
  3
ObjectDBX Classes
 90
     1153
 91
       17
280
     0
281
     0
  0
CLASS
  1
TABLESTYLE
  2
AcDbTableStyle
  3
ObjectDBX Classes
 90
     4095
 91
        1
280
     0
281
     0
  0
CLASS
  1
MLEADERSTYLE
  2
AcDbMLeaderStyle
  3
ACDB_MLEADERSTYLE_CLASS
 90
     4095
 91
        1
280
     0
281
     0
  0
CLASS
  1
ACDBSECTIONVIEWSTYLE
  2
AcDbSectionViewStyle
  3
ObjectDBX Classes
 90
     1025
 91
        2
280
     0
281
     0
  0
CLASS
  1
ACDBDETAILVIEWSTYLE
  2
AcDbDetailViewStyle
  3
ObjectDBX Classes
 90
     1025
 91
        2
280
     0
281
     0
  0
CLASS
  1
SORTENTSTABLE
  2
AcDbSortentsTable
  3
ObjectDBX Classes
 90
        0
 91
        1
280
     0
281
     0
  0
CLASS
  1
DICTIONARYVAR
  2
AcDbDictionaryVar
  3
ObjectDBX Classes
 90
        0
 91
        7
280
     0
281
     0
  0
CLASS
  1
CELLSTYLEMAP
  2
AcDbCellStyleMap
  3
ObjectDBX Classes
 90
     1152
 91
        1
280
     0
281
     0
  0
ENDSEC
  0
SECTION
  2
TABLES
  0
TABLE
  2
VPORT
  5
8
330
0
100
AcDbSymbolTable
 70
     1
  0
VPORT
  5
57
330
8
100
AcDbSymbolTableRecord
100
AcDbViewportTableRecord
  2
*Active
 70
     0
 10
0.0
 20
0.0
 11
1.0
 21
1.0
 12
167.7704220713557
 22
97.45255121351576
 13
0.0
 23
0.0
 14
10.0
 24
10.0
 15
10.0
 25
10.0
 16
0.0
 26
0.0
 36
1.0
 17
0.0
 27
0.0
 37
0.0
 40
113.8620933736785
 41
2.351715686274509
 42
50.0
 43
0.0
 44
0.0
 50
0.0
 51
0.0
 71
     0
 72
  1000
 73
     1
 74
     1
 75
     0
 76
     0
 77
     0
 78
     0
281
     0
 65
     1
110
0.0
120
0.0
130
0.0
111
1.0
121
0.0
131
0.0
112
0.0
122
1.0
132
0.0
 79
     0
146
0.0
348
2F
 60
     3
 61
     5
292
     1
282
     1
141
0.0
142
0.0
 63
   250
421
  3355443
1001
ACAD_NAV_VCDISPLAY
1070
     3
  0
ENDTAB
  0
TABLE
  2
LTYPE
  5
5
330
0
100
AcDbSymbolTable
 70
     1
  0
LTYPE
  5
5B
330
5
100
AcDbSymbolTableRecord
100
AcDbLinetypeTableRecord
  2
ByBlock
 70
     0
  3

 72
    65
 73
     0
 40
0.0
  0
LTYPE
  5
5C
330
5
100
AcDbSymbolTableRecord
100
AcDbLinetypeTableRecord
  2
ByLayer
 70
     0
  3

 72
    65
 73
     0
 40
0.0
  0
LTYPE
  5
5D
330
5
100
AcDbSymbolTableRecord
100
AcDbLinetypeTableRecord
  2
Continuous
 70
     0
  3
Solid line
 72
    65
 73
     0
 40
0.0
  0
ENDTAB
  0
TABLE
  2
LAYER
  5
2
330
0
100
AcDbSymbolTable
 70
     3
  0
LAYER
  5
54
330
2
100
AcDbSymbolTableRecord
100
AcDbLayerTableRecord
  2
0
 70
     0
 62
     7
  6
Continuous
370
    -3
390
F
347
21
348
0
1001
AcAecLayerStandard
1000

1000

  0
LAYER
  5
84
330
2
100
AcDbSymbolTableRecord
100
AcDbLayerTableRecord
  2
MD_可視
 70
     0
 62
     7
  6
Continuous
370
    50
390
F
347
21
348
0
  0
LAYER
  5
86
330
2
100
AcDbSymbolTableRecord
100
AcDbLayerTableRecord
  2
MD_狭い可視
 70
     0
 62
     7
  6
Continuous
370
    35
390
F
347
21
348
0
  0
ENDTAB
  0
TABLE
  2
STYLE
  5
3
330
0
100
AcDbSymbolTable
 70
     2
  0
STYLE
  5
55
330
3
100
AcDbSymbolTableRecord
100
AcDbTextStyleTableRecord
  2
Standard
 70
     0
 40
0.0
 41
1.0
 50
0.0
 71
     0
 42
2.5
  3
arial.ttf
  4

1001
ACAD
1000
Arial
1071
       34
  0
STYLE
  5
5A
330
3
100
AcDbSymbolTableRecord
100
AcDbTextStyleTableRecord
  2
Annotative
 70
     0
 40
0.0
 41
1.0
 50
0.0
 71
     0
 42
0.2
  3
txt
  4

1001
AcadAnnotative
1000
AnnotativeData
1002
{
1070
     1
1070
     1
1002
}
  0
ENDTAB
  0
TABLE
  2
VIEW
  5
6
330
0
100
AcDbSymbolTable
 70
     0
  0
ENDTAB
  0
TABLE
  2
UCS
  5
7
330
0
100
AcDbSymbolTable
 70
     0
  0
ENDTAB
  0
TABLE
  2
APPID
  5
9
330
0
100
AcDbSymbolTable
 70
     7
  0
APPID
  5
56
330
9
100
AcDbSymbolTableRecord
100
AcDbRegAppTableRecord
  2
ACAD
 70
     0
  0
APPID
  5
5E
330
9
100
AcDbSymbolTableRecord
100
AcDbRegAppTableRecord
  2
AcadAnnotative
 70
     0
  0
APPID
  5
78
330
9
100
AcDbSymbolTableRecord
100
AcDbRegAppTableRecord
  2
ACAD_PSEXT
 70
     0
  0
APPID
  5
7A
330
9
100
AcDbSymbolTableRecord
100
AcDbRegAppTableRecord
  2
ACAD_DSTYLE_DIMJAG
 70
     0
  0
APPID
  5
7B
330
9
100
AcDbSymbolTableRecord
100
AcDbRegAppTableRecord
  2
ACAD_DSTYLE_DIMTALN
 70
     0
  0
APPID
  5
25A
330
9
100
AcDbSymbolTableRecord
100
AcDbRegAppTableRecord
  2
AcAecLayerStandard
 70
     0
  0
APPID
  5
26C
330
9
100
AcDbSymbolTableRecord
100
AcDbRegAppTableRecord
  2
ACAD_NAV_VCDISPLAY
 70
     0
  0
ENDTAB
  0
TABLE
  2
DIMSTYLE
  5
A
330
0
100
AcDbSymbolTable
 70
     3
100
AcDbDimStyleTable
 71
     1
340
7C
  0
DIMSTYLE
105
58
330
A
100
AcDbSymbolTableRecord
100
AcDbDimStyleTableRecord
  2
Standard
 70
     0
340
55
  0
DIMSTYLE
105
59
330
A
100
AcDbSymbolTableRecord
100
AcDbDimStyleTableRecord
  2
Annotative
 70
     0
 40
0.0
 41
2.5
 42
0.625
 43
3.75
 44
1.25
 73
     0
 74
     0
 77
     1
 78
     8
140
2.5
141
2.5
143
0.03937007874016
147
0.625
171
     3
172
     1
271
     2
272
     2
274
     3
278
    44
283
     0
284
     8
340
55
1001
AcadAnnotative
1000
AnnotativeData
1002
{
1070
     1
1070
     1
1002
}
  0
DIMSTYLE
105
7C
330
A
100
AcDbSymbolTableRecord
100
AcDbDimStyleTableRecord
  2
ISO-25
 70
     0
 41
2.5
 42
0.625
 43
3.75
 44
1.25
 73
     0
 74
     0
 77
     1
 78
     8
140
2.5
141
2.5
143
0.03937007874016
147
0.625
171
     3
172
     1
271
     2
272
     2
274
     3
278
    44
283
     0
284
     8
340
55
  0
ENDTAB
  0
TABLE
  2
BLOCK_RECORD
  5
1
330
0
100
AcDbSymbolTable
 70
     4
  0
BLOCK_RECORD
  5
70
102
{ACAD_XDICTIONARY
360
7D
102
}
330
1
100
AcDbSymbolTableRecord
100
AcDbBlockTableRecord
  2
*Model_Space
340
73
 70
     0
280
     1
281
     0
  0
BLOCK_RECORD
  5
6C
330
1
100
AcDbSymbolTableRecord
100
AcDbBlockTableRecord
  2
*Paper_Space
340
6F
 70
     0
280
     1
281
     0
  0
BLOCK_RECORD
  5
74
330
1
100
AcDbSymbolTableRecord
100
AcDbBlockTableRecord
  2
*Paper_Space0
340
77
 70
     0
280
     1
281
     0
  0
BLOCK_RECORD
  5
81
330
1
100
AcDbSymbolTableRecord
100
AcDbBlockTableRecord
  2
CustomObjectsInViewport4_0
340
0
102
{BLKREFS
331
7F
102
}
 70
     0
280
     1
281
     0
  0
BLOCK_RECORD
  5
1C4
330
1
100
AcDbSymbolTableRecord
100
AcDbBlockTableRecord
  2
CustomObjectsInViewport6_0
340
0
102
{BLKREFS
331
1C2
102
}
 70
     0
280
     1
281
     0
  0
BLOCK_RECORD
  5
21A
330
1
100
AcDbSymbolTableRecord
100
AcDbBlockTableRecord
  2
CustomObjectsInViewport8_0
340
0
102
{BLKREFS
331
218
102
}
 70
     0
280
     1
281
     0
  0
ENDTAB
  0
ENDSEC
  0
SECTION
  2
BLOCKS
  0
BLOCK
  5
71
330
70
100
AcDbEntity
  8
0
100
AcDbBlockBegin
  2
*Model_Space
 70
     0
 10
0.0
 20
0.0
 30
0.0
  3
*Model_Space
  1

  0
ENDBLK
  5
72
330
70
100
AcDbEntity
  8
0
100
AcDbBlockEnd
  0
BLOCK
  5
6D
330
6C
100
AcDbEntity
 67
     1
  8
0
100
AcDbBlockBegin
  2
*Paper_Space
 70
     0
 10
0.0
 20
0.0
 30
0.0
  3
*Paper_Space
  1

  0
ENDBLK
  5
6E
330
6C
100
AcDbEntity
 67
     1
  8
0
100
AcDbBlockEnd
  0
BLOCK
  5
75
330
74
100
AcDbEntity
 67
     1
  8
0
100
AcDbBlockBegin
  2
*Paper_Space0
 70
     0
 10
0.0
 20
0.0
 30
0.0
  3
*Paper_Space0
  1

  0
ENDBLK
  5
76
330
74
100
AcDbEntity
 67
     1
  8
0
100
AcDbBlockEnd
  0
BLOCK
  5
82
330
81
100
AcDbEntity
  8
0
100
AcDbBlockBegin
  2
CustomObjectsInViewport4_0
 70
     0
 10
0.0
 20
0.0
 30
0.0
  3
CustomObjectsInViewport4_0
  1

  0
LINE
  5
83
330
81
100
AcDbEntity
  8
MD_可視
100
AcDbLine
 10
122.2917607651834
 20
77.61748101192825
 30
0.0
 11
122.2917607651834
 21
76.75987731535497
 31
0.0
  0
LINE
  5
85
330
81
100
AcDbEntity
  8
MD_狭い可視
100
AcDbLine
 10
122.2917607651834
 20
77.61748101192825
 30
0.0
 11
121.891349005893
 21
77.61748101192825
 31
0.0
  0
LINE
  5
87
330
81
100
AcDbEntity
  8
MD_可視
100
AcDbLine
 10
121.891349005893
 20
77.61748101192825
 30
0.0
 11
121.891349005893
 21
76.75987731535497
 31
0.0
  0
LINE
  5
88
330
81
100
AcDbEntity
  8
MD_可視
100
AcDbLine
 10
122.2917607651834
 20
78.01833857604652
 30
-0.0000000000000009
 11
122.2917607651834
 21
77.61748101192825
 31
0.0
  0
LINE
  5
89
330
81
100
AcDbEntity
  8
MD_狭い可視
100
AcDbLine
 10
122.2917607651834
 20
78.01833857604652
 30
-0.0000000000000009
 11
121.891349005893
 21
78.01833857604652
 31
-0.0000000000000009
  0
LINE
  5
8A
330
81
100
AcDbEntity
  8
MD_可視
100
AcDbLine
 10
121.891349005893
 20
78.01833857604652
 30
-0.0000000000000009
 11
121.891349005893
 21
77.61748101192825
 31
0.0
  0
LINE
  5
8B
330
81
100
AcDbEntity
  8
MD_可視
100
AcDbLine
 10
121.891349005893
 20
78.61987731535555
 30
0.0000000000000009
 11
121.891349005893
 21
78.01833857604652
 31
-0.0000000000000009
  0
LINE
  5
8C
330
81
100
AcDbEntity
  8
MD_可視
100
AcDbLine
 10
122.2917607651834
 20
78.61987731535555
 30
-0.0000000000000009
 11
122.2917607651834
 21
78.01833857604652
 31
-0.0000000000000009
  0
LINE
  5
8D
330
81
100
AcDbEntity
  8
MD_可視
100
AcDbLine
 10
128.9933490058938
 20
78.61987731535555
 30
0.0000000000000009
 11
128.9933490058938
 21
76.76554089700402
 31
0.0
  0
LINE
  5
8E
330
81
100
AcDbEntity
  8
MD_可視
100
AcDbLine
 10
129.0013490058936
 20
76.76554089700402
 30
0.0
 11
128.9933490058938
 21
76.76554089700402
 31
0.0
  0
LINE
  5
8F
330
81
100
AcDbEntity
  8
MD_可視
100
AcDbLine
 10
128.9933490058938
 20
76.76554089700402
 30
0.0
 11
128.9933490058938
 21
76.75987731535497
 31
0.0
  0
LINE
  5
90
330
81
100
AcDbEntity
  8
MD_可視
100
AcDbLine
 10
128.3857607651844
 20
77.61748101192825
 30
0.0
 11
128.3857607651844
 21
76.75987731535497
 31
0.0
  0
LINE
  5
91
330
81
100
AcDbEntity
  8
MD_狭い可視
100
AcDbLine
 10
128.3857607651844
 20
77.61748101192825
 30
0.0
 11
127.9853490058922
 21
77.61748101192825
 31
0.0
  0
LINE
  5
92
330
81
100
AcDbEntity
  8
MD_可視
100
AcDbLine
 10
127.9853490058922
 20
77.61748101192825
 30
0.0
 11
127.9853490058922
 21
76.75987731535497
 31
0.0
  0
LINE
  5
93
330
81
100
AcDbEntity
  8
MD_可視
100
AcDbLine
 10
128.3857607651844
 20
78.01833857604652
 30
0.0000000000000009
 11
128.3857607651844
 21
77.61748101192825
 31
0.0
  0
LINE
  5
94
330
81
100
AcDbEntity
  8
MD_狭い可視
100
AcDbLine
 10
128.3857607651844
 20
78.01833857604652
 30
0.0000000000000009
 11
127.9853490058922
 21
78.01833857604652
 31
0.0000000000000009
  0
LINE
  5
95
330
81
100
AcDbEntity
  8
MD_可視
100
AcDbLine
 10
127.9853490058922
 20
78.01833857604652
 30
0.0000000000000009
 11
127.9853490058922
 21
77.61748101192825
 31
0.0
  0
LINE
  5
96
330
81
100
AcDbEntity
  8
MD_可視
100
AcDbLine
 10
127.9853490058922
 20
78.61987731535555
 30
-0.0000000000000009
 11
127.9853490058922
 21
78.01833857604652
 31
-0.0000000000000009
  0
LINE
  5
97
330
81
100
AcDbEntity
  8
MD_可視
100
AcDbLine
 10
128.3857607651844
 20
78.61987731535555
 30
-0.0000000000000009
 11
128.3857607651844
 21
78.01833857604652
 31
-0.0000000000000009
  0
LINE
  5
98
330
81
100
AcDbEntity
  8
MD_可視
100
AcDbLine
 10
122.8993490058928
 20
76.76554089700402
 30
0.0
 11
122.8993490058928
 21
76.75987731535497
 31
0.0
  0
LINE
  5
99
330
81
100
AcDbEntity
  8
MD_可視
100
AcDbLine
 10
122.8993490058928
 20
78.61987731535555
 30
-0.0000000000000009
 11
122.8993490058928
 21
76.76554089700402
 31
0.0
  0
LINE
  5
9A
330
81
100
AcDbEntity
  8
MD_可視
100
AcDbLine
 10
122.9073490058927
 20
76.76554089700402
 30
0.0
 11
122.8993490058928
 21
76.76554089700402
 31
0.0
  0
LINE
  5
9B
330
81
100
AcDbEntity
  8
MD_可視
100
AcDbLine
 10
126.3537607651833
 20
77.61748101192825
 30
0.0
 11
126.3537607651833
 21
76.75987731535497
 31
0.0
  0
LINE
  5
9C
330
81
100
AcDbEntity
  8
MD_狭い可視
100
AcDbLine
 10
126.3537607651833
 20
77.61748101192825
 30
0.0
 11
125.9533490058929
 21
77.61748101192825
 31
0.0
  0
LINE
  5
9D
330
81
100
AcDbEntity
  8
MD_可視
100
AcDbLine
 10
125.9533490058929
 20
77.61748101192825
 30
0.0
 11
125.9533490058929
 21
76.75987731535497
 31
0.0
  0
LINE
  5
9E
330
81
100
AcDbEntity
  8
MD_可視
100
AcDbLine
 10
126.3537607651833
 20
78.01833857604652
 30
0.0000000000000009
 11
126.3537607651833
 21
77.61748101192825
 31
0.0
  0
LINE
  5
9F
330
81
100
AcDbEntity
  8
MD_狭い可視
100
AcDbLine
 10
126.3537607651833
 20
78.01833857604652
 30
0.0000000000000009
 11
125.9533490058929
 21
78.01833857604652
 31
0.0000000000000009
  0
LINE
  5
A0
330
81
100
AcDbEntity
  8
MD_可視
100
AcDbLine
 10
125.9533490058929
 20
78.01833857604652
 30
0.0000000000000009
 11
125.9533490058929
 21
77.61748101192825
 31
0.0
  0
LINE
  5
A1
330
81
100
AcDbEntity
  8
MD_可視
100
AcDbLine
 10
126.3537607651833
 20
78.61987731535555
 30
-0.0000000000000009
 11
126.3537607651833
 21
78.01833857604652
 31
-0.0000000000000009
  0
LINE
  5
A2
330
81
100
AcDbEntity
  8
MD_可視
100
AcDbLine
 10
125.9533490058929
 20
78.61987731535555
 30
0.0000000000000009
 11
125.9533490058929
 21
78.01833857604652
 31
0.0000000000000009
  0
LINE
  5
A3
330
81
100
AcDbEntity
  8
MD_可視
100
AcDbLine
 10
124.9313490058939
 20
76.76554089700402
 30
0.0
 11
124.9313490058939
 21
76.75987731535497
 31
0.0
  0
LINE
  5
A4
330
81
100
AcDbEntity
  8
MD_可視
100
AcDbLine
 10
124.9313490058939
 20
78.61987731535555
 30
-0.0000000000000009
 11
124.9313490058939
 21
76.76554089700402
 31
0.0
  0
LINE
  5
A5
330
81
100
AcDbEntity
  8
MD_可視
100
AcDbLine
 10
124.9373490058933
 20
76.76554089700402
 30
0.0
 11
124.9313490058939
 21
76.76554089700402
 31
0.0
  0
LINE
  5
A6
330
81
100
AcDbEntity
  8
MD_可視
100
AcDbLine
 10
124.3217607651841
 20
77.61748101192825
 30
0.0
 11
124.3217607651841
 21
76.75987731535497
 31
0.0
  0
LINE
  5
A7
330
81
100
AcDbEntity
  8
MD_狭い可視
100
AcDbLine
 10
124.3217607651841
 20
77.61748101192825
 30
0.0
 11
123.9213490058937
 21
77.61748101192825
 31
0.0
  0
LINE
  5
A8
330
81
100
AcDbEntity
  8
MD_可視
100
AcDbLine
 10
123.9213490058937
 20
77.61748101192825
 30
0.0
 11
123.9213490058937
 21
76.75987731535497
 31
0.0
  0
LINE
  5
A9
330
81
100
AcDbEntity
  8
MD_可視
100
AcDbLine
 10
124.3217607651841
 20
78.01833857604652
 30
0.0000000000000009
 11
124.3217607651841
 21
77.61748101192825
 31
0.0
  0
LINE
  5
AA
330
81
100
AcDbEntity
  8
MD_狭い可視
100
AcDbLine
 10
124.3217607651841
 20
78.01833857604652
 30
0.0000000000000009
 11
123.9213490058937
 21
78.01833857604652
 31
0.0000000000000009
  0
LINE
  5
AB
330
81
100
AcDbEntity
  8
MD_可視
100
AcDbLine
 10
123.9213490058937
 20
78.01833857604652
 30
0.0000000000000009
 11
123.9213490058937
 21
77.61748101192825
 31
0.0
  0
LINE
  5
AC
330
81
100
AcDbEntity
  8
MD_可視
100
AcDbLine
 10
123.9213490058937
 20
78.61987731535555
 30
-0.0000000000000009
 11
123.9213490058937
 21
78.01833857604652
 31
0.0000000000000009
  0
LINE
  5
AD
330
81
100
AcDbEntity
  8
MD_可視
100
AcDbLine
 10
124.3217607651841
 20
78.61987731535555
 30
-0.0000000000000009
 11
124.3217607651841
 21
78.01833857604652
 31
0.0000000000000009
  0
LINE
  5
AE
330
81
100
AcDbEntity
  8
MD_可視
100
AcDbLine
 10
126.9633490058932
 20
76.76554089700402
 30
0.0
 11
126.9633490058932
 21
76.75987731535497
 31
0.0
  0
LINE
  5
AF
330
81
100
AcDbEntity
  8
MD_可視
100
AcDbLine
 10
126.9633490058932
 20
78.61987731535555
 30
0.0000000000000009
 11
126.9633490058932
 21
76.76554089700402
 31
0.0
  0
LINE
  5
B0
330
81
100
AcDbEntity
  8
MD_可視
100
AcDbLine
 10
126.9693490058926
 20
76.76554089700402
 30
0.0
 11
126.9633490058932
 21
76.76554089700402
 31
0.0
  0
LINE
  5
B1
330
81
100
AcDbEntity
  8
MD_可視
100
AcDbLine
 10
123.3077607651848
 20
77.87733195938926
 30
0.0000000000000009
 11
123.3077607651848
 21
77.47647439527099
 31
0.0
  0
LINE
  5
B2
330
81
100
AcDbEntity
  8
MD_狭い可視
100
AcDbLine
 10
123.3077607651848
 20
77.87733195938926
 30
0.0000000000000009
 11
122.9073490058927
 21
77.87733195938926
 31
0.0000000000000009
  0
LINE
  5
B3
330
81
100
AcDbEntity
  8
MD_可視
100
AcDbLine
 10
122.9073490058927
 20
77.87733195938926
 30
0.0000000000000009
 11
122.9073490058927
 21
77.47647439527099
 31
0.0
  0
LINE
  5
B4
330
81
100
AcDbEntity
  8
MD_狭い可視
100
AcDbLine
 10
123.3077607651848
 20
77.47647439527099
 30
0.0
 11
122.9073490058927
 21
77.47647439527099
 31
0.0
  0
LINE
  5
B5
330
81
100
AcDbEntity
  8
MD_可視
100
AcDbLine
 10
123.3077607651848
 20
77.47647439527099
 30
0.0
 11
123.3077607651848
 21
76.75987731535497
 31
0.0
  0
LINE
  5
B6
330
81
100
AcDbEntity
  8
MD_可視
100
AcDbLine
 10
122.9073490058927
 20
77.47647439527099
 30
0.0
 11
122.9073490058927
 21
76.75987731535497
 31
0.0
  0
LINE
  5
B7
330
81
100
AcDbEntity
  8
MD_可視
100
AcDbLine
 10
122.9073490058927
 20
78.61987731535555
 30
0.0000000000000009
 11
122.9073490058927
 21
77.87733195938926
 31
0.0000000000000009
  0
LINE
  5
B8
330
81
100
AcDbEntity
  8
MD_可視
100
AcDbLine
 10
123.3077607651848
 20
78.61987731535555
 30
0.0000000000000009
 11
123.3077607651848
 21
77.87733195938926
 31
0.0000000000000009
  0
LINE
  5
B9
330
81
100
AcDbEntity
  8
MD_可視
100
AcDbLine
 10
127.9773490058924
 20
76.78487730599409
 30
0.0
 11
127.9773490058924
 21
76.75987731535497
 31
0.0
  0
LINE
  5
BA
330
81
100
AcDbEntity
  8
MD_可視
100
AcDbLine
 10
127.9773490058924
 20
78.61987731535555
 30
0.0000000000000009
 11
127.9773490058924
 21
76.78487730599409
 31
0.0
  0
LINE
  5
BB
330
81
100
AcDbEntity
  8
MD_可視
100
AcDbLine
 10
127.9853490058922
 20
76.78487730599409
 30
0.0
 11
127.9773490058924
 21
76.78487730599409
 31
0.0
  0
LINE
  5
BC
330
81
100
AcDbEntity
  8
MD_可視
100
AcDbLine
 10
129.401760765184
 20
77.87733195938926
 30
0.0000000000000009
 11
129.401760765184
 21
77.47647439527099
 31
0.0
  0
LINE
  5
BD
330
81
100
AcDbEntity
  8
MD_狭い可視
100
AcDbLine
 10
129.401760765184
 20
77.87733195938926
 30
0.0000000000000009
 11
129.0013490058936
 21
77.87733195938926
 31
0.0000000000000009
  0
LINE
  5
BE
330
81
100
AcDbEntity
  8
MD_可視
100
AcDbLine
 10
129.0013490058936
 20
77.87733195938926
 30
0.0000000000000009
 11
129.0013490058936
 21
77.47647439527099
 31
0.0
  0
LINE
  5
BF
330
81
100
AcDbEntity
  8
MD_狭い可視
100
AcDbLine
 10
129.401760765184
 20
77.47647439527099
 30
0.0
 11
129.0013490058936
 21
77.47647439527099
 31
0.0
  0
LINE
  5
C0
330
81
100
AcDbEntity
  8
MD_可視
100
AcDbLine
 10
129.401760765184
 20
77.47647439527099
 30
0.0
 11
129.401760765184
 21
76.75987731535497
 31
0.0
  0
LINE
  5
C1
330
81
100
AcDbEntity
  8
MD_可視
100
AcDbLine
 10
129.0013490058936
 20
77.47647439527099
 30
0.0
 11
129.0013490058936
 21
76.75987731535497
 31
0.0
  0
LINE
  5
C2
330
81
100
AcDbEntity
  8
MD_可視
100
AcDbLine
 10
129.0013490058936
 20
78.61987731535555
 30
-0.0000000000000009
 11
129.0013490058936
 21
77.87733195938926
 31
0.0000000000000009
  0
LINE
  5
C3
330
81
100
AcDbEntity
  8
MD_可視
100
AcDbLine
 10
129.401760765184
 20
78.61987731535555
 30
-0.0000000000000009
 11
129.401760765184
 21
77.87733195938926
 31
0.0000000000000009
  0
LINE
  5
C4
330
81
100
AcDbEntity
  8
MD_可視
100
AcDbLine
 10
121.8833490058932
 20
76.78487730599409
 30
0.0
 11
121.8833490058932
 21
76.75987731535497
 31
0.0
  0
LINE
  5
C5
330
81
100
AcDbEntity
  8
MD_可視
100
AcDbLine
 10
121.8833490058932
 20
78.61987731535555
 30
0.0000000000000009
 11
121.8833490058932
 21
76.78487730599409
 31
0.0
  0
LINE
  5
C6
330
81
100
AcDbEntity
  8
MD_可視
100
AcDbLine
 10
121.891349005893
 20
76.78487730599409
 30
0.0
 11
121.8833490058932
 21
76.78487730599409
 31
0.0
  0
LINE
  5
C7
330
81
100
AcDbEntity
  8
MD_可視
100
AcDbLine
 10
127.3697607651847
 20
77.87733195938926
 30
0.0000000000000009
 11
127.3697607651847
 21
77.47647439527099
 31
0.0
  0
LINE
  5
C8
330
81
100
AcDbEntity
  8
MD_狭い可視
100
AcDbLine
 10
127.3697607651847
 20
77.87733195938926
 30
0.0000000000000009
 11
126.9693490058926
 21
77.87733195938926
 31
0.0000000000000009
  0
LINE
  5
C9
330
81
100
AcDbEntity
  8
MD_可視
100
AcDbLine
 10
126.9693490058926
 20
77.87733195938926
 30
0.0000000000000009
 11
126.9693490058926
 21
77.47647439527099
 31
0.0
  0
LINE
  5
CA
330
81
100
AcDbEntity
  8
MD_狭い可視
100
AcDbLine
 10
127.3697607651847
 20
77.47647439527099
 30
0.0
 11
126.9693490058926
 21
77.47647439527099
 31
0.0
  0
LINE
  5
CB
330
81
100
AcDbEntity
  8
MD_可視
100
AcDbLine
 10
127.3697607651847
 20
77.47647439527099
 30
0.0
 11
127.3697607651847
 21
76.75987731535497
 31
0.0
  0
LINE
  5
CC
330
81
100
AcDbEntity
  8
MD_可視
100
AcDbLine
 10
126.9693490058926
 20
77.47647439527099
 30
0.0
 11
126.9693490058926
 21
76.75987731535497
 31
0.0
  0
LINE
  5
CD
330
81
100
AcDbEntity
  8
MD_可視
100
AcDbLine
 10
126.9693490058926
 20
78.61987731535555
 30
-0.0000000000000009
 11
126.9693490058926
 21
77.87733195938926
 31
0.0000000000000009
  0
LINE
  5
CE
330
81
100
AcDbEntity
  8
MD_可視
100
AcDbLine
 10
127.3697607651847
 20
78.61987731535555
 30
-0.0000000000000009
 11
127.3697607651847
 21
77.87733195938926
 31
0.0000000000000009
  0
LINE
  5
CF
330
81
100
AcDbEntity
  8
MD_可視
100
AcDbLine
 10
123.9153490058925
 20
76.78487730599409
 30
0.0
 11
123.9153490058925
 21
76.75987731535497
 31
0.0
  0
LINE
  5
D0
330
81
100
AcDbEntity
  8
MD_可視
100
AcDbLine
 10
123.9153490058925
 20
78.61987731535555
 30
0.0000000000000009
 11
123.9153490058925
 21
76.78487730599409
 31
0.0
  0
LINE
  5
D1
330
81
100
AcDbEntity
  8
MD_可視
100
AcDbLine
 10
123.9213490058937
 20
76.78487730599409
 30
0.0
 11
123.9153490058925
 21
76.78487730599409
 31
0.0
  0
LINE
  5
D2
330
81
100
AcDbEntity
  8
MD_可視
100
AcDbLine
 10
125.3377607651837
 20
77.87733195938926
 30
0.0000000000000009
 11
125.3377607651837
 21
77.47647439527099
 31
0.0
  0
LINE
  5
D3
330
81
100
AcDbEntity
  8
MD_狭い可視
100
AcDbLine
 10
125.3377607651837
 20
77.87733195938926
 30
0.0000000000000009
 11
124.9373490058933
 21
77.87733195938926
 31
0.0000000000000009
  0
LINE
  5
D4
330
81
100
AcDbEntity
  8
MD_可視
100
AcDbLine
 10
124.9373490058933
 20
77.87733195938926
 30
0.0000000000000009
 11
124.9373490058933
 21
77.47647439527099
 31
0.0
  0
LINE
  5
D5
330
81
100
AcDbEntity
  8
MD_狭い可視
100
AcDbLine
 10
125.3377607651837
 20
77.47647439527099
 30
0.0
 11
124.9373490058933
 21
77.47647439527099
 31
0.0
  0
LINE
  5
D6
330
81
100
AcDbEntity
  8
MD_可視
100
AcDbLine
 10
125.3377607651837
 20
77.47647439527099
 30
0.0
 11
125.3377607651837
 21
76.75987731535497
 31
0.0
  0
LINE
  5
D7
330
81
100
AcDbEntity
  8
MD_可視
100
AcDbLine
 10
124.9373490058933
 20
77.47647439527099
 30
0.0
 11
124.9373490058933
 21
76.75987731535497
 31
0.0
  0
LINE
  5
D8
330
81
100
AcDbEntity
  8
MD_可視
100
AcDbLine
 10
124.9373490058933
 20
78.61987731535555
 30
-0.0000000000000009
 11
124.9373490058933
 21
77.87733195938926
 31
-0.0000000000000009
  0
LINE
  5
D9
330
81
100
AcDbEntity
  8
MD_可視
100
AcDbLine
 10
125.3377607651837
 20
78.61987731535555
 30
-0.0000000000000009
 11
125.3377607651837
 21
77.87733195938926
 31
0.0000000000000009
  0
LINE
  5
DA
330
81
100
AcDbEntity
  8
MD_可視
100
AcDbLine
 10
125.9473490058935
 20
76.78487730599409
 30
0.0
 11
125.9473490058935
 21
76.75987731535497
 31
0.0
  0
LINE
  5
DB
330
81
100
AcDbEntity
  8
MD_可視
100
AcDbLine
 10
125.9473490058935
 20
78.61987731535555
 30
0.0000000000000009
 11
125.9473490058935
 21
76.78487730599409
 31
0.0
  0
LINE
  5
DC
330
81
100
AcDbEntity
  8
MD_可視
100
AcDbLine
 10
125.9533490058929
 20
76.78487730599409
 30
0.0
 11
125.9473490058935
 21
76.78487730599409
 31
0.0
  0
SPLINE
  5
DD
330
81
100
AcDbEntity
  8
MD_可視
100
AcDbSpline
210
0.0
220
0.0
230
1.0
 70
     8
 71
     3
 72
    16
 73
    12
 74
     0
 42
0.000000001
 43
0.0000000001
 40
0.1915318358489329
 40
0.1915318358489329
 40
0.1915318358489329
 40
0.1915318358489329
 40
0.2082705684396541
 40
0.2082705684396541
 40
0.2275257099282557
 40
0.2275257099282557
 40
0.2406900412251766
 40
0.2406900412251766
 40
0.2472722068736371
 40
0.2472722068736371
 40
0.2538543725220976
 40
0.2538543725220976
 40
0.2538543725220976
 40
0.2538543725220976
 10
129.9586711469746
 20
86.72582980580591
 30
0.0
 10
129.9191682865621
 20
86.72804527834705
 30
0.0
 10
129.8769398872537
 20
86.73761826843474
 30
0.0
 10
129.7890555023295
 20
86.77563082707456
 30
0.0
 10
129.7438234094679
 20
86.80656198756697
 30
0.0
 10
129.6811761170083
 20
86.87309234526583
 30
0.0
 10
129.6564721427658
 20
86.907691529761
 30
0.0
 10
129.6303383249924
 20
86.96703359228923
 30
0.0
 10
129.623395158329
 20
86.98804921911506
 30
0.0
 10
129.6140704885165
 20
87.03123725437036
 30
0.0
 10
129.6116892967839
 20
87.05340959080785
 30
0.0
 10
129.6116892967839
 20
87.07535014296992
 30
0.0
  0
LINE
  5
DE
330
81
100
AcDbEntity
  8
MD_狭い可視
100
AcDbLine
 10
129.6116892967839
 20
87.07535014296992
 30
-0.0000000000000009
 11
121.6734204742934
 21
87.07535014296992
 31
-0.0000000000000009
  0
SPLINE
  5
DF
330
81
100
AcDbEntity
  8
MD_可視
100
AcDbSpline
210
0.0
220
0.0
230
1.0
 70
     8
 71
     3
 72
    16
 73
    12
 74
     0
 42
0.000000001
 43
0.0000000001
 40
0.0
 40
0.0
 40
0.0
 40
0.0
 40
0.0065821656484605
 40
0.0065821656484605
 40
0.013164331296921
 40
0.013164331296921
 40
0.026328662593842
 40
0.026328662593842
 40
0.0455838040824435
 40
0.0455838040824435
 40
0.0623225366731647
 40
0.0623225366731647
 40
0.0623225366731647
 40
0.0623225366731647
 10
121.6734204742934
 20
87.07535014296992
 30
0.0
 10
121.6734204742934
 20
87.05340959080785
 30
0.0
 10
121.6710392825607
 20
87.03123725437036
 30
0.0
 10
121.6617146127482
 20
86.98804921911506
 30
0.0
 10
121.6547714460848
 20
86.96703359228923
 30
0.0
 10
121.6286376283115
 20
86.907691529761
 30
0.0
 10
121.6039336540689
 20
86.87309234526583
 30
0.0
 10
121.5412863616093
 20
86.80656198756697
 30
0.0
 10
121.4960542687476
 20
86.77563082707456
 30
0.0
 10
121.4081698838235
 20
86.73761826843474
 30
0.0
 10
121.3659414845151
 20
86.72804527834705
 30
0.0
 10
121.3264386241026
 20
86.72582980580591
 30
0.0
  0
LINE
  5
E0
330
81
100
AcDbEntity
  8
MD_狭い可視
100
AcDbLine
 10
129.9586711469746
 20
86.72582980580591
 30
-0.0000000000000009
 11
121.3264386241026
 21
86.72582980580591
 31
-0.0000000000000009
  0
LINE
  5
E1
330
81
100
AcDbEntity
  8
MD_可視
100
AcDbLine
 10
124.5425548855382
 20
70.11987731535555
 30
0.0
 11
124.5425548855382
 21
68.71987731476838
 31
0.0
  0
LINE
  5
E2
330
81
100
AcDbEntity
  8
MD_可視
100
AcDbLine
 10
124.5425548855382
 20
70.11987731535555
 30
0.0
 11
126.742554885539
 21
70.11987731535555
 31
0.0
  0
LINE
  5
E3
330
81
100
AcDbEntity
  8
MD_可視
100
AcDbLine
 10
126.742554885539
 20
70.11987731535555
 30
0.0
 11
126.742554885539
 21
68.71987731476838
 31
0.0
  0
LINE
  5
E4
330
81
100
AcDbEntity
  8
MD_可視
100
AcDbLine
 10
127.5425548855382
 20
68.71987763476863
 30
0.0
 11
127.5425548855382
 21
70.41987731535482
 31
0.0
  0
LINE
  5
E5
330
81
100
AcDbEntity
  8
MD_可視
100
AcDbLine
 10
127.5425548855382
 20
70.41987731535482
 30
0.0
 11
123.742554885539
 21
70.41987731535482
 31
0.0
  0
LINE
  5
E6
330
81
100
AcDbEntity
  8
MD_可視
100
AcDbLine
 10
123.742554885539
 20
70.41987731535482
 30
0.0
 11
123.742554885539
 21
68.71987763476863
 31
0.0
  0
LINE
  5
E7
330
81
100
AcDbEntity
  8
MD_可視
100
AcDbLine
 10
128.1425548855386
 20
66.51987731535519
 30
0.0
 11
123.1425548855386
 21
66.51987731535519
 31
0.0
  0
LINE
  5
E8
330
81
100
AcDbEntity
  8
MD_可視
100
AcDbLine
 10
123.1425548855386
 20
68.11987731535555
 30
-0.0000000000000009
 11
123.1425548855386
 21
66.51987731535519
 31
0.0
  0
LINE
  5
E9
330
81
100
AcDbEntity
  8
MD_可視
100
AcDbLine
 10
120.1425548855386
 20
68.11987731535555
 30
-0.0000000000000009
 11
120.1425548855386
 21
66.51987731535519
 31
0.0
  0
LINE
  5
EA
330
81
100
AcDbEntity
  8
MD_可視
100
AcDbLine
 10
123.1425548855386
 20
66.51987731535519
 30
0.0
 11
120.1425548855386
 21
66.51987731535519
 31
0.0
  0
LINE
  5
EB
330
81
100
AcDbEntity
  8
MD_可視
100
AcDbLine
 10
128.1425548855386
 20
66.51987731535519
 30
0.0
 11
128.1425548855386
 21
68.11987731535555
 31
0.0000000000000009
  0
LINE
  5
EC
330
81
100
AcDbEntity
  8
MD_可視
100
AcDbLine
 10
131.1425548855386
 20
66.51987731535519
 30
0.0
 11
128.1425548855386
 21
66.51987731535519
 31
0.0
  0
LINE
  5
ED
330
81
100
AcDbEntity
  8
MD_可視
100
AcDbLine
 10
131.1425548855386
 20
68.11987731535555
 30
-0.0000000000000009
 11
131.1425548855386
 21
66.51987731535519
 31
0.0
  0
LINE
  5
EE
330
81
100
AcDbEntity
  8
MD_可視
100
AcDbLine
 10
131.5925548855393
 20
78.61987731535555
 30
0.0000000000000009
 11
119.6925548855379
 21
78.61987731535555
 31
0.0000000000000009
  0
LINE
  5
EF
330
81
100
AcDbEntity
  8
MD_可視
100
AcDbLine
 10
123.6425548855386
 20
87.91987731535483
 30
-0.0000000000000009
 11
127.6425548855386
 21
87.91987731535483
 31
-0.0000000000000009
  0
LINE
  5
F0
330
81
100
AcDbEntity
  8
MD_可視
100
AcDbLine
 10
127.6425548855386
 20
89.31987731535446
 30
0.0
 11
123.6425548855386
 21
89.31987731535446
 31
0.0
  0
LINE
  5
F1
330
81
100
AcDbEntity
  8
MD_可視
100
AcDbLine
 10
120.1425548855386
 20
89.31987731535446
 30
0.0
 11
120.1425548855386
 21
86.63307043423264
 31
0.0
  0
LINE
  5
F2
330
81
100
AcDbEntity
  8
MD_可視
100
AcDbLine
 10
120.1425548855386
 20
85.11987731535555
 30
0.0
 11
120.1425548855386
 21
84.11987731535555
 31
0.0
  0
LINE
  5
F3
330
81
100
AcDbEntity
  8
MD_可視
100
AcDbLine
 10
120.1425548855386
 20
86.61987731535555
 30
0.0
 11
120.1425548855386
 21
85.11987731535555
 31
0.0
  0
LINE
  5
F4
330
81
100
AcDbEntity
  8
MD_可視
100
AcDbLine
 10
120.1425548855386
 20
86.63307043423264
 30
0.0
 11
120.1425548855386
 21
86.61987731535555
 31
0.0
  0
LINE
  5
F5
330
81
100
AcDbEntity
  8
MD_可視
100
AcDbLine
 10
120.1425548855386
 20
89.31987731535446
 30
0.0
 11
120.1434640513562
 21
89.31987731535446
 31
0.0
  0
LINE
  5
F6
330
81
100
AcDbEntity
  8
MD_可視
100
AcDbLine
 10
123.6425548855386
 20
89.31987731535446
 30
0.0
 11
120.1434640513562
 21
89.31987731535446
 31
0.0
  0
LINE
  5
F7
330
81
100
AcDbEntity
  8
MD_可視
100
AcDbLine
 10
131.141645719721
 20
89.31987731535446
 30
0.0
 11
127.6425548855386
 21
89.31987731535446
 31
0.0
  0
LINE
  5
F8
330
81
100
AcDbEntity
  8
MD_可視
100
AcDbLine
 10
131.141645719721
 20
89.31987731535446
 30
0.0
 11
131.1425548855386
 21
89.31987731535446
 31
0.0
  0
LINE
  5
F9
330
81
100
AcDbEntity
  8
MD_狭い可視
100
AcDbLine
 10
129.724961162603
 20
87.32283751638533
 30
0.0000000000000009
 11
121.5601486084742
 21
87.32283751638533
 31
0.0000000000000009
  0
ELLIPSE
  5
FA
330
81
100
AcDbEntity
  8
MD_可視
100
AcDbEllipse
 10
125.6425548855313
 20
91.71987731482113
 30
0.0
 11
6.000000000007001
 21
0.0000000000045763
 31
0.0
210
0.0
220
0.0
230
1.0
 40
1.0
 41
-0.8224865817378091
 42
-0.41151684597013
  0
LINE
  5
FB
330
81
100
AcDbEntity
  8
MD_可視
100
AcDbLine
 10
127.6425548855386
 20
87.91987731535483
 30
-0.0000000000000009
 11
127.6425548855386
 21
89.31987731535446
 31
0.0
  0
LINE
  5
FC
330
81
100
AcDbEntity
  8
MD_可視
100
AcDbLine
 10
123.6425548855386
 20
89.31987731535446
 30
0.0
 11
123.6425548855386
 21
87.91987731535483
 31
-0.0000000000000009
  0
ELLIPSE
  5
FD
330
81
100
AcDbEntity
  8
MD_可視
100
AcDbEllipse
 10
125.6425548855222
 20
91.71987731480475
 30
0.0
 11
3.38697315124568
 21
-4.952616770216428
 31
0.0
210
0.0
220
0.0
230
1.0
 40
0.9999999999983723
 41
4.524083862095991
 42
4.935053597864627
  0
LINE
  5
FE
330
81
100
AcDbEntity
  8
MD_可視
100
AcDbLine
 10
132.5425548855382
 20
84.11987731535555
 30
0.0000000000000009
 11
118.742554885539
 21
84.11987731535555
 31
0.0000000000000009
  0
LINE
  5
FF
330
81
100
AcDbEntity
  8
MD_可視
100
AcDbLine
 10
118.742554885539
 20
68.11987731535555
 30
0.0000000000000009
 11
132.5425548855382
 21
68.11987731535555
 31
0.0000000000000009
  0
LINE
  5
100
330
81
100
AcDbEntity
  8
MD_可視
100
AcDbLine
 10
122.3975548855378
 20
78.4698773153541
 30
0.0
 11
122.8375548855383
 21
78.4698773153541
 31
0.0
  0
LINE
  5
101
330
81
100
AcDbEntity
  8
MD_可視
100
AcDbLine
 10
120.6925548855379
 20
78.4698773153541
 30
0.0
 11
121.787554885539
 21
78.4698773153541
 31
0.0
  0
LINE
  5
102
330
81
100
AcDbEntity
  8
MD_可視
100
AcDbLine
 10
128.4475548855389
 20
78.4698773153541
 30
0.0
 11
128.8875548855394
 21
78.4698773153541
 31
0.0
  0
LINE
  5
103
330
81
100
AcDbEntity
  8
MD_可視
100
AcDbLine
 10
129.4975548855382
 20
78.4698773153541
 30
0.0
 11
130.5925548855393
 21
78.4698773153541
 31
0.0
  0
LINE
  5
104
330
81
100
AcDbEntity
  8
MD_可視
100
AcDbLine
 10
123.4475548855389
 20
78.4698773153541
 30
0.0
 11
123.8375548855383
 21
78.4698773153541
 31
0.0
  0
LINE
  5
105
330
81
100
AcDbEntity
  8
MD_可視
100
AcDbLine
 10
124.4475548855389
 20
78.4698773153541
 30
0.0
 11
124.8375548855383
 21
78.4698773153541
 31
0.0
  0
LINE
  5
106
330
81
100
AcDbEntity
  8
MD_可視
100
AcDbLine
 10
125.4475548855389
 20
78.4698773153541
 30
0.0
 11
125.8375548855383
 21
78.4698773153541
 31
0.0
  0
LINE
  5
107
330
81
100
AcDbEntity
  8
MD_可視
100
AcDbLine
 10
126.4475548855389
 20
78.4698773153541
 30
0.0
 11
126.8375548855383
 21
78.4698773153541
 31
0.0
  0
LINE
  5
108
330
81
100
AcDbEntity
  8
MD_可視
100
AcDbLine
 10
127.4475548855389
 20
78.4698773153541
 30
0.0
 11
127.8375548855383
 21
78.4698773153541
 31
0.0
  0
LINE
  5
109
330
81
100
AcDbEntity
  8
MD_可視
100
AcDbLine
 10
118.3425548855393
 20
83.7198773153541
 30
0.0000000000000009
 11
118.3425548855393
 21
68.51987731535519
 31
-0.0000000000000009
  0
ARC
  5
10A
330
81
100
AcDbEntity
  8
MD_可視
100
AcDbCircle
 10
118.742554885539
 20
68.51987731535519
 30
0.0000000000000009
 40
0.4000000000000004
100
AcDbArc
 50
180.0
 51
270.0
  0
ARC
  5
10B
330
81
100
AcDbEntity
  8
MD_可視
100
AcDbCircle
 10
132.5425548855382
 20
68.51987731535519
 30
0.0000000000000009
 40
0.4000000000000004
100
AcDbArc
 50
270.0
 51
0.0
  0
LINE
  5
10C
330
81
100
AcDbEntity
  8
MD_可視
100
AcDbLine
 10
132.9425548855379
 20
68.51987731535519
 30
0.0000000000000009
 11
132.9425548855379
 21
83.7198773153541
 31
-0.0000000000000009
  0
ARC
  5
10D
330
81
100
AcDbEntity
  8
MD_可視
100
AcDbCircle
 10
132.5425548855382
 20
83.7198773153541
 30
0.0000000000000009
 40
0.4000000000000004
100
AcDbArc
 50
0.0
 51
90.0
  0
ARC
  5
10E
330
81
100
AcDbEntity
  8
MD_可視
100
AcDbCircle
 10
118.742554885539
 20
83.7198773153541
 30
0.0000000000000009
 40
0.4000000000000004
100
AcDbArc
 50
90.0
 51
180.0
  0
LINE
  5
10F
330
81
100
AcDbEntity
  8
MD_狭い可視
100
AcDbLine
 10
128.1425548855386
 20
69.51987731535519
 30
-0.0000000000000009
 11
128.1425548855386
 21
68.41987731535482
 31
-0.0000000000000009
  0
LINE
  5
110
330
81
100
AcDbEntity
  8
MD_可視
100
AcDbLine
 10
123.1425548855386
 20
68.41987731535482
 30
0.0000000000000009
 11
128.1425548855386
 21
68.41987731535482
 31
0.0000000000000009
  0
LINE
  5
111
330
81
100
AcDbEntity
  8
MD_狭い可視
100
AcDbLine
 10
123.1425548855386
 20
68.41987731535482
 30
0.0000000000000009
 11
123.1425548855386
 21
69.51987731535519
 31
0.0000000000000009
  0
LINE
  5
112
330
81
100
AcDbEntity
  8
MD_狭い可視
100
AcDbLine
 10
123.1425548855386
 20
69.51987731535519
 30
-0.0000000000000009
 11
121.992554885539
 21
69.51987731535519
 31
-0.0000000000000009
  0
LINE
  5
113
330
81
100
AcDbEntity
  8
MD_狭い可視
100
AcDbLine
 10
121.992554885539
 20
69.51987731535519
 30
-0.0000000000000009
 11
121.992554885539
 21
71.31987731535446
 31
-0.0000000000000009
  0
LINE
  5
114
330
81
100
AcDbEntity
  8
MD_狭い可視
100
AcDbLine
 10
121.992554885539
 20
71.31987731535446
 30
-0.0000000000000009
 11
119.1925548855379
 21
71.31987731535446
 31
-0.0000000000000009
  0
LINE
  5
115
330
81
100
AcDbEntity
  8
MD_狭い可視
100
AcDbLine
 10
119.1925548855379
 20
71.31987731535446
 30
-0.0000000000000009
 11
119.1925548855379
 21
79.11987731535555
 31
0.0000000000000009
  0
LINE
  5
116
330
81
100
AcDbEntity
  8
MD_狭い可視
100
AcDbLine
 10
119.1925548855379
 20
79.11987731535555
 30
0.0000000000000009
 11
132.0925548855393
 21
79.11987731535555
 31
0.0000000000000009
  0
LINE
  5
117
330
81
100
AcDbEntity
  8
MD_狭い可視
100
AcDbLine
 10
132.0925548855393
 20
79.11987731535555
 30
0.0000000000000009
 11
132.0925548855393
 21
71.31987731535446
 31
-0.0000000000000009
  0
LINE
  5
118
330
81
100
AcDbEntity
  8
MD_狭い可視
100
AcDbLine
 10
132.0925548855393
 20
71.31987731535446
 30
-0.0000000000000009
 11
129.2925548855382
 21
71.31987731535446
 31
-0.0000000000000009
  0
LINE
  5
119
330
81
100
AcDbEntity
  8
MD_狭い可視
100
AcDbLine
 10
129.2925548855382
 20
71.31987731535446
 30
-0.0000000000000009
 11
129.2925548855382
 21
69.51987731535519
 31
-0.0000000000000009
  0
LINE
  5
11A
330
81
100
AcDbEntity
  8
MD_狭い可視
100
AcDbLine
 10
129.2925548855382
 20
69.51987731535519
 30
-0.0000000000000009
 11
128.1425548855386
 21
69.51987731535519
 31
-0.0000000000000009
  0
SPLINE
  5
11B
330
81
100
AcDbEntity
  8
MD_可視
100
AcDbSpline
210
0.0
220
0.0
230
1.0
 70
     8
 71
     3
 72
    27
 73
    23
 74
     0
 42
0.000000001
 43
0.0000000001
 40
0.0
 40
0.0
 40
0.0
 40
0.0
 40
0.1053432609984029
 40
0.2043754661654296
 40
0.2980686612490652
 40
0.3870699389029774
 40
0.4297257277325172
 40
0.4709012389537424
 40
0.5111216710274206
 40
0.5501787824700683
 40
0.5883543698960266
 40
0.6266830105708977
 40
0.6644516852874775
 40
0.7025148539501574
 40
0.7404811716294033
 40
0.7776181215946419
 40
0.8147160450669577
 40
0.8515265100150823
 40
0.8880984508373167
 40
0.9251116757437154
 40
0.9621036957071503
 40
1.0
 40
1.0
 40
1.0
 40
1.0
 10
120.1425548855386
 20
81.49391577689312
 30
0.0
 10
120.1436618248863
 20
81.43315229355904
 30
0.0
 10
120.1458093874662
 20
81.31526563318221
 30
0.0
 10
120.1670005516316
 20
81.14442838980357
 30
0.0
 10
120.1993093873352
 20
80.98508322607631
 30
0.0
 10
120.2383014972547
 20
80.86076224897807
 30
0.0
 10
120.2774145012026
 20
80.76906075552688
 30
0.0
 10
120.3090471335526
 20
80.70484087716796
 30
0.0
 10
120.3451545214266
 20
80.64541491722229
 30
0.0
 10
120.3848385424844
 20
80.59044538842682
 30
0.0
 10
120.4286103685717
 20
80.54009263528133
 30
0.0
 10
120.4758601695321
 20
80.4940891804199
 30
0.0
 10
120.5265984996822
 20
80.45199236230109
 30
0.0
 10
120.5814265611261
 20
80.4157728094815
 30
0.0
 10
120.6382339528518
 20
80.38361300486394
 30
0.0
 10
120.6963038113445
 20
80.3550158924536
 30
0.0
 10
120.7556726980256
 20
80.33082972046031
 30
0.0
 10
120.8165801412797
 20
80.31204141085254
 30
0.0
 10
120.8781708376718
 20
80.29580569928294
 30
0.0
 10
120.9411231452504
 20
80.28519977048018
 30
0.0
 10
121.0054191124618
 20
80.27921411841452
 30
0.0
 10
121.048592264664
 20
80.27812218324653
 30
0.0
 10
121.0704395009233
 20
80.27756962304739
 30
0.0
  0
SPLINE
  5
11C
330
81
100
AcDbEntity
  8
MD_可視
100
AcDbSpline
210
0.0
220
0.0
230
1.0
 70
     8
 71
     3
 72
    23
 73
    19
 74
     0
 42
0.000000001
 43
0.0000000001
 40
0.0
 40
0.0
 40
0.0
 40
0.0
 40
0.0633358805656869
 40
0.1251107589802123
 40
0.1846884118917149
 40
0.2432104439678641
 40
0.3008880404131165
 40
0.3583701155312991
 40
0.4157614077031941
 40
0.4743866229897773
 40
0.5339662649724068
 40
0.5940075641988069
 40
0.6550724073076797
 40
0.7186100426051382
 40
0.7843747830517757
 40
0.8529914722129186
 40
0.9249004292977554
 40
1.0
 40
1.0
 40
1.0
 40
1.0
 10
121.0704395009233
 20
80.27756962304739
 30
0.0
 10
121.0965111859314
 20
80.27811640112123
 30
0.0
 10
121.1480119824791
 20
80.27919648115313
 30
0.0
 10
121.2235186895814
 20
80.28865048241641
 30
0.0
 10
121.2963061143091
 20
80.30258218987
 30
0.0
 10
121.3654924471848
 20
80.32408022127311
 30
0.0
 10
121.4320083225975
 20
80.35040204195865
 30
0.0
 10
121.495308756892
 20
80.38286145028541
 30
0.0
 10
121.5551946800042
 20
80.42190064465103
 30
0.0
 10
121.612370482022
 20
80.46622598288195
 30
0.0
 10
121.665781790638
 20
80.5166606432067
 30
0.0
 10
121.7147303836045
 20
80.57279829951585
 30
0.0
 10
121.7586428019076
 20
80.63489487516745
 30
0.0
 10
121.7993606639975
 20
80.70195381076883
 30
0.0
 10
121.8335711517047
 20
80.77597840441375
 30
0.0
 10
121.8652581410679
 20
80.85476230881978
 30
0.0
 10
121.8916620296186
 20
80.93960040745878
 30
0.0
 10
121.9049814201644
 20
80.99862084798042
 30
0.0
 10
121.9117856547691
 20
81.02877154612361
 30
0.0
  0
LINE
  5
11D
330
81
100
AcDbEntity
  8
MD_可視
100
AcDbLine
 10
121.9117856547691
 20
81.02877154612361
 30
0.0000000000000009
 11
122.3348625778471
 21
80.93021385381689
 31
0.0000000000000009
  0
SPLINE
  5
11E
330
81
100
AcDbEntity
  8
MD_可視
100
AcDbSpline
210
0.0
220
0.0
230
1.0
 70
     8
 71
     3
 72
    23
 73
    19
 74
     0
 42
0.000000001
 43
0.0000000001
 40
0.0
 40
0.0
 40
0.0
 40
0.0
 40
0.0715783870982367
 40
0.1400162090753557
 40
0.2061974399469811
 40
0.2701561038056541
 40
0.3320010402688308
 40
0.3927550109285567
 40
0.4525790344906387
 40
0.5122527988479045
 40
0.5715322524285599
 40
0.6301517528722199
 40
0.6887691695485564
 40
0.7481639008503606
 40
0.808703372199651
 40
0.8702562984804201
 40
0.9339000275070025
 40
1.0
 40
1.0
 40
1.0
 40
1.0
 10
122.3348625778471
 20
80.93021385381689
 30
0.0
 10
122.3242633199261
 20
80.89056002910366
 30
0.0
 10
122.3035298559134
 20
80.81299222635243
 30
0.0
 10
122.2625372790262
 20
80.70198411436285
 30
0.0
 10
122.2165281387242
 20
80.5978077363361
 30
0.0
 10
122.1643860449276
 20
80.50073751134732
 30
0.0
 10
122.1055403072205
 20
80.41133153290685
 30
0.0
 10
122.0415500999152
 20
80.32844076171931
 30
0.0
 10
121.9698808609901
 20
80.25380349568695
 30
0.0
 10
121.8931622204382
 20
80.18569714566911
 30
0.0
 10
121.8107968399035
 20
80.125627526686
 30
0.0
 10
121.7237777636746
 20
80.07375630870411
 30
0.0
 10
121.6325256232576
 20
80.02962443159232
 30
0.0
 10
121.536671605947
 20
79.99333308566747
 30
0.0
 10
121.4361535687458
 20
79.96602073632676
 30
0.0
 10
121.3314890806632
 20
79.94611389601778
 30
0.0
 10
121.2223729469697
 20
79.93385244180718
 30
0.0
 10
121.1479956486837
 20
79.93223818529987
 30
0.0
 10
121.1101029624624
 20
79.93141577689311
 30
0.0
  0
SPLINE
  5
11F
330
81
100
AcDbEntity
  8
MD_可視
100
AcDbSpline
210
0.0
220
0.0
230
1.0
 70
     8
 71
     3
 72
    31
 73
    27
 74
     0
 42
0.000000001
 43
0.0000000001
 40
0.0
 40
0.0
 40
0.0
 40
0.0
 40
0.0491959188678578
 40
0.0962478839423338
 40
0.1413486305545653
 40
0.1846561193487506
 40
0.226058682310063
 40
0.2661730836384069
 40
0.3052898413966905
 40
0.3432450951047079
 40
0.3808772760868658
 40
0.4184957931350262
 40
0.4563187508918004
 40
0.4942367370918764
 40
0.5330235289576674
 40
0.5724731943339441
 40
0.6130788090898914
 40
0.6549344546107935
 40
0.6973967795046182
 40
0.7398840686663999
 40
0.7821947798191178
 40
0.8250615348667032
 40
0.8679874655774055
 40
0.9114105439600777
 40
0.9553719455228144
 40
1.0
 40
1.0
 40
1.0
 40
1.0
 10
121.1101029624624
 20
79.93141577689311
 30
0.0
 10
121.0712243324542
 20
79.93198061357907
 30
0.0
 10
120.9951613996982
 20
79.93308567141685
 30
0.0
 10
120.88373358844
 20
79.94207391826785
 30
0.0
 10
120.7777547982587
 20
79.9576626336584
 30
0.0
 10
120.6774229421316
 20
79.97932092268275
 30
0.0
 10
120.5824003149719
 20
80.00610005064482
 30
0.0
 10
120.4930809497127
 20
80.03979056655589
 30
0.0
 10
120.4096212922977
 20
80.08014938089218
 30
0.0
 10
120.3313251782838
 20
80.12604778318019
 30
0.0
 10
120.2585251579676
 20
80.17819043503005
 30
0.0
 10
120.1895657334644
 20
80.23517014798562
 30
0.0
 10
120.1261210103093
 20
80.298555510597
 30
0.0
 10
120.0666046304613
 20
80.36684993566813
 30
0.0
 10
120.0123128823234
 20
80.44095432154973
 30
0.0
 10
119.9612483606088
 20
80.51986192903314
 30
0.0
 10
119.9159034952044
 20
80.60496310683992
 30
0.0
 10
119.8745978404313
 20
80.69468007696377
 30
0.0
 10
119.838342984367
 20
80.78814421794959
 30
0.0
 10
119.8062701180097
 20
80.88350935484232
 30
0.0
 10
119.7800487963795
 20
80.98096551296839
 30
0.0
 10
119.7574739305328
 20
81.07969261569996
 30
0.0
 10
119.7410743843502
 20
81.18052138373604
 30
0.0
 10
119.7280536524231
 20
81.28269529275531
 30
0.0
 10
119.7208945922284
 20
81.38684075721176
 30
0.0
 10
119.7199525354372
 20
81.45684657810852
 30
0.0
 10
119.7194779624624
 20
81.49211289227787
 30
0.0
  0
SPLINE
  5
120
330
81
100
AcDbEntity
  8
MD_可視
100
AcDbSpline
210
0.0
220
0.0
230
1.0
 70
     8
 71
     3
 72
    31
 73
    27
 74
     0
 42
0.000000001
 43
0.0000000001
 40
0.0
 40
0.0
 40
0.0
 40
0.0
 40
0.0494014326173349
 40
0.0976047534771124
 40
0.1442547055445424
 40
0.1894721438466751
 40
0.2339150059350917
 40
0.2772371111508618
 40
0.3198588355644321
 40
0.3619566544332701
 40
0.4034857542265474
 40
0.443933636333855
 40
0.4836491750513745
 40
0.5228932833172716
 40
0.5618583840947372
 40
0.6007948668981947
 40
0.640104336189136
 40
0.6796434268265383
 40
0.7193997691904884
 40
0.7588541926680974
 40
0.7983154646830741
 40
0.8378024081343657
 40
0.8774685864444087
 40
0.9176827969423323
 40
0.9583928898538523
 40
1.0
 40
1.0
 40
1.0
 40
1.0
 10
119.7194779624624
 20
81.49211289227787
 30
0.0
 10
119.720156701791
 20
81.53018430052179
 30
0.0
 10
119.721497719278
 20
81.60540378747283
 30
0.0
 10
119.7290677412365
 20
81.71639232388224
 30
0.0
 10
119.7429711276636
 20
81.82350983925244
 30
0.0
 10
119.7622788873814
 20
81.92682679319114
 30
0.0
 10
119.7867109276139
 20
82.02642685758291
 30
0.0
 10
119.8168695425647
 20
82.12235855715334
 30
0.0
 10
119.8523732270241
 20
82.2144991483201
 30
0.0
 10
119.8931137422933
 20
82.3029502345471
 30
0.0
 10
119.9393617611185
 20
82.38672446846431
 30
0.0
 10
119.9897369693626
 20
82.46594094193097
 30
0.0
 10
120.0454410091879
 20
82.53929895569127
 30
0.0
 10
120.1048223386697
 20
82.60820003479967
 30
0.0
 10
120.1693640463127
 20
82.67149689895632
 30
0.0
 10
120.2388690501047
 20
82.72933293038295
 30
0.0
 10
120.3127376904649
 20
82.78223566698216
 30
0.0
 10
120.3909591853571
 20
82.82971398107111
 30
0.0
 10
120.4725110887539
 20
82.87137371756761
 30
0.0
 10
120.5561820924322
 20
82.90848040787386
 30
0.0
 10
120.6423049915392
 20
82.93889438459519
 30
0.0
 10
120.7301969794098
 20
82.96418238361912
 30
0.0
 10
120.820047279516
 20
82.98431397998683
 30
0.0
 10
120.912065836832
 20
82.99777604126211
 30
0.0
 10
121.0061676247223
 20
83.00654896341075
 30
0.0
 10
121.0696183994441
 20
83.00773790501626
 30
0.0
 10
121.1016895009234
 20
83.0083388538169
 30
0.0
  0
SPLINE
  5
121
330
81
100
AcDbEntity
  8
MD_可視
100
AcDbSpline
210
0.0
220
0.0
230
1.0
 70
     8
 71
     3
 72
    23
 73
    19
 74
     0
 42
0.000000001
 43
0.0000000001
 40
0.0
 40
0.0
 40
0.0
 40
0.0
 40
0.0686494919759953
 40
0.1349373737851551
 40
0.1988418982006104
 40
0.2614093284183088
 40
0.3225167637069042
 40
0.3823768656987773
 40
0.4424709047536867
 40
0.50222783347929
 40
0.5621014330908558
 40
0.6217316080948795
 40
0.6818513124344148
 40
0.7420491672939584
 40
0.8039081304743808
 40
0.8671621602461698
 40
0.9323605979385291
 40
1.0
 40
1.0
 40
1.0
 40
1.0
 10
121.1016895009234
 20
83.0083388538169
 30
0.0
 10
121.1375727429749
 20
83.00766247245702
 30
0.0
 10
121.2081048081945
 20
83.0063329779241
 30
0.0
 10
121.3115980475231
 20
82.99539762313726
 30
0.0
 10
121.4107175493063
 20
82.97708210175187
 30
0.0
 10
121.5058928161797
 20
82.95305386976725
 30
0.0
 10
121.5961343286853
 20
82.92015421837277
 30
0.0
 10
121.6824218142246
 20
82.88104031408693
 30
0.0
 10
121.7638968831907
 20
82.83404969607909
 30
0.0
 10
121.8411934811374
 20
82.78047375151619
 30
0.0
 10
121.9130533381303
 20
82.7202136738324
 30
0.0
 10
121.9804820565077
 20
82.65470905979601
 30
0.0
 10
122.0407302473541
 20
82.58232277190108
 30
0.0
 10
122.0961841052867
 20
82.50480668729688
 30
0.0
 10
122.1450988670131
 20
82.42108592241857
 30
0.0
 10
122.1892740571438
 20
82.33189043244237
 30
0.0
 10
122.2272634349501
 20
82.2365571508817
 30
0.0
 10
122.2475896440464
 20
82.17015488336256
 30
0.0
 10
122.2579395009234
 20
82.13634366150836
 30
0.0
  0
LINE
  5
122
330
81
100
AcDbEntity
  8
MD_可視
100
AcDbLine
 10
122.2579395009234
 20
82.13634366150836
 30
0.0000000000000009
 11
121.8348625778471
 21
82.04559846920165
 31
0.0000000000000009
  0
SPLINE
  5
123
330
81
100
AcDbEntity
  8
MD_可視
100
AcDbSpline
210
0.0
220
0.0
230
1.0
 70
     8
 71
     3
 72
    23
 73
    19
 74
     0
 42
0.000000001
 43
0.0000000001
 40
0.0
 40
0.0
 40
0.0
 40
0.0
 40
0.0772311103286297
 40
0.1511651795217246
 40
0.2207847057253993
 40
0.2871495176777684
 40
0.3506324812950832
 40
0.4113067715078912
 40
0.4699644151376491
 40
0.5267072266832783
 40
0.5824983333641275
 40
0.6385087274080254
 40
0.6949179812139084
 40
0.7524203526591529
 40
0.811250975415507
 40
0.8718561089908074
 40
0.9346441878526851
 40
1.0
 40
1.0
 40
1.0
 40
1.0
 10
121.8348625778471
 20
82.04559846920165
 30
0.0
 10
121.8265540074735
 20
82.07154684596934
 30
0.0
 10
121.8102915644413
 20
82.12233584816932
 30
0.0
 10
121.7814160060497
 20
82.19471920245997
 30
0.0
 10
121.7502313657478
 20
82.26191460417977
 30
0.0
 10
121.7159947997734
 20
82.32346528920061
 30
0.0
 10
121.6786321103263
 20
82.37938600073722
 30
0.0
 10
121.6390036608864
 20
82.43035637190587
 30
0.0
 10
121.5961599935162
 20
82.47542503292971
 30
0.0
 10
121.5509725842148
 20
82.51563115506177
 30
0.0
 10
121.5022745614096
 20
82.54988292354211
 30
0.0
 10
121.4512076182327
 20
82.58023562713788
 30
0.0
 10
121.3966950087961
 20
82.60534786083189
 30
0.0
 10
121.339520937141
 20
82.62658762281716
 30
0.0
 10
121.2791510032875
 20
82.64275337032632
 30
0.0
 10
121.2158310416525
 20
82.6541266114018
 30
0.0
 10
121.1495054178213
 20
82.66070888613104
 30
0.0
 10
121.1043082304513
 20
82.66168643779383
 30
0.0
 10
121.0812568086148
 20
82.66218500766262
 30
0.0
  0
SPLINE
  5
124
330
81
100
AcDbEntity
  8
MD_可視
100
AcDbSpline
210
0.0
220
0.0
230
1.0
 70
     8
 71
     3
 72
    27
 73
    23
 74
     0
 42
0.000000001
 43
0.0000000001
 40
0.0
 40
0.0
 40
0.0
 40
0.0
 40
0.0467628351215617
 40
0.0919686966072125
 40
0.1358043853805046
 40
0.1782315801839233
 40
0.2194414332265374
 40
0.2601769432685918
 40
0.3002796061140317
 40
0.3405476414666162
 40
0.3803111902076682
 40
0.419641953569812
 40
0.4590173240985169
 40
0.4981819588897615
 40
0.5376702145628711
 40
0.5779133315743607
 40
0.6186488416164151
 40
0.6607616027603176
 40
0.7452991770631803
 40
0.8297447416906313
 40
0.9146020866092538
 40
1.0
 40
1.0
 40
1.0
 40
1.0
 10
121.0812568086148
 20
82.66218500766262
 30
0.0
 10
121.0547916675259
 20
82.66180102475118
 30
0.0
 10
121.0027425450716
 20
82.66104584368077
 30
0.0
 10
120.9262761227619
 20
82.65278047065113
 30
0.0
 10
120.8528417611542
 20
82.64060638271621
 30
0.0
 10
120.7829867640357
 20
82.62235029131444
 30
0.0
 10
120.716328879871
 20
82.59958969272885
 30
0.0
 10
120.6532636682495
 20
82.57124872028908
 30
0.0
 10
120.5932546683689
 20
82.53802977619853
 30
0.0
 10
120.53697161124
 20
82.49973337665869
 30
0.0
 10
120.4848875050647
 20
82.45668085336365
 30
0.0
 10
120.4355889379549
 20
82.41116760009754
 30
0.0
 10
120.3914427880772
 20
82.36107098266803
 30
0.0
 10
120.3507656305355
 20
82.30804288497347
 30
0.0
 10
120.3147419827528
 20
82.25114626212416
 30
0.0
 10
120.2823146651844
 20
82.19115611500274
 30
0.0
 10
120.2536903772597
 20
82.12758077727086
 30
0.0
 10
120.222487959707
 20
82.03810330474334
 30
0.0
 10
120.1906729129405
 20
81.92285838948373
 30
0.0
 10
120.1630733206366
 20
81.78183596616873
 30
0.0
 10
120.145493031041
 20
81.63859174421123
 30
0.0
 10
120.143536338237
 20
81.54224306985998
 30
0.0
 10
120.1425548855386
 20
81.49391577689312
 30
0.0
  0
SPLINE
  5
125
330
81
100
AcDbEntity
  8
MD_可視
100
AcDbSpline
210
0.0
220
0.0
230
1.0
 70
     8
 71
     3
 72
    17
 73
    13
 74
     0
 42
0.000000001
 43
0.0000000001
 40
0.0
 40
0.0
 40
0.0
 40
0.0
 40
0.1693748016950687
 40
0.3057107119986391
 40
0.4093010577798263
 40
0.4812810099687796
 40
0.5929870972808696
 40
0.7047775512215098
 40
0.7662723095068023
 40
0.8354621927706793
 40
0.9130453249046002
 40
1.0
 40
1.0
 40
1.0
 40
1.0
 10
125.5656318086148
 20
80.57204077689311
 30
0.0
 10
125.5657792680158
 20
80.54859532050796
 30
0.0
 10
125.5660454228273
 20
80.50627776740475
 30
0.0
 10
125.569714672325
 20
80.44972498405877
 30
0.0
 10
125.5742471536359
 20
80.4067794800285
 30
0.0
 10
125.5837876745136
 20
80.36789491734817
 30
0.0
 10
125.6060904461865
 20
80.33262890600964
 30
0.0
 10
125.6358456654216
 20
80.30586791845598
 30
0.0
 10
125.666063826784
 20
80.29071748089155
 30
0.0
 10
125.6940816403766
 20
80.28342201005035
 30
0.0
 10
125.7261202953104
 20
80.27856097050971
 30
0.0
 10
125.7489037468676
 20
80.27791238596364
 30
0.0
 10
125.7609443086148
 20
80.27756962304739
 30
0.0
  0
SPLINE
  5
126
330
81
100
AcDbEntity
  8
MD_可視
100
AcDbSpline
210
0.0
220
0.0
230
1.0
 70
     8
 71
     3
 72
    11
 73
     7
 74
     0
 42
0.000000001
 43
0.0000000001
 40
0.0
 40
0.0
 40
0.0
 40
0.0
 40
0.2027395082954396
 40
0.4375391642580761
 40
0.7045725240957028
 40
1.0
 40
1.0
 40
1.0
 40
1.0
 10
125.7609443086148
 20
80.27756962304739
 30
0.0
 10
125.7711627528242
 20
80.2777028392702
 30
0.0
 10
125.7932155316684
 20
80.27799033782139
 30
0.0
 10
125.8286800763762
 20
80.27996316133977
 30
0.0
 10
125.8687554797998
 20
80.28292531326224
 30
0.0
 10
125.8969675300704
 20
80.28571811418988
 30
0.0
 10
125.9117856547691
 20
80.28718500766263
 30
0.0
  0
LINE
  5
127
330
81
100
AcDbEntity
  8
MD_可視
100
AcDbLine
 10
125.9117856547691
 20
80.28718500766263
 30
0.0000000000000009
 11
125.9502471932301
 21
79.96446866150836
 31
-0.0000000000000009
  0
SPLINE
  5
128
330
81
100
AcDbEntity
  8
MD_可視
100
AcDbSpline
210
0.0
220
0.0
230
1.0
 70
     8
 71
     3
 72
    11
 73
     7
 74
     0
 42
0.000000001
 43
0.0000000001
 40
0.0
 40
0.0
 40
0.0
 40
0.0
 40
0.2753332836171064
 40
0.5329132699999387
 40
0.7736079853172978
 40
1.0
 40
1.0
 40
1.0
 40
1.0
 10
125.9502471932301
 20
79.96446866150836
 30
0.0
 10
125.9256546637261
 20
79.9593880631528
 30
0.0
 10
125.8780553137876
 20
79.94955445986125
 30
0.0
 10
125.8081922627025
 20
79.93973183077469
 30
0.0
 10
125.7424768841338
 20
79.93222754293856
 30
0.0
 10
125.6998663945487
 20
79.93168078479903
 30
0.0
 10
125.6792135393843
 20
79.93141577689311
 30
0.0
  0
SPLINE
  5
129
330
81
100
AcDbEntity
  8
MD_可視
100
AcDbSpline
210
0.0
220
0.0
230
1.0
 70
     8
 71
     3
 72
    23
 73
    19
 74
     0
 42
0.000000001
 43
0.0000000001
 40
0.0
 40
0.0
 40
0.0
 40
0.0
 40
0.0947478707804551
 40
0.1790846350486427
 40
0.2542870520841975
 40
0.3215603789604575
 40
0.383499659824976
 40
0.4417190015224972
 40
0.499014036521458
 40
0.5551995843709012
 40
0.5867006486205673
 40
0.6249601836616041
 40
0.6695051206017172
 40
0.7219128617320278
 40
0.7802733573506407
 40
0.8465379283818069
 40
0.9195770186060368
 40
0.9999999999999998
 40
0.9999999999999998
 40
0.9999999999999998
 40
0.9999999999999998
 10
125.6792135393843
 20
79.93141577689311
 30
0.0
 10
125.6485328849794
 20
79.93225279824764
 30
0.0
 10
125.5905428346268
 20
79.93383486719176
 30
0.0
 10
125.5086823542588
 20
79.94468298625179
 30
0.0
 10
125.4376750748106
 20
79.96437169015189
 30
0.0
 10
125.3769311122505
 20
79.99145028946077
 30
0.0
 10
125.3264935491534
 20
80.02569160080929
 30
0.0
 10
125.2840577472088
 20
80.06477076791634
 30
0.0
 10
125.2497041106362
 20
80.10876700510562
 30
0.0
 10
125.2269402409929
 20
80.150177346075
 30
0.0
 10
125.2135397323982
 20
80.18877598718608
 30
0.0
 10
125.2046840446255
 20
80.22476908280442
 30
0.0
 10
125.1979171187577
 20
80.2680507354853
 30
0.0
 10
125.1911586911192
 20
80.31789235876932
 30
0.0
 10
125.1864252926989
 20
80.37505462611989
 30
0.0
 10
125.1839567342122
 20
80.43901651674241
 30
0.0
 10
125.181072482399
 20
80.51011808042312
 30
0.0
 10
125.181035700065
 20
80.55981751863873
 30
0.0
 10
125.1810164239996
 20
80.58586289227788
 30
0.0
  0
LINE
  5
12A
330
81
100
AcDbEntity
  8
MD_可視
100
AcDbLine
 10
125.1810164239996
 20
80.58586289227788
 30
0.0000000000000009
 11
125.1810164239996
 21
81.81603116150837
 31
0.0000000000000009
  0
LINE
  5
12B
330
81
100
AcDbEntity
  8
MD_可視
100
AcDbLine
 10
125.1810164239996
 20
81.81603116150837
 30
0.0000000000000009
 11
124.9117856547691
 21
81.81603116150837
 31
0.0000000000000009
  0
LINE
  5
12C
330
81
100
AcDbEntity
  8
MD_可視
100
AcDbLine
 10
124.9117856547691
 20
81.81603116150837
 30
0.0000000000000009
 11
124.9117856547691
 21
82.16218500766263
 31
0.0000000000000009
  0
LINE
  5
12D
330
81
100
AcDbEntity
  8
MD_可視
100
AcDbLine
 10
124.9117856547691
 20
82.16218500766263
 30
0.0000000000000009
 11
125.1810164239996
 21
82.16218500766263
 31
0.0000000000000009
  0
LINE
  5
12E
330
81
100
AcDbEntity
  8
MD_可視
100
AcDbLine
 10
125.1810164239996
 20
82.16218500766263
 30
0.0000000000000009
 11
125.1810164239996
 21
82.6958388538169
 31
0.0000000000000009
  0
LINE
  5
12F
330
81
100
AcDbEntity
  8
MD_可視
100
AcDbLine
 10
125.1810164239996
 20
82.6958388538169
 30
0.0000000000000009
 11
125.5656318086148
 21
82.9145888538169
 31
0.0000000000000009
  0
LINE
  5
130
330
81
100
AcDbEntity
  8
MD_可視
100
AcDbLine
 10
125.5656318086148
 20
82.9145888538169
 30
0.0000000000000009
 11
125.5656318086148
 21
82.16218500766263
 31
0.0000000000000009
  0
LINE
  5
131
330
81
100
AcDbEntity
  8
MD_可視
100
AcDbLine
 10
125.5656318086148
 20
82.16218500766263
 30
0.0000000000000009
 11
125.9117856547691
 21
82.16218500766263
 31
0.0000000000000009
  0
LINE
  5
132
330
81
100
AcDbEntity
  8
MD_可視
100
AcDbLine
 10
125.9117856547691
 20
82.16218500766263
 30
0.0000000000000009
 11
125.9117856547691
 21
81.81603116150837
 31
0.0000000000000009
  0
LINE
  5
133
330
81
100
AcDbEntity
  8
MD_可視
100
AcDbLine
 10
125.9117856547691
 20
81.81603116150837
 30
0.0000000000000009
 11
125.5656318086148
 21
81.81603116150837
 31
0.0000000000000009
  0
LINE
  5
134
330
81
100
AcDbEntity
  8
MD_可視
100
AcDbLine
 10
125.5656318086148
 20
81.81603116150837
 30
0.0000000000000009
 11
125.5656318086148
 21
80.57204077689311
 31
0.0000000000000009
  0
SPLINE
  5
135
330
81
100
AcDbEntity
  8
MD_可視
100
AcDbSpline
210
0.0
220
0.0
230
1.0
 70
     8
 71
     3
 72
    23
 73
    19
 74
     0
 42
0.000000001
 43
0.0000000001
 40
0.0
 40
0.0
 40
0.0
 40
0.0
 40
0.0765455721216735
 40
0.149753736721717
 40
0.2188821459239472
 40
0.2850992357786229
 40
0.3487657214459038
 40
0.4102328089334402
 40
0.4708571804914968
 40
0.5303866472297854
 40
0.5895376681109487
 40
0.6468840444272832
 40
0.7042887151122105
 40
0.7613678447253181
 40
0.8184804485645145
 40
0.8769435490068905
 40
0.9372887989248869
 40
1.0
 40
1.0
 40
1.0
 40
1.0
 10
129.9887087316929
 20
80.9698773153541
 30
0.0
 10
129.9909353611383
 20
80.9427904774002
 30
0.0
 10
129.9952915383856
 20
80.88979779490546
 30
0.0
 10
130.007994787853
 20
80.81307416569506
 30
0.0
 10
130.0251381298712
 20
80.74096968521917
 30
0.0
 10
130.0482150891603
 20
80.67411923961845
 30
0.0
 10
130.0754766620648
 20
80.61177412354481
 30
0.0
 10
130.1091673778483
 20
80.55495982039792
 30
0.0
 10
130.1467016995902
 20
80.50241447397457
 30
0.0
 10
130.1898277011114
 20
80.45541917172522
 30
0.0
 10
130.2363690214915
 20
80.41361723665067
 30
0.0
 10
130.2861738170213
 20
80.37694752196149
 30
0.0
 10
130.339153764
 20
80.34653289390917
 30
0.0
 10
130.394542421629
 20
80.3209639802626
 30
0.0
 10
130.4528573848656
 20
80.30172334042982
 30
0.0
 10
130.5138325249481
 20
80.28795416962749
 30
0.0
 10
130.577808148264
 20
80.2793397477526
 30
0.0
 10
130.6214939460878
 20
80.27816717943096
 30
0.0
 10
130.6437568086148
 20
80.27756962304739
 30
0.0
  0
SPLINE
  5
136
330
81
100
AcDbEntity
  8
MD_可視
100
AcDbSpline
210
0.0
220
0.0
230
1.0
 70
     8
 71
     3
 72
    15
 73
    11
 74
     0
 42
0.000000001
 43
0.0000000001
 40
0.0
 40
0.0
 40
0.0
 40
0.0
 40
0.1370390155820421
 40
0.2654791971992576
 40
0.3867575550777074
 40
0.5038673484006007
 40
0.620320460389644
 40
0.7397674030522728
 40
0.8654537421739004
 40
1.0
 40
1.0
 40
1.0
 40
1.0
 10
130.6437568086148
 20
80.27756962304739
 30
0.0
 10
130.6762621682082
 20
80.27865795551589
 30
0.0
 10
130.7392332624822
 20
80.28076633048476
 30
0.0
 10
130.8300948458509
 20
80.29555809741578
 30
0.0
 10
130.913383770463
 20
80.32163895074154
 30
0.0
 10
130.9896853526661
 20
80.35784259044703
 30
0.0
 10
131.0588729753381
 20
80.40583345269624
 30
0.0
 10
131.1192449836708
 20
80.46726086980925
 30
0.0
 10
131.1729201733233
 20
80.5400633846184
 30
0.0
 10
131.200837387656
 20
80.59521092053183
 30
0.0
 10
131.2152712316929
 20
80.62372346920165
 30
0.0
  0
LINE
  5
137
330
81
100
AcDbEntity
  8
MD_可視
100
AcDbLine
 10
131.2152712316929
 20
80.62372346920165
 30
0.0000000000000009
 11
131.5920741163081
 21
80.58526193073886
 31
0.0000000000000009
  0
SPLINE
  5
138
330
81
100
AcDbEntity
  8
MD_可視
100
AcDbSpline
210
0.0
220
0.0
230
1.0
 70
     8
 71
     3
 72
    23
 73
    19
 74
     0
 42
0.000000001
 43
0.0000000001
 40
0.0
 40
0.0
 40
0.0
 40
0.0
 40
0.0635748979767545
 40
0.1250642597775943
 40
0.1849336484558786
 40
0.2440328936736022
 40
0.3022807294274894
 40
0.360376205401002
 40
0.4187937394674646
 40
0.4776235961368594
 40
0.5373852229070707
 40
0.5974753024433858
 40
0.6592224510758353
 40
0.7221933847447827
 40
0.7877173144012679
 40
0.8557136680026815
 40
0.9260858329442836
 40
0.9999999999999998
 40
0.9999999999999998
 40
0.9999999999999998
 40
0.9999999999999998
 10
131.5920741163081
 20
80.58526193073886
 30
0.0
 10
131.5843481638603
 20
80.55984561387958
 30
0.0
 10
131.5691497041735
 20
80.50984674710162
 30
0.0
 10
131.5383119487851
 20
80.43893323326484
 30
0.0
 10
131.5044254205368
 20
80.37156203049926
 30
0.0
 10
131.4643891771338
 20
80.30920123245232
 30
0.0
 10
131.4204596892996
 20
80.25052361274902
 30
0.0
 10
131.3717665596796
 20
80.19599720715815
 30
0.0
 10
131.3172454176383
 20
80.14699780047704
 30
0.0
 10
131.2589228286088
 20
80.10147913081892
 30
0.0
 10
131.1958283721305
 20
80.06147589055217
 30
0.0
 10
131.1286271506851
 20
80.02615779751613
 30
0.0
 10
131.0570730973177
 20
79.99700982660215
 30
0.0
 10
130.9813704289663
 20
79.97272793595584
 30
0.0
 10
130.9013461035865
 20
79.95420825084147
 30
0.0
 10
130.8171485877119
 20
79.94141400720036
 30
0.0
 10
130.7288889700139
 20
79.93234977394604
 30
0.0
 10
130.668620947159
 20
79.93173216303512
 30
0.0
 10
130.6377471932301
 20
79.93141577689311
 30
0.0
  0
SPLINE
  5
139
330
81
100
AcDbEntity
  8
MD_可視
100
AcDbSpline
210
0.0
220
0.0
230
1.0
 70
     8
 71
     3
 72
    23
 73
    19
 74
     0
 42
0.000000001
 43
0.0000000001
 40
0.0
 40
0.0
 40
0.0
 40
0.0
 40
0.0673510228838026
 40
0.1313136075111431
 40
0.1930714529961523
 40
0.2525019830750464
 40
0.3107047505741049
 40
0.3679301358078686
 40
0.4254606235585174
 40
0.4834247854969384
 40
0.542043812671361
 40
0.601129684210201
 40
0.6610197184695088
 40
0.7228533048760739
 40
0.7874137013423681
 40
0.85449704811169
 40
0.9253447936235355
 40
1.0
 40
1.0
 40
1.0
 40
1.0
 10
130.6377471932301
 20
79.93141577689311
 30
0.0
 10
130.5990406421024
 20
79.93232536324104
 30
0.0
 10
130.5235748711984
 20
79.93409877453633
 30
0.0
 10
130.4133663039283
 20
79.9483255351297
 30
0.0
 10
130.3092652377763
 20
79.97083068685606
 30
0.0
 10
130.2110449628944
 20
80.00271653388153
 30
0.0
 10
130.1193349140812
 20
80.04426963134756
 30
0.0
 10
130.0339022004264
 20
80.09537548409571
 30
0.0
 10
129.9542154216742
 20
80.15485337471545
 30
0.0
 10
129.8814216640749
 20
80.22375075546733
 30
0.0
 10
129.8155607813496
 20
80.30053792899343
 30
0.0
 10
129.7593128952321
 20
80.38591853785693
 30
0.0
 10
129.7105300646035
 20
80.47784637898985
 30
0.0
 10
129.6717312911769
 20
80.57781471624911
 30
0.0
 10
129.6410645022479
 20
80.6848226320908
 30
0.0
 10
129.6197866043658
 20
80.79932552524224
 30
0.0
 10
129.6061730084784
 20
80.92086910782745
 30
0.0
 10
129.6047985562436
 20
81.00449451351597
 30
0.0
 10
129.6040933470776
 20
81.04740135381689
 30
0.0
  0
SPLINE
  5
13A
330
81
100
AcDbEntity
  8
MD_可視
100
AcDbSpline
210
0.0
220
0.0
230
1.0
 70
     8
 71
     3
 72
    23
 73
    19
 74
     0
 42
0.000000001
 43
0.0000000001
 40
0.0
 40
0.0
 40
0.0
 40
0.0
 40
0.0770192486680555
 40
0.1495479024162742
 40
0.2187135099120816
 40
0.2849231121352788
 40
0.3481592766058944
 40
0.4097277041995571
 40
0.4698385380871206
 40
0.5294209545713839
 40
0.5882764566340942
 40
0.6457897074994388
 40
0.7024689920772348
 40
0.759389610324464
 40
0.8167479402414038
 40
0.8756208054666025
 40
0.9364820909603187
 40
1.0
 40
1.0
 40
1.0
 40
1.0
 10
129.6040933470776
 20
81.04740135381689
 30
0.0
 10
129.6048053905488
 20
81.09190646393654
 30
0.0
 10
129.6061879619119
 20
81.17832182088386
 30
0.0
 10
129.6196270135187
 20
81.30414241602194
 30
0.0
 10
129.6418524283017
 20
81.42227568997805
 30
0.0
 10
129.6720116749038
 20
81.53315023825781
 30
0.0
 10
129.7119746724129
 20
81.63623045245367
 30
0.0
 10
129.760736773831
 20
81.73147875249743
 30
0.0
 10
129.8179964711871
 20
81.81941084166465
 30
0.0
 10
129.8843068726073
 20
81.8987391101
 30
0.0
 10
129.957679780904
 20
81.96928129208936
 30
0.0
 10
130.0357839612552
 20
82.03200884589751
 30
0.0
 10
130.1202586043291
 20
82.08377581348576
 30
0.0
 10
130.2093769926323
 20
82.12675631754974
 30
0.0
 10
130.3039980546637
 20
82.15977825885056
 30
0.0
 10
130.4035389137898
 20
82.18409729412632
 30
0.0
 10
130.5087574975023
 20
82.19781985919871
 30
0.0
 10
130.580617214282
 20
82.19969099524133
 30
0.0
 10
130.6173145009234
 20
82.20064654612361
 30
0.0
  0
SPLINE
  5
13B
330
81
100
AcDbEntity
  8
MD_可視
100
AcDbSpline
210
0.0
220
0.0
230
1.0
 70
     8
 71
     3
 72
    23
 73
    19
 74
     0
 42
0.000000001
 43
0.0000000001
 40
0.0
 40
0.0
 40
0.0
 40
0.0
 40
0.062832701216394
 40
0.1229654286939635
 40
0.1816288039489558
 40
0.2388323520060564
 40
0.2952935041873487
 40
0.3521674350071311
 40
0.409490673118948
 40
0.4684235402869528
 40
0.5283583088828303
 40
0.5885537443107101
 40
0.6502482991009648
 40
0.7136706736682879
 40
0.7802618417620737
 40
0.8495363583234032
 40
0.9226519106314425
 40
0.9999999999999998
 40
0.9999999999999998
 40
0.9999999999999998
 40
0.9999999999999998
 10
130.6173145009234
 20
82.20064654612361
 30
0.0
 10
130.6528205203958
 20
82.1997335033193
 30
0.0
 10
130.7223068359781
 20
82.19794665192058
 30
0.0
 10
130.8241066359805
 20
82.18360520520036
 30
0.0
 10
130.9211095364189
 20
82.16119427578815
 30
0.0
 10
131.0131118802383
 20
82.12864362617438
 30
0.0
 10
131.099650627264
 20
82.08591547565992
 30
0.0
 10
131.1816603997195
 20
82.03491844295603
 30
0.0
 10
131.2585683063553
 20
81.97417658540507
 30
0.0
 10
131.3298811016375
 20
81.90451755623872
 30
0.0
 10
131.3948576728071
 20
81.82672346560867
 30
0.0
 10
131.4510633822556
 20
81.74049261297659
 30
0.0
 10
131.4986556358399
 20
81.64703753648245
 30
0.0
 10
131.5372362797316
 20
81.54564376067355
 30
0.0
 10
131.5669342424717
 20
81.43689570273272
 30
0.0
 10
131.5884496267517
 20
81.32072216465349
 30
0.0
 10
131.6020182463617
 20
81.19716264565431
 30
0.0
 10
131.6033887956709
 20
81.11214143490361
 30
0.0
 10
131.6040933470776
 20
81.06843500766263
 30
0.0
  0
SPLINE
  5
13C
330
81
100
AcDbEntity
  8
MD_可視
100
AcDbSpline
210
0.0
220
0.0
230
1.0
 70
     8
 71
     3
 72
     9
 73
     5
 74
     0
 42
0.000000001
 43
0.0000000001
 40
0.0
 40
0.0
 40
0.0
 40
0.0
 40
0.4146077280383481
 40
1.0
 40
1.0
 40
1.0
 40
1.0
 10
131.6040933470776
 20
81.06843500766263
 30
0.0
 10
131.6039103231687
 20
81.05481290544048
 30
0.0
 10
131.6034688844374
 20
81.02195750670579
 30
0.0
 10
131.6027255845001
 20
80.98910747187801
 30
0.0
 10
131.6022904624624
 20
80.9698773153541
 30
0.0
  0
LINE
  5
13D
330
81
100
AcDbEntity
  8
MD_可視
100
AcDbLine
 10
131.6022904624624
 20
80.9698773153541
 30
0.0000000000000009
 11
129.9887087316929
 21
80.9698773153541
 31
0.0000000000000009
  0
SPLINE
  5
13E
330
81
100
AcDbEntity
  8
MD_可視
100
AcDbSpline
210
0.0
220
0.0
230
1.0
 70
     8
 71
     3
 72
    15
 73
    11
 74
     0
 42
0.000000001
 43
0.0000000001
 40
0.0
 40
0.0
 40
0.0
 40
0.0
 40
0.1278926194654216
 40
0.2515785135038577
 40
0.372792819702304
 40
0.4927776986078542
 40
0.6135900692425721
 40
0.7378086492801463
 40
0.8661799015391679
 40
1.0
 40
1.0
 40
1.0
 40
1.0
 10
129.0283721932301
 20
80.29559846920165
 30
0.0
 10
129.0048062558871
 20
80.26654198317919
 30
0.0
 10
128.9584495270064
 20
80.20938475556249
 30
0.0
 10
128.8781833569755
 20
80.13519809512217
 30
0.0
 10
128.7918960861807
 20
80.07214964364175
 30
0.0
 10
128.6990742085963
 20
80.02092734601683
 30
0.0
 10
128.6003408675224
 20
79.97976589240716
 30
0.0
 10
128.4944831509347
 20
79.95237449062734
 30
0.0
 10
128.3827801672214
 20
79.93398007934411
 30
0.0
 10
128.3060939016559
 20
79.93228230539171
 30
0.0
 10
128.2669539239996
 20
79.93141577689311
 30
0.0
  0
SPLINE
  5
13F
330
81
100
AcDbEntity
  8
MD_可視
100
AcDbSpline
210
0.0
220
0.0
230
1.0
 70
     8
 71
     3
 72
    23
 73
    19
 74
     0
 42
0.000000001
 43
0.0000000001
 40
0.0
 40
0.0
 40
0.0
 40
0.0
 40
0.0692980234597532
 40
0.1355608441012823
 40
0.1996709556470569
 40
0.2617162384956088
 40
0.3226619299471026
 40
0.3829069237782245
 40
0.4430320330728906
 40
0.5035007873501629
 40
0.5637242810171079
 40
0.6239800220534742
 40
0.6836293869955235
 40
0.7438482724857306
 40
0.80519184622951
 40
0.8676487429597672
 40
0.9327780842312613
 40
1.0
 40
1.0
 40
1.0
 40
1.0
 10
128.2669539239996
 20
79.93141577689311
 30
0.0
 10
128.2346696522436
 20
79.93207065808383
 30
0.0
 10
128.1715151362532
 20
79.93335173714513
 30
0.0
 10
128.0790456882132
 20
79.94448883173027
 30
0.0
 10
127.9910963084931
 20
79.96224857051856
 30
0.0
 10
127.9076394439871
 20
79.98772153373465
 30
0.0
 10
127.82842366156
 20
80.01990900662168
 30
0.0
 10
127.7543697415276
 20
80.06079813413634
 30
0.0
 10
127.6841925579065
 20
80.10757274925344
 30
0.0
 10
127.6194357748591
 20
80.16167396924174
 30
0.0
 10
127.5604339140609
 20
80.22201762856457
 30
0.0
 10
127.5075670485112
 20
80.28732517513162
 30
0.0
 10
127.4615506109385
 20
80.3576391942297
 30
0.0
 10
127.4224068111107
 20
80.4325389423575
 30
0.0
 10
127.3897822615054
 20
80.51195258857479
 30
0.0
 10
127.3648231911702
 20
80.59642216134125
 30
0.0
 10
127.3450535304182
 20
80.68511888404282
 30
0.0
 10
127.3382951802632
 20
80.7464295870268
 30
0.0
 10
127.3348625778471
 20
80.77756962304738
 30
0.0
  0
LINE
  5
140
330
81
100
AcDbEntity
  8
MD_可視
100
AcDbLine
 10
127.3348625778471
 20
80.77756962304738
 30
0.0000000000000009
 11
127.7194779624624
 21
80.81603116150835
 31
0.0000000000000009
  0
SPLINE
  5
141
330
81
100
AcDbEntity
  8
MD_可視
100
AcDbSpline
210
0.0
220
0.0
230
1.0
 70
     8
 71
     3
 72
    23
 73
    19
 74
     0
 42
0.000000001
 43
0.0000000001
 40
0.0
 40
0.0
 40
0.0
 40
0.0
 40
0.0773613371189764
 40
0.1504798322806807
 40
0.2199772368520748
 40
0.2866809968624414
 40
0.3496784941856631
 40
0.4106796250174851
 40
0.469427113519291
 40
0.5267557014271294
 40
0.5831419808348365
 40
0.638824427778626
 40
0.6952634704038112
 40
0.7526958048985345
 40
0.810849183334894
 40
0.8713563036360842
 40
0.9344364309841276
 40
1.0
 40
1.0
 40
1.0
 40
1.0
 10
127.7194779624624
 20
80.81603116150835
 30
0.0
 10
127.7232862585933
 20
80.79436019543937
 30
0.0
 10
127.7306939868522
 20
80.75220679606719
 30
0.0
 10
127.7448102317648
 20
80.69118850017366
 30
0.0
 10
127.7631432156213
 20
80.63450079775066
 30
0.0
 10
127.7837423413275
 20
80.58165274091697
 30
0.0
 10
127.8082278773818
 20
80.53320313170116
 30
0.0
 10
127.8347581585567
 20
80.48838697611973
 30
0.0
 10
127.8660452032127
 20
80.4487951079882
 30
0.0
 10
127.8989393298725
 20
80.41235683526066
 30
0.0
 10
127.9350431473303
 20
80.38024827280242
 30
0.0
 10
127.974705030394
 20
80.35317964696515
 30
0.0
 10
128.0168183865244
 20
80.32956391003244
 30
0.0
 10
128.0618961405234
 20
80.31022839381149
 30
0.0
 10
128.1100073792986
 20
80.29607581423807
 30
0.0
 10
128.1605397753592
 20
80.28488355339687
 30
0.0
 10
128.2141440247269
 20
80.27924382594575
 30
0.0
 10
128.2507178382129
 20
80.2781348270164
 30
0.0
 10
128.2693577701538
 20
80.27756962304739
 30
0.0
  0
SPLINE
  5
142
330
81
100
AcDbEntity
  8
MD_可視
100
AcDbSpline
210
0.0
220
0.0
230
1.0
 70
     8
 71
     3
 72
    23
 73
    19
 74
     0
 42
0.000000001
 43
0.0000000001
 40
0.0
 40
0.0
 40
0.0
 40
0.0
 40
0.0658010376094729
 40
0.1286767959489727
 40
0.1886758749524331
 40
0.247598436733894
 40
0.304849420118827
 40
0.3617858992828986
 40
0.4195227063685898
 40
0.4786818154207406
 40
0.538769503044019
 40
0.5987990560131536
 40
0.6601842815006786
 40
0.722951530610966
 40
0.7879926891048736
 40
0.8554037684344738
 40
0.9261530612840036
 40
1.0
 40
1.0
 40
1.0
 40
1.0
 10
128.2693577701538
 20
80.27756962304739
 30
0.0
 10
128.2922247908791
 20
80.27812215664743
 30
0.0
 10
128.3369422462074
 20
80.27920266017464
 30
0.0
 10
128.4019976729032
 20
80.28834112490404
 30
0.0
 10
128.4634477921736
 20
80.30340939453163
 30
0.0
 10
128.5209985745441
 20
80.32449631850614
 30
0.0
 10
128.5753246913573
 20
80.35072040357954
 30
0.0
 10
128.6246239068041
 20
80.38467581674195
 30
0.0
 10
128.671584285812
 20
80.42284505630778
 30
0.0
 10
128.7131839173544
 20
80.4683501153795
 30
0.0
 10
128.7510512698027
 20
80.51788997324184
 30
0.0
 10
128.7837336418233
 20
80.5719648354243
 30
0.0
 10
128.8112475814978
 20
80.62981571844284
 30
0.0
 10
128.8344113114235
 20
80.69143153121514
 30
0.0
 10
128.8515160355909
 20
80.75716426350117
 30
0.0
 10
128.8640979418469
 20
80.82666422969669
 30
0.0
 10
128.8721750234053
 20
80.89997570134801
 30
0.0
 10
128.8729356537478
 20
80.95022436643194
 30
0.0
 10
128.8733241163081
 20
80.97588693073886
 30
0.0
  0
SPLINE
  5
143
330
81
100
AcDbEntity
  8
MD_可視
100
AcDbSpline
210
0.0
220
0.0
230
1.0
 70
     8
 71
     3
 72
    23
 73
    19
 74
     0
 42
0.000000001
 43
0.0000000001
 40
0.0
 40
0.0
 40
0.0
 40
0.0
 40
0.0728659334565355
 40
0.1418868719641261
 40
0.207452626414712
 40
0.2704376800000978
 40
0.3316408722476696
 40
0.3901075774931576
 40
0.4480692869488362
 40
0.5055029519245377
 40
0.5624881528337243
 40
0.6190843288847293
 40
0.6764155306922395
 40
0.7354523604507925
 40
0.7962407694486789
 40
0.8604056780892038
 40
0.928304927285106
 40
1.0
 40
1.0
 40
1.0
 40
1.0
 10
128.8733241163081
 20
80.97588693073886
 30
0.0
 10
128.8728825960552
 20
81.00034302012501
 30
0.0
 10
128.8720228537258
 20
81.04796469816756
 30
0.0
 10
128.8647824206582
 20
81.11730977931983
 30
0.0
 10
128.8525669576629
 20
81.18251514137956
 30
0.0
 10
128.8367612923175
 20
81.24429946125202
 30
0.0
 10
128.8149751762048
 20
81.30169728284272
 30
0.0
 10
128.7891356157615
 20
81.35554081844929
 30
0.0
 10
128.7574810682217
 20
81.40468734972456
 30
0.0
 10
128.7222632952798
 20
81.45066712167135
 30
0.0
 10
128.6820401523473
 20
81.4918861344995
 30
0.0
 10
128.636268231523
 20
81.52669037005944
 30
0.0
 10
128.5867431382357
 20
81.55715110495838
 30
0.0
 10
128.5324673863724
 20
81.58185286071239
 30
0.0
 10
128.4734090157362
 20
81.60020533701754
 30
0.0
 10
128.4101549037932
 20
81.61432591615449
 30
0.0
 10
128.3420486954383
 20
81.62175276257585
 30
0.0
 10
128.2952145039435
 20
81.62305476571418
 30
0.0
 10
128.2711606547691
 20
81.62372346920165
 30
0.0
  0
SPLINE
  5
144
330
81
100
AcDbEntity
  8
MD_可視
100
AcDbSpline
210
0.0
220
0.0
230
1.0
 70
     8
 71
     3
 72
    15
 73
    11
 74
     0
 42
0.000000001
 43
0.0000000001
 40
0.0
 40
0.0
 40
0.0
 40
0.0
 40
0.1478596367312528
 40
0.2835613219395477
 40
0.4123693961385313
 40
0.5342363558879457
 40
0.652691629311983
 40
0.7686630594981231
 40
0.8836524018604043
 40
1.0
 40
1.0
 40
1.0
 40
1.0
 10
128.2711606547691
 20
81.62372346920165
 30
0.0
 10
128.2412508605921
 20
81.62284854925928
 30
0.0
 10
128.1838906440844
 20
81.62117065080929
 30
0.0
 10
128.1014699116094
 20
81.60705509279068
 30
0.0
 10
128.0264393347934
 20
81.58425320696187
 30
0.0
 10
127.9596484072044
 20
81.55026977021952
 30
0.0
 10
127.8999740138224
 20
81.50967097305693
 30
0.0
 10
127.8461764512303
 20
81.46373159228279
 30
0.0
 10
127.7978121038886
 20
81.41248268696836
 30
0.0
 10
127.7712822903522
 20
81.37389820971657
 30
0.0
 10
127.7579395009234
 20
81.35449269996934
 30
0.0
  0
LINE
  5
145
330
81
100
AcDbEntity
  8
MD_可視
100
AcDbLine
 10
127.7579395009234
 20
81.35449269996934
 30
0.0000000000000009
 11
127.3733241163081
 21
81.39295423843213
 31
0.0000000000000009
  0
LINE
  5
146
330
81
100
AcDbEntity
  8
MD_可視
100
AcDbLine
 10
127.3733241163081
 20
81.39295423843213
 30
0.0000000000000009
 11
127.6810164239996
 21
82.93141577689311
 31
0.0000000000000009
  0
LINE
  5
147
330
81
100
AcDbEntity
  8
MD_可視
100
AcDbLine
 10
127.6810164239996
 20
82.93141577689311
 30
0.0000000000000009
 11
129.1040933470776
 21
82.93141577689311
 31
0.0000000000000009
  0
LINE
  5
148
330
81
100
AcDbEntity
  8
MD_可視
100
AcDbLine
 10
129.1040933470776
 20
82.93141577689311
 30
0.0000000000000009
 11
129.1040933470776
 21
82.54680039227787
 31
0.0000000000000009
  0
LINE
  5
149
330
81
100
AcDbEntity
  8
MD_可視
100
AcDbLine
 10
129.1040933470776
 20
82.54680039227787
 30
0.0000000000000009
 11
127.9953193086148
 21
82.54680039227787
 31
0.0000000000000009
  0
LINE
  5
14A
330
81
100
AcDbEntity
  8
MD_可視
100
AcDbLine
 10
127.9953193086148
 20
82.54680039227787
 30
0.0000000000000009
 11
127.8426750778471
 21
81.76975712304738
 31
0.0000000000000009
  0
SPLINE
  5
14B
330
81
100
AcDbEntity
  8
MD_可視
100
AcDbSpline
210
0.0
220
0.0
230
1.0
 70
     8
 71
     3
 72
    15
 73
    11
 74
     0
 42
0.000000001
 43
0.0000000001
 40
0.0
 40
0.0
 40
0.0
 40
0.0
 40
0.1367294018595731
 40
0.2685149167908289
 40
0.3955294046848081
 40
0.5199999535658116
 40
0.6404964768412685
 40
0.7612361017625321
 40
0.8801067171759527
 40
1.0
 40
1.0
 40
1.0
 40
1.0
 10
127.8426750778471
 20
81.76975712304738
 30
0.0
 10
127.8638971247437
 20
81.78568244449525
 30
0.0
 10
127.9055738678507
 20
81.81695725668033
 30
0.0
 10
127.9705821167936
 20
81.85790750080377
 30
0.0
 10
128.0365199154894
 20
81.89242582600309
 30
0.0
 10
128.103003423219
 20
81.92069343168077
 30
0.0
 10
128.1705607471103
 20
81.94271384677632
 30
0.0
 10
128.2387842149965
 20
81.95801261435736
 30
0.0
 10
128.3079061163207
 20
81.96835242169255
 30
0.0
 10
128.3542564280033
 20
81.96936756811737
 30
0.0
 10
128.3775308470776
 20
81.9698773153541
 30
0.0
  0
SPLINE
  5
14C
330
81
100
AcDbEntity
  8
MD_可視
100
AcDbSpline
210
0.0
220
0.0
230
1.0
 70
     8
 71
     3
 72
    23
 73
    19
 74
     0
 42
0.000000001
 43
0.0000000001
 40
0.0
 40
0.0
 40
0.0
 40
0.0
 40
0.0619974190757218
 40
0.1220879540822929
 40
0.1813753107870031
 40
0.2395080083953654
 40
0.2978356978967511
 40
0.356879970653118
 40
0.4172818251154282
 40
0.4796404090798159
 40
0.5425000674783563
 40
0.6049624196481901
 40
0.6669910330782645
 40
0.7302162430101637
 40
0.7941728632512559
 40
0.8604581431502611
 40
0.9285781799847823
 40
1.0
 40
1.0
 40
1.0
 40
1.0
 10
128.3775308470776
 20
81.9698773153541
 30
0.0
 10
128.4078209258423
 20
81.96908369126322
 30
0.0
 10
128.4674694370296
 20
81.96752085295157
 30
0.0
 10
128.5553635836459
 20
81.95468016841733
 30
0.0
 10
128.6394051731968
 20
81.93288225517244
 30
0.0
 10
128.7202534208827
 20
81.90352364397586
 30
0.0
 10
128.7968422482063
 20
81.86460378961056
 30
0.0
 10
128.8699474449004
 20
81.81748011013224
 30
0.0
 10
128.9392738599927
 20
81.76176417823445
 30
0.0
 10
129.0044295713123
 20
81.69850723857235
 30
0.0
 10
129.063528392684
 20
81.62828538544454
 30
0.0
 10
129.1164237666617
 20
81.55338880851378
 30
0.0
 10
129.1596258188365
 20
81.47231828440089
 30
0.0
 10
129.1959617098146
 20
81.38719057834533
 30
0.0
 10
129.2233670168116
 20
81.29660828813394
 30
0.0
 10
129.244168601339
 20
81.20185696146654
 30
0.0
 10
129.2552905180073
 20
81.10175199045078
 30
0.0
 10
129.2570426869133
 20
81.0336038078949
 30
0.0
 10
129.2579395009234
 20
80.99872346920165
 30
0.0
  0
SPLINE
  5
14D
330
81
100
AcDbEntity
  8
MD_可視
100
AcDbSpline
210
0.0
220
0.0
230
1.0
 70
     8
 71
     3
 72
    15
 73
    11
 74
     0
 42
0.000000001
 43
0.0000000001
 40
0.0
 40
0.0
 40
0.0
 40
0.0
 40
0.1324616222426383
 40
0.2616495010354896
 40
0.3875466984163658
 40
0.5107816292933474
 40
0.6326753605997113
 40
0.7546603541381374
 40
0.8765227798028652
 40
1.0
 40
1.0
 40
1.0
 40
1.0
 10
129.2579395009234
 20
80.99872346920165
 30
0.0
 10
129.2572585024045
 20
80.96544189176166
 30
0.0
 10
129.2559133360082
 20
80.89970127962443
 30
0.0
 10
129.2448894191893
 20
80.802820334633
 30
0.0
 10
129.2267301361662
 20
80.70946791857569
 30
0.0
 10
129.202419867026
 20
80.61936758624142
 30
0.0
 10
129.1695734309996
 20
80.53303103781582
 30
0.0
 10
129.1297337785254
 20
80.45017939924765
 30
0.0
 10
129.0837765047763
 20
80.36994814174432
 30
0.0
 10
129.0469211561612
 20
80.32049020201702
 30
0.0
 10
129.0283721932301
 20
80.29559846920165
 30
0.0
  0
LINE
  5
14E
330
81
100
AcDbEntity
  8
MD_可視
100
AcDbLine
 10
124.6810164239996
 20
79.96987731535409
 30
0.0000000000000009
 11
124.2964010393843
 21
79.96987731535409
 31
0.0000000000000009
  0
SPLINE
  5
14F
330
81
100
AcDbEntity
  8
MD_可視
100
AcDbSpline
210
0.0
220
0.0
230
1.0
 70
     8
 71
     3
 72
    11
 73
     7
 74
     0
 42
0.000000001
 43
0.0000000001
 40
0.0
 40
0.0
 40
0.0
 40
0.0
 40
0.2457078601239497
 40
0.4910458046940757
 40
0.7417105671362921
 40
1.0
 40
1.0
 40
1.0
 40
1.0
 10
124.2964010393843
 20
79.96987731535409
 30
0.0
 10
124.2821645354434
 20
79.98953502216136
 30
0.0
 10
124.2537129607535
 20
80.02882084090742
 30
0.0
 10
124.221862911756
 20
80.0949359677743
 30
0.0
 10
124.195639118654
 20
80.16475943277873
 30
0.0
 10
124.1859390944155
 20
80.21407891470516
 30
0.0
 10
124.1810164239996
 20
80.23910808458641
 30
0.0
  0
SPLINE
  5
150
330
81
100
AcDbEntity
  8
MD_可視
100
AcDbSpline
210
0.0
220
0.0
230
1.0
 70
     8
 71
     3
 72
    15
 73
    11
 74
     0
 42
0.000000001
 43
0.0000000001
 40
0.0
 40
0.0
 40
0.0
 40
0.0
 40
0.1496309535200396
 40
0.2882819739246364
 40
0.4156823843484714
 40
0.5340256197082246
 40
0.6478974760960467
 40
0.7625629189046136
 40
0.8796415697285507
 40
1.0
 40
1.0
 40
1.0
 40
1.0
 10
124.1810164239996
 20
80.23910808458641
 30
0.0
 10
124.1473086461283
 20
80.21259697202731
 30
0.0
 10
124.0823665702191
 20
80.16152013478677
 30
0.0
 10
123.9831576297547
 20
80.09540869072043
 30
0.0
 10
123.8872761429538
 20
80.04096544902859
 30
0.0
 10
123.7928083254537
 20
79.99933736737694
 30
0.0
 10
123.6979971375785
 20
79.96899890246277
 30
0.0
 10
123.6012735198583
 20
79.94735972900707
 30
0.0
 10
123.5011248866703
 20
79.93358605377216
 30
0.0
 10
123.4330646739108
 20
79.93214583389454
 30
0.0
 10
123.3985645009234
 20
79.93141577689311
 30
0.0
  0
SPLINE
  5
151
330
81
100
AcDbEntity
  8
MD_可視
100
AcDbSpline
210
0.0
220
0.0
230
1.0
 70
     8
 71
     3
 72
    23
 73
    19
 74
     0
 42
0.000000001
 43
0.0000000001
 40
0.0
 40
0.0
 40
0.0
 40
0.0
 40
0.0786682929692151
 40
0.1525937767191632
 40
0.2228626577967836
 40
0.2898954155805926
 40
0.3540434730085087
 40
0.4158251014519007
 40
0.476257234630764
 40
0.5356471748304291
 40
0.5940303421736837
 40
0.6512128675007187
 40
0.7074640869910756
 40
0.7637209122634472
 40
0.8203826790805207
 40
0.8786793608029686
 40
0.9381648003428226
 40
1.0
 40
1.0
 40
1.0
 40
1.0
 10
123.3985645009234
 20
79.93141577689311
 30
0.0
 10
123.3705038655353
 20
79.9320699994787
 30
0.0
 10
123.3160743340231
 20
79.93333900241669
 30
0.0
 10
123.2368400675568
 20
79.94091902758009
 30
0.0
 10
123.1626559626565
 20
79.95473375091023
 30
0.0
 10
123.0933971049126
 20
79.97412572083522
 30
0.0
 10
123.0285757277943
 20
79.99767249067736
 30
0.0
 10
122.9693446285546
 20
80.02818822292283
 30
0.0
 10
122.9148950539565
 20
80.06352619554309
 30
0.0
 10
122.8661936289354
 20
80.10463582266311
 30
0.0
 10
122.8230248230684
 20
80.1498243710721
 30
0.0
 10
122.784799845047
 20
80.1978853392684
 30
0.0
 10
122.7528821286523
 20
80.24945936682343
 30
0.0
 10
122.726172711471
 20
80.3036885564561
 30
0.0
 10
122.7055779253096
 20
80.36134185311311
 30
0.0
 10
122.6913605971694
 20
80.42203081553452
 30
0.0
 10
122.6828047777526
 20
80.48565969322226
 30
0.0
 10
122.681620189689
 20
80.5289451926419
 30
0.0
 10
122.6810164239996
 20
80.55100712304739
 30
0.0
  0
SPLINE
  5
152
330
81
100
AcDbEntity
  8
MD_可視
100
AcDbSpline
210
0.0
220
0.0
230
1.0
 70
     8
 71
     3
 72
    19
 73
    15
 74
     0
 42
0.000000001
 43
0.0000000001
 40
0.0
 40
0.0
 40
0.0
 40
0.0
 40
0.0900967267208084
 40
0.1772509756632286
 40
0.2626286458387948
 40
0.3477956973146737
 40
0.4319444412211235
 40
0.5133389603343291
 40
0.5935987681294178
 40
0.6729312755166892
 40
0.7531851158179747
 40
0.83366838522732
 40
0.9161820128050468
 40
1.0
 40
1.0
 40
1.0
 40
1.0
 10
122.6810164239996
 20
80.55100712304739
 30
0.0
 10
122.6817333742892
 20
80.57711182220192
 30
0.0
 10
122.6831438599183
 20
80.62846866459585
 30
0.0
 10
122.6970236523957
 20
80.70347848064011
 30
0.0
 10
122.7184089426482
 20
80.7751221503604
 30
0.0
 10
122.7493919513035
 20
80.84226021339054
 30
0.0
 10
122.7869841972188
 20
80.90450840616359
 30
0.0
 10
122.8306868207128
 20
80.96082756901342
 30
0.0
 10
122.8792322251738
 20
81.01118838956427
 30
0.0
 10
122.9341831059501
 20
81.05393989388904
 30
0.0
 10
122.9931430342494
 20
81.09085287092421
 30
0.0
 10
123.0554930304715
 20
81.12371426891696
 30
0.0
 10
123.121507009333
 20
81.15135303950774
 30
0.0
 10
123.1674700626226
 20
81.16574826133547
 30
0.0
 10
123.1906318086148
 20
81.17300231535409
 30
0.0
  0
SPLINE
  5
153
330
81
100
AcDbEntity
  8
MD_可視
100
AcDbSpline
210
0.0
220
0.0
230
1.0
 70
     8
 71
     3
 72
    11
 73
     7
 74
     0
 42
0.000000001
 43
0.0000000001
 40
0.0
 40
0.0
 40
0.0
 40
0.0
 40
0.1888117805854826
 40
0.4192996053475299
 40
0.6884945673211778
 40
1.0
 40
1.0
 40
1.0
 40
1.0
 10
123.1906318086148
 20
81.17300231535409
 30
0.0
 10
123.2102135186105
 20
81.1780350312947
 30
0.0
 10
123.2536991700253
 20
81.18921132443029
 30
0.0
 10
123.3263104759171
 20
81.20209633483501
 30
0.0
 10
123.4119692213607
 20
81.21632811806739
 30
0.0
 10
123.4736500805593
 20
81.22411412493784
 30
0.0
 10
123.5067375778471
 20
81.22829077689312
 30
0.0
  0
SPLINE
  5
154
330
81
100
AcDbEntity
  8
MD_可視
100
AcDbSpline
210
0.0
220
0.0
230
1.0
 70
     8
 71
     3
 72
    15
 73
    11
 74
     0
 42
0.000000001
 43
0.0000000001
 40
0.0
 40
0.0
 40
0.0
 40
0.0
 40
0.1619610642351133
 40
0.312890090042981
 40
0.4540140652861501
 40
0.5843347598539951
 40
0.7037294930768491
 40
0.8126687828164946
 40
0.9110788799666369
 40
1.0
 40
1.0
 40
1.0
 40
1.0
 10
123.5067375778471
 20
81.22829077689312
 30
0.0
 10
123.5413987956963
 20
81.23285275164381
 30
0.0
 10
123.6083602695853
 20
81.24166596052964
 30
0.0
 10
123.7054298963758
 20
81.25519176893977
 30
0.0
 10
123.7953691064049
 20
81.27021791341212
 30
0.0
 10
123.8782388792369
 20
81.28602286845126
 30
0.0
 10
123.9541798015834
 20
81.30115570118505
 30
0.0
 10
124.0226480071614
 20
81.31814615975235
 30
0.0
 10
124.0842753434081
 20
81.33532386572188
 30
0.0
 10
124.1225730863389
 20
81.3483225649834
 30
0.0
 10
124.1407520009234
 20
81.35449269996934
 30
0.0
  0
SPLINE
  5
155
330
81
100
AcDbEntity
  8
MD_可視
100
AcDbSpline
210
0.0
220
0.0
230
1.0
 70
     8
 71
     3
 72
    11
 73
     7
 74
     0
 42
0.000000001
 43
0.0000000001
 40
0.0
 40
0.0
 40
0.0
 40
0.0
 40
0.3556804465405314
 40
0.6442780330475499
 40
0.8590950904898599
 40
1.0
 40
1.0
 40
1.0
 40
1.0
 10
124.1407520009234
 20
81.35449269996934
 30
0.0
 10
124.1409553144367
 20
81.36510962592183
 30
0.0
 10
124.1413235956625
 20
81.38434107998547
 30
0.0
 10
124.1417753856549
 20
81.40998554510042
 30
0.0
 10
124.1426584238688
 20
81.42920744167714
 30
0.0
 10
124.1425842618373
 20
81.43982876168228
 30
0.0
 10
124.1425548855386
 20
81.44403596920165
 30
0.0
  0
SPLINE
  5
156
330
81
100
AcDbEntity
  8
MD_可視
100
AcDbSpline
210
0.0
220
0.0
230
1.0
 70
     8
 71
     3
 72
    15
 73
    11
 74
     0
 42
0.000000001
 43
0.0000000001
 40
0.0
 40
0.0
 40
0.0
 40
0.0
 40
0.1576937362009051
 40
0.3027499425532365
 40
0.4381682001453403
 40
0.5647048489007961
 40
0.6817627038951843
 40
0.7918313926672656
 40
0.896524397289439
 40
1.0
 40
1.0
 40
1.0
 40
1.0
 10
124.1425548855386
 20
81.44403596920165
 30
0.0
 10
124.1421189921857
 20
81.46086838917653
 30
0.0
 10
124.1412821378471
 20
81.49318428391962
 30
0.0
 10
124.1374292806868
 20
81.53986691704449
 30
0.0
 10
124.1295141169576
 20
81.58267140516546
 30
0.0
 10
124.1188482804009
 20
81.6217386409262
 30
0.0
 10
124.1053119792068
 20
81.65714839457724
 30
0.0
 10
124.0873804739476
 20
81.6877813669471
 30
0.0
 10
124.0677881588763
 20
81.71574286487521
 30
0.0
 10
124.051495112677
 20
81.73094867896725
 30
0.0
 10
124.0433962316929
 20
81.73850712304739
 30
0.0
  0
SPLINE
  5
157
330
81
100
AcDbEntity
  8
MD_可視
100
AcDbSpline
210
0.0
220
0.0
230
1.0
 70
     8
 71
     3
 72
    15
 73
    11
 74
     0
 42
0.000000001
 43
0.0000000001
 40
0.0
 40
0.0
 40
0.0
 40
0.0
 40
0.1049703496517389
 40
0.2146398276404141
 40
0.3285607599507869
 40
0.4466648476790199
 40
0.5732739117380831
 40
0.7065365026034146
 40
0.8485731287121453
 40
1.0
 40
1.0
 40
1.0
 40
1.0
 10
124.0433962316929
 20
81.73850712304739
 30
0.0
 10
124.0318125211342
 20
81.74786306030183
 30
0.0
 10
124.0081265407971
 20
81.76699376498437
 30
0.0
 10
123.9673531665776
 20
81.78972090176831
 30
0.0
 10
123.9236434225331
 20
81.8105683886606
 30
0.0
 10
123.8753710017281
 20
81.82672635154814
 30
0.0
 10
123.8232561147124
 20
81.83913631345786
 30
0.0
 10
123.767005964577
 20
81.84808957764289
 30
0.0
 10
123.7067656574727
 20
81.8535409152937
 30
0.0
 10
123.6652030648565
 20
81.85416874201109
 30
0.0
 10
123.6437568086148
 20
81.85449269996935
 30
0.0
  0
SPLINE
  5
158
330
81
100
AcDbEntity
  8
MD_可視
100
AcDbSpline
210
0.0
220
0.0
230
1.0
 70
     8
 71
     3
 72
    19
 73
    15
 74
     0
 42
0.000000001
 43
0.0000000001
 40
0.0
 40
0.0
 40
0.0
 40
0.0
 40
0.0851827668127387
 40
0.1637016951596594
 40
0.2382837371174096
 40
0.3066129873470374
 40
0.3706460675668894
 40
0.4288211849073737
 40
0.4845120224017473
 40
0.5356398443200482
 40
0.6372693692268116
 40
0.7452788635791564
 40
0.8653142197383731
 40
1.0
 40
1.0
 40
1.0
 40
1.0
 10
123.6437568086148
 20
81.85449269996935
 30
0.0
 10
123.6237182531458
 20
81.8542880734749
 30
0.0
 10
123.5852087561961
 20
81.85389482838946
 30
0.0
 10
123.5292593342419
 20
81.85016120998444
 30
0.0
 10
123.4774719566685
 20
81.84441233441248
 30
0.0
 10
123.4294923256784
 20
81.83598448239171
 30
0.0
 10
123.385944882184
 20
81.82526688624603
 30
0.0
 10
123.3460088941829
 20
81.81264744158397
 30
0.0
 10
123.3102394119141
 20
81.7973530054769
 30
0.0
 10
123.2677200720009
 20
81.77278535408367
 30
0.0
 10
123.2198738509742
 20
81.73341296675607
 30
0.0
 10
123.1730298480652
 20
81.6710649509223
 30
0.0
 10
123.1319127166353
 20
81.59581489988886
 30
0.0
 10
123.1137153474446
 20
81.53859455553719
 30
0.0
 10
123.1040933470776
 20
81.5083388538169
 30
0.0
  0
LINE
  5
159
330
81
100
AcDbEntity
  8
MD_可視
100
AcDbLine
 10
123.1040933470776
 20
81.5083388538169
 30
0.0000000000000009
 11
122.7194779624624
 21
81.54680039227788
 31
0.0000000000000009
  0
SPLINE
  5
15A
330
81
100
AcDbEntity
  8
MD_可視
100
AcDbSpline
210
0.0
220
0.0
230
1.0
 70
     8
 71
     3
 72
    19
 73
    15
 74
     0
 42
0.000000001
 43
0.0000000001
 40
0.0
 40
0.0
 40
0.0
 40
0.0
 40
0.0851044530188515
 40
0.1643314998230949
 40
0.2380773820525839
 40
0.3082779440134492
 40
0.3780989755694152
 40
0.4508414657082241
 40
0.5285405729277651
 40
0.6119430152696533
 40
0.7014543501110867
 40
0.7954789558948187
 40
0.8947745344629712
 40
1.0
 40
1.0
 40
1.0
 40
1.0
 10
122.7194779624624
 20
81.54680039227788
 30
0.0
 10
122.7283030263588
 20
81.58289020377925
 30
0.0
 10
122.7453436856303
 20
81.6525774250913
 30
0.0
 10
122.7828389028327
 20
81.74977094396309
 30
0.0
 10
122.8282206454441
 20
81.83608687472043
 30
0.0
 10
122.8813891307199
 20
81.91313946944683
 30
0.0
 10
122.9467426741612
 20
81.97960051600421
 30
0.0
 10
123.0233985765408
 20
82.03810360516763
 30
0.0
 10
123.1133573198058
 20
82.08687770991128
 30
0.0
 10
123.2147330114858
 20
82.12826110065179
 30
0.0
 10
123.3267303568373
 20
82.16088722455424
 30
0.0
 10
123.4480549877553
 20
82.18407681026656
 30
0.0
 10
123.5777298856373
 20
82.1979272699591
 30
0.0
 10
123.6669591802929
 20
82.19972276783664
 30
0.0
 10
123.7128673855386
 20
82.20064654612361
 30
0.0
  0
SPLINE
  5
15B
330
81
100
AcDbEntity
  8
MD_可視
100
AcDbSpline
210
0.0
220
0.0
230
1.0
 70
     8
 71
     3
 72
    19
 73
    15
 74
     0
 42
0.000000001
 43
0.0000000001
 40
0.0
 40
0.0
 40
0.0
 40
0.0
 40
0.127701507100352
 40
0.2433675130499634
 40
0.3471885755802541
 40
0.4412827405881252
 40
0.5260554750250693
 40
0.6028203240880924
 40
0.6721135485315816
 40
0.7357752349647719
 40
0.7977781204612833
 40
0.8617653921994165
 40
0.9285338459256562
 40
1.0
 40
1.0
 40
1.0
 40
1.0
 10
123.7128673855386
 20
82.20064654612361
 30
0.0
 10
123.7577671695162
 20
82.19986175926715
 30
0.0
 10
123.8433350614814
 20
82.19836614946689
 30
0.0
 10
123.9649713283288
 20
82.1866348847161
 30
0.0
 10
124.0735772867974
 20
82.16670662487558
 30
0.0
 10
124.1689039745342
 20
82.13783841338045
 30
0.0
 10
124.2517693351128
 20
82.10272253105177
 30
0.0
 10
124.3233139693729
 20
82.06407875189325
 30
0.0
 10
124.3832029609984
 20
82.02062922892038
 30
0.0
 10
124.4320168207869
 20
81.97209594468223
 30
0.0
 10
124.4711769777714
 20
81.91779918154315
 30
0.0
 10
124.5028340178269
 20
81.85772567422828
 30
0.0
 10
124.5292750139197
 20
81.79151287565218
 30
0.0
 10
124.5409606323883
 20
81.74429076022533
 30
0.0
 10
124.5470020009234
 20
81.71987731535409
 30
0.0
  0
SPLINE
  5
15C
330
81
100
AcDbEntity
  8
MD_可視
100
AcDbSpline
210
0.0
220
0.0
230
1.0
 70
     8
 71
     3
 72
    11
 73
     7
 74
     0
 42
0.000000001
 43
0.0000000001
 40
0.0
 40
0.0
 40
0.0
 40
0.0
 40
0.1714607416066568
 40
0.3944860454859538
 40
0.6699947376241078
 40
1.0
 40
1.0
 40
1.0
 40
1.0
 10
124.5470020009234
 20
81.71987731535409
 30
0.0
 10
124.5501083896415
 20
81.70128268734515
 30
0.0
 10
124.557255372616
 20
81.65850134158791
 30
0.0
 10
124.5612512559128
 20
81.58489271668077
 30
0.0
 10
124.5652449782228
 20
81.49396373343552
 30
0.0
 10
124.5654953538396
 20
81.427418515088
 30
0.0
 10
124.5656318086148
 20
81.3911513538169
 30
0.0
  0
LINE
  5
15D
330
81
100
AcDbEntity
  8
MD_可視
100
AcDbLine
 10
124.5656318086148
 20
81.3911513538169
 30
0.0000000000000009
 11
124.5656318086148
 21
80.92180039227788
 31
0.0000000000000009
  0
SPLINE
  5
15E
330
81
100
AcDbEntity
  8
MD_可視
100
AcDbSpline
210
0.0
220
0.0
230
1.0
 70
     8
 71
     3
 72
    19
 73
    15
 74
     0
 42
0.000000001
 43
0.0000000001
 40
0.0
 40
0.0
 40
0.0
 40
0.0
 40
0.1217293659998131
 40
0.2322798102196394
 40
0.3322878453389916
 40
0.42115371304021
 40
0.5000894513783442
 40
0.5678874862432375
 40
0.6252406305038765
 40
0.671537735466273
 40
0.753639908950063
 40
0.8352921912177425
 40
0.917389666571376
 40
1.0
 40
1.0
 40
1.0
 40
1.0
 10
124.5656318086148
 20
80.92180039227788
 30
0.0
 10
124.5658529446336
 20
80.88253766588787
 30
0.0
 10
124.5662749088187
 20
80.8076178750889
 30
0.0
 10
124.5665532800485
 20
80.70043990957129
 30
0.0
 10
124.5682053208565
 20
80.60386849366114
 30
0.0
 10
124.5715532621288
 20
80.51754963978964
 30
0.0
 10
124.574318436651
 20
80.44160977970022
 30
0.0
 10
124.5776609254117
 20
80.37585873778516
 30
0.0
 10
124.5824294934118
 20
80.32075298001837
 30
0.0
 10
124.5894846839
 20
80.26124671438266
 30
0.0
 10
124.6017862832086
 20
80.19452201949025
 30
0.0
 10
124.6226276298239
 20
80.11796488024264
 30
0.0
 10
124.6479547270883
 20
80.04252806565455
 30
0.0
 10
124.6699730052642
 20
79.99414445019829
 30
0.0
 10
124.6810164239996
 20
79.96987731535409
 30
0.0
  0
LINE
  5
15F
330
81
100
AcDbEntity
  8
MD_可視
100
AcDbLine
 10
122.492554885539
 20
71.91987731535482
 30
0.0
 11
128.7925548855382
 21
71.91987731535482
 31
0.0
  0
LINE
  5
160
330
81
100
AcDbEntity
  8
MD_可視
100
AcDbLine
 10
129.4975548855382
 20
76.75987731535497
 30
0.0
 11
128.8875548855394
 21
76.75987731535497
 31
0.0
  0
LINE
  5
161
330
81
100
AcDbEntity
  8
MD_可視
100
AcDbLine
 10
128.4475548855389
 20
76.75987731535497
 30
0.0
 11
127.8375548855383
 21
76.75987731535497
 31
0.0
  0
LINE
  5
162
330
81
100
AcDbEntity
  8
MD_可視
100
AcDbLine
 10
127.4475548855389
 20
76.75987731535497
 30
0.0
 11
126.8375548855383
 21
76.75987731535497
 31
0.0
  0
LINE
  5
163
330
81
100
AcDbEntity
  8
MD_可視
100
AcDbLine
 10
126.4475548855389
 20
76.75987731535497
 30
0.0
 11
125.8375548855383
 21
76.75987731535497
 31
0.0
  0
LINE
  5
164
330
81
100
AcDbEntity
  8
MD_可視
100
AcDbLine
 10
125.4475548855389
 20
76.75987731535497
 30
0.0
 11
124.8375548855383
 21
76.75987731535497
 31
0.0
  0
LINE
  5
165
330
81
100
AcDbEntity
  8
MD_可視
100
AcDbLine
 10
124.4475548855389
 20
76.75987731535497
 30
0.0
 11
123.8375548855383
 21
76.75987731535497
 31
0.0
  0
LINE
  5
166
330
81
100
AcDbEntity
  8
MD_可視
100
AcDbLine
 10
123.4475548855389
 20
76.75987731535497
 30
0.0
 11
122.8375548855383
 21
76.75987731535497
 31
0.0
  0
LINE
  5
167
330
81
100
AcDbEntity
  8
MD_可視
100
AcDbLine
 10
122.3975548855378
 20
76.75987731535497
 30
0.0
 11
121.787554885539
 21
76.75987731535497
 31
0.0
  0
LINE
  5
168
330
81
100
AcDbEntity
  8
MD_可視
100
AcDbLine
 10
130.3925548855386
 20
75.01987731535519
 30
0.0
 11
131.5925548855393
 21
75.01987731535519
 31
0.0
  0
LINE
  5
169
330
81
100
AcDbEntity
  8
MD_可視
100
AcDbLine
 10
119.6925548855379
 20
75.01987731535519
 30
0.0
 11
120.8925548855386
 21
75.01987731535519
 31
0.0
  0
LINE
  5
16A
330
81
100
AcDbEntity
  8
MD_可視
100
AcDbLine
 10
120.8925548855386
 20
75.01987731535519
 30
0.0
 11
120.8925548855386
 21
72.81987731535446
 31
0.0
  0
LINE
  5
16B
330
81
100
AcDbEntity
  8
MD_可視
100
AcDbLine
 10
120.8925548855386
 20
72.81987731535446
 30
0.0
 11
120.8925548855386
 21
71.81987731535446
 31
0.0
  0
LINE
  5
16C
330
81
100
AcDbEntity
  8
MD_可視
100
AcDbLine
 10
122.492554885539
 20
72.81987731535446
 30
0.0
 11
120.8925548855386
 21
72.81987731535446
 31
0.0
  0
LINE
  5
16D
330
81
100
AcDbEntity
  8
MD_可視
100
AcDbLine
 10
130.3925548855386
 20
72.81987731535446
 30
0.0
 11
130.3925548855386
 21
75.01987731535519
 31
0.0
  0
LINE
  5
16E
330
81
100
AcDbEntity
  8
MD_可視
100
AcDbLine
 10
130.3925548855386
 20
71.81987731535446
 30
0.0
 11
130.3925548855386
 21
72.81987731535446
 31
0.0
  0
LINE
  5
16F
330
81
100
AcDbEntity
  8
MD_可視
100
AcDbLine
 10
130.3925548855386
 20
72.81987731535446
 30
0.0
 11
128.7925548855382
 21
72.81987731535446
 31
0.0
  0
LINE
  5
170
330
81
100
AcDbEntity
  8
MD_可視
100
AcDbLine
 10
123.6425548855386
 20
68.71987731535409
 30
0.0000000000000009
 11
127.6425548855386
 21
68.71987731535409
 31
0.0000000000000009
  0
LINE
  5
171
330
81
100
AcDbEntity
  8
MD_可視
100
AcDbLine
 10
128.7925548855382
 20
70.01987731535519
 30
-0.0000000000000009
 11
128.7925548855382
 21
71.81987731535446
 31
-0.0000000000000009
  0
LINE
  5
172
330
81
100
AcDbEntity
  8
MD_可視
100
AcDbLine
 10
128.7925548855382
 20
72.81987731535446
 30
0.0
 11
128.7925548855382
 21
71.81987731535446
 31
0.0
  0
LINE
  5
173
330
81
100
AcDbEntity
  8
MD_可視
100
AcDbLine
 10
128.7925548855382
 20
73.9698773153541
 30
0.0
 11
128.7925548855382
 21
72.81987731535446
 31
0.0
  0
LINE
  5
174
330
81
100
AcDbEntity
  8
MD_可視
100
AcDbLine
 10
122.492554885539
 20
71.81987731535446
 30
-0.0000000000000009
 11
122.492554885539
 21
70.01987731535519
 31
-0.0000000000000009
  0
LINE
  5
175
330
81
100
AcDbEntity
  8
MD_可視
100
AcDbLine
 10
122.492554885539
 20
72.81987731535446
 30
0.0
 11
122.492554885539
 21
73.9698773153541
 31
0.0
  0
LINE
  5
176
330
81
100
AcDbEntity
  8
MD_可視
100
AcDbLine
 10
122.492554885539
 20
71.81987731535446
 30
0.0
 11
122.492554885539
 21
72.81987731535446
 31
0.0
  0
LINE
  5
177
330
81
100
AcDbEntity
  8
MD_可視
100
AcDbLine
 10
123.6425548855386
 20
70.01987731535519
 30
-0.0000000000000009
 11
123.6425548855386
 21
68.55385191157075
 31
-0.0000000000000009
  0
LINE
  5
178
330
81
100
AcDbEntity
  8
MD_可視
100
AcDbLine
 10
127.6425548855386
 20
68.55385191157075
 30
0.0000000000000009
 11
127.6425548855386
 21
70.01987731535519
 31
0.0000000000000009
  0
LINE
  5
179
330
81
100
AcDbEntity
  8
MD_可視
100
AcDbLine
 10
131.5925548855393
 20
71.81987731535446
 30
-0.0000000000000009
 11
131.5925548855393
 21
78.61987731535555
 31
-0.0000000000000009
  0
LINE
  5
17A
330
81
100
AcDbEntity
  8
MD_可視
100
AcDbLine
 10
128.7925548855382
 20
71.81987731535446
 30
-0.0000000000000009
 11
131.5925548855393
 21
71.81987731535446
 31
-0.0000000000000009
  0
LINE
  5
17B
330
81
100
AcDbEntity
  8
MD_可視
100
AcDbLine
 10
119.6925548855379
 20
78.61987731535555
 30
0.0000000000000009
 11
119.6925548855379
 21
71.81987731535446
 31
0.0000000000000009
  0
LINE
  5
17C
330
81
100
AcDbEntity
  8
MD_可視
100
AcDbLine
 10
119.6925548855379
 20
71.81987731535446
 30
-0.0000000000000009
 11
122.492554885539
 21
71.81987731535446
 31
-0.0000000000000009
  0
LINE
  5
17D
330
81
100
AcDbEntity
  8
MD_可視
100
AcDbLine
 10
127.5425548855382
 20
70.61987731535555
 30
0.0
 11
123.742554885539
 21
70.61987731535555
 31
0.0
  0
LINE
  5
17E
330
81
100
AcDbEntity
  8
MD_可視
100
AcDbLine
 10
123.742554885539
 20
70.61987731535555
 30
0.0
 11
123.742554885539
 21
70.41987731535482
 31
0.0
  0
LINE
  5
17F
330
81
100
AcDbEntity
  8
MD_可視
100
AcDbLine
 10
127.5425548855382
 20
70.61987731535555
 30
0.0
 11
127.5425548855382
 21
70.41987731535482
 31
0.0
  0
LINE
  5
180
330
81
100
AcDbEntity
  8
MD_可視
100
AcDbLine
 10
130.3925548855386
 20
71.91987731535482
 30
0.0
 11
130.492554885539
 21
71.91987731535482
 31
0.0
  0
LINE
  5
181
330
81
100
AcDbEntity
  8
MD_可視
100
AcDbLine
 10
130.3925548855386
 20
74.91987731535482
 30
0.0
 11
130.492554885539
 21
74.91987731535482
 31
0.0
  0
LINE
  5
182
330
81
100
AcDbEntity
  8
MD_可視
100
AcDbLine
 10
120.7925548855382
 20
71.91987731535482
 30
0.0
 11
120.8925548855386
 21
71.91987731535482
 31
0.0
  0
LINE
  5
183
330
81
100
AcDbEntity
  8
MD_可視
100
AcDbLine
 10
120.7925548855382
 20
74.91987731535482
 30
0.0
 11
120.8925548855386
 21
74.91987731535482
 31
0.0
  0
LINE
  5
184
330
81
100
AcDbEntity
  8
MD_可視
100
AcDbLine
 10
127.6425548855386
 20
70.01987731535519
 30
-0.0000000000000009
 11
128.7925548855382
 21
70.01987731535519
 31
-0.0000000000000009
  0
LINE
  5
185
330
81
100
AcDbEntity
  8
MD_可視
100
AcDbLine
 10
122.492554885539
 20
70.01987731535519
 30
-0.0000000000000009
 11
123.6425548855386
 21
70.01987731535519
 31
-0.0000000000000009
  0
ELLIPSE
  5
186
330
81
100
AcDbEntity
  8
MD_可視
100
AcDbEllipse
 10
123.1425548855386
 20
68.55385191157075
 30
-0.0000000000000009
 11
0.5000000000000476
 21
-0.0000000000000101
 31
0.0
210
0.0
220
0.0
230
-1.0
 40
0.2679491924311129
 41
0.0000000000011895
 42
1.570796326795977
  0
ELLIPSE
  5
187
330
81
100
AcDbEntity
  8
MD_可視
100
AcDbEllipse
 10
128.1425548855386
 20
68.55385191157075
 30
0.0000000000000009
 11
0.500000000000008
 21
-0.0000000000000228
 31
0.0
210
0.0
220
0.0
230
-1.0
 40
0.2679491924311187
 41
1.570796326794708
 42
3.141592653589587
  0
LINE
  5
188
330
81
100
AcDbEntity
  8
MD_可視
100
AcDbLine
 10
130.5925548855393
 20
78.4698773153541
 30
0.0
 11
130.5925548855393
 21
78.61987731535555
 31
0.0
  0
LINE
  5
189
330
81
100
AcDbEntity
  8
MD_可視
100
AcDbLine
 10
129.4975548855382
 20
76.75987731535497
 30
0.0
 11
129.4975548855382
 21
78.4698773153541
 31
0.0
  0
LINE
  5
18A
330
81
100
AcDbEntity
  8
MD_可視
100
AcDbLine
 10
128.8875548855394
 20
78.4698773153541
 30
0.0
 11
128.8875548855394
 21
76.75987731535497
 31
0.0
  0
LINE
  5
18B
330
81
100
AcDbEntity
  8
MD_可視
100
AcDbLine
 10
128.4475548855389
 20
76.75987731535497
 30
0.0
 11
128.4475548855389
 21
78.4698773153541
 31
0.0
  0
LINE
  5
18C
330
81
100
AcDbEntity
  8
MD_可視
100
AcDbLine
 10
127.8375548855383
 20
78.4698773153541
 30
0.0
 11
127.8375548855383
 21
76.75987731535497
 31
0.0
  0
LINE
  5
18D
330
81
100
AcDbEntity
  8
MD_可視
100
AcDbLine
 10
127.4475548855389
 20
76.75987731535497
 30
0.0
 11
127.4475548855389
 21
78.4698773153541
 31
0.0
  0
LINE
  5
18E
330
81
100
AcDbEntity
  8
MD_可視
100
AcDbLine
 10
126.8375548855383
 20
78.4698773153541
 30
0.0
 11
126.8375548855383
 21
76.75987731535497
 31
0.0
  0
LINE
  5
18F
330
81
100
AcDbEntity
  8
MD_可視
100
AcDbLine
 10
126.4475548855389
 20
76.75987731535497
 30
0.0
 11
126.4475548855389
 21
78.4698773153541
 31
0.0
  0
LINE
  5
190
330
81
100
AcDbEntity
  8
MD_可視
100
AcDbLine
 10
125.8375548855383
 20
78.4698773153541
 30
0.0
 11
125.8375548855383
 21
76.75987731535497
 31
0.0
  0
LINE
  5
191
330
81
100
AcDbEntity
  8
MD_可視
100
AcDbLine
 10
125.4475548855389
 20
76.75987731535497
 30
0.0
 11
125.4475548855389
 21
78.4698773153541
 31
0.0
  0
LINE
  5
192
330
81
100
AcDbEntity
  8
MD_可視
100
AcDbLine
 10
124.8375548855383
 20
78.4698773153541
 30
0.0
 11
124.8375548855383
 21
76.75987731535497
 31
0.0
  0
LINE
  5
193
330
81
100
AcDbEntity
  8
MD_可視
100
AcDbLine
 10
124.4475548855389
 20
76.75987731535497
 30
0.0
 11
124.4475548855389
 21
78.4698773153541
 31
0.0
  0
LINE
  5
194
330
81
100
AcDbEntity
  8
MD_可視
100
AcDbLine
 10
123.8375548855383
 20
78.4698773153541
 30
0.0
 11
123.8375548855383
 21
76.75987731535497
 31
0.0
  0
LINE
  5
195
330
81
100
AcDbEntity
  8
MD_可視
100
AcDbLine
 10
123.4475548855389
 20
76.75987731535497
 30
0.0
 11
123.4475548855389
 21
78.4698773153541
 31
0.0
  0
LINE
  5
196
330
81
100
AcDbEntity
  8
MD_可視
100
AcDbLine
 10
122.8375548855383
 20
78.4698773153541
 30
0.0
 11
122.8375548855383
 21
76.75987731535497
 31
0.0
  0
LINE
  5
197
330
81
100
AcDbEntity
  8
MD_可視
100
AcDbLine
 10
122.3975548855378
 20
76.75987731535497
 30
0.0
 11
122.3975548855378
 21
78.4698773153541
 31
0.0
  0
LINE
  5
198
330
81
100
AcDbEntity
  8
MD_可視
100
AcDbLine
 10
121.787554885539
 20
78.4698773153541
 30
0.0
 11
121.787554885539
 21
76.75987731535497
 31
0.0
  0
LINE
  5
199
330
81
100
AcDbEntity
  8
MD_可視
100
AcDbLine
 10
120.6925548855379
 20
78.61987731535555
 30
0.0
 11
120.6925548855379
 21
78.4698773153541
 31
0.0
  0
LINE
  5
19A
330
81
100
AcDbEntity
  8
MD_可視
100
AcDbLine
 10
128.7925548855382
 20
73.9698773153541
 30
0.0
 11
122.492554885539
 21
73.9698773153541
 31
0.0
  0
LINE
  5
19B
330
81
100
AcDbEntity
  8
MD_可視
100
AcDbLine
 10
128.1425548855386
 20
69.51987731535519
 30
0.0
 11
127.6425548855386
 21
70.01987731535519
 31
0.0
  0
LINE
  5
19C
330
81
100
AcDbEntity
  8
MD_可視
100
AcDbLine
 10
129.2925548855382
 20
69.51987731535519
 30
0.0
 11
128.7925548855382
 21
70.01987731535519
 31
0.0
  0
LINE
  5
19D
330
81
100
AcDbEntity
  8
MD_可視
100
AcDbLine
 10
129.2925548855382
 20
71.31987731535446
 30
0.0
 11
128.7925548855382
 21
71.81987731535446
 31
0.0
  0
LINE
  5
19E
330
81
100
AcDbEntity
  8
MD_可視
100
AcDbLine
 10
132.0925548855393
 20
71.31987731535446
 30
0.0
 11
131.5925548855393
 21
71.81987731535446
 31
0.0
  0
LINE
  5
19F
330
81
100
AcDbEntity
  8
MD_可視
100
AcDbLine
 10
132.0925548855393
 20
79.11987731535555
 30
0.0
 11
131.5925548855393
 21
78.61987731535555
 31
0.0
  0
LINE
  5
1A0
330
81
100
AcDbEntity
  8
MD_可視
100
AcDbLine
 10
119.1925548855379
 20
79.11987731535555
 30
0.0
 11
119.6925548855379
 21
78.61987731535555
 31
0.0
  0
LINE
  5
1A1
330
81
100
AcDbEntity
  8
MD_可視
100
AcDbLine
 10
119.1925548855379
 20
71.31987731535446
 30
0.0
 11
119.6925548855379
 21
71.81987731535446
 31
0.0
  0
LINE
  5
1A2
330
81
100
AcDbEntity
  8
MD_可視
100
AcDbLine
 10
121.992554885539
 20
71.31987731535446
 30
0.0
 11
122.492554885539
 21
71.81987731535446
 31
0.0
  0
LINE
  5
1A3
330
81
100
AcDbEntity
  8
MD_可視
100
AcDbLine
 10
121.992554885539
 20
69.51987731535519
 30
0.0
 11
122.492554885539
 21
70.01987731535519
 31
0.0
  0
LINE
  5
1A4
330
81
100
AcDbEntity
  8
MD_可視
100
AcDbLine
 10
123.6425548855386
 20
70.01987731535519
 30
0.0
 11
123.1425548855386
 21
69.51987731535519
 31
0.0
  0
LINE
  5
1A5
330
81
100
AcDbEntity
  8
MD_可視
100
AcDbLine
 10
124.1407520009234
 20
80.89656000766263
 30
0.0000000000000009
 11
124.1425548855386
 21
81.00833885381689
 31
0.0000000000000009
  0
SPLINE
  5
1A6
330
81
100
AcDbEntity
  8
MD_可視
100
AcDbSpline
210
0.0
220
0.0
230
1.0
 70
     8
 71
     3
 72
    11
 73
     7
 74
     0
 42
0.000000001
 43
0.0000000001
 40
0.0
 40
0.0
 40
0.0
 40
0.0
 40
0.2016553881025728
 40
0.4336305399408935
 40
0.6976393806374574
 40
1.0
 40
1.0
 40
1.0
 40
1.0
 10
124.0836606547691
 20
80.59247346920164
 30
0.0
 10
124.092797731224
 20
80.61144399927798
 30
0.0
 10
124.1124456832731
 20
80.65223736105144
 30
0.0
 10
124.1279064361861
 20
80.72367507151103
 30
0.0
 10
124.1392149680923
 20
80.80603881106071
 30
0.0
 10
124.1402170382116
 20
80.86505419737841
 30
0.0
 10
124.1407520009234
 20
80.89656000766263
 30
0.0
  0
SPLINE
  5
1A7
330
81
100
AcDbEntity
  8
MD_可視
100
AcDbSpline
210
0.0
220
0.0
230
1.0
 70
     8
 71
     3
 72
    15
 73
    11
 74
     0
 42
0.000000001
 43
0.0000000001
 40
0.0
 40
0.0
 40
0.0
 40
0.0
 40
0.1405533665078955
 40
0.275516203633628
 40
0.4067860130531321
 40
0.5361320360400002
 40
0.6616486639717292
 40
0.7793756319066585
 40
0.890774878348516
 40
1.0
 40
1.0
 40
1.0
 40
1.0
 10
123.4863048855386
 20
80.27756962304739
 30
0.0
 10
123.5194475180433
 20
80.2784407306226
 30
0.0
 10
123.5844145303126
 20
80.28014829735003
 30
0.0
 10
123.6788076203156
 20
80.29852800089429
 30
0.0
 10
123.767992289002
 20
80.32629577944863
 30
0.0
 10
123.8499599501374
 20
80.36636823126173
 30
0.0
 10
123.9240226345337
 20
80.41382809231071
 30
0.0
 10
123.9881377360816
 20
80.46760631268808
 30
0.0
 10
124.0427409864078
 20
80.52624987359013
 30
0.0
 10
124.0701106694159
 20
80.57054443637936
 30
0.0
 10
124.0836606547691
 20
80.59247346920164
 30
0.0
  0
SPLINE
  5
1A8
330
81
100
AcDbEntity
  8
MD_可視
100
AcDbSpline
210
0.0
220
0.0
230
1.0
 70
     8
 71
     3
 72
    15
 73
    11
 74
     0
 42
0.000000001
 43
0.0000000001
 40
0.0
 40
0.0
 40
0.0
 40
0.0
 40
0.1061584963516581
 40
0.2086435109056538
 40
0.3126827790177267
 40
0.4257489628073056
 40
0.5481445367772039
 40
0.6816950906413778
 40
0.8315091938917092
 40
1.0
 40
1.0
 40
1.0
 40
1.0
 10
123.0656318086148
 20
80.57264173843213
 30
0.0
 10
123.0667648283015
 20
80.55221207167779
 30
0.0
 10
123.0689916609481
 20
80.51205968119575
 30
0.0
 10
123.0909201911618
 20
80.45531184700303
 30
0.0
 10
123.1250460413084
 20
80.4039855837127
 30
0.0
 10
123.1725051667108
 20
80.358593580866
 30
0.0
 10
123.2336183411607
 20
80.32192006936748
 30
0.0
 10
123.3072520227961
 20
80.29557650466086
 30
0.0
 10
123.3929394153565
 20
80.28038885834575
 30
0.0
 10
123.4539890231881
 20
80.27854542298337
 30
0.0
 10
123.4863048855386
 20
80.27756962304739
 30
0.0
  0
SPLINE
  5
1A9
330
81
100
AcDbEntity
  8
MD_可視
100
AcDbSpline
210
0.0
220
0.0
230
1.0
 70
     8
 71
     3
 72
    19
 73
    15
 74
     0
 42
0.000000001
 43
0.0000000001
 40
0.0
 40
0.0
 40
0.0
 40
0.0
 40
0.1571850368536659
 40
0.2901195170051149
 40
0.3988967841290896
 40
0.4848126105638884
 40
0.5565266501923372
 40
0.624470138839129
 40
0.6897920827620885
 40
0.7538159800697616
 40
0.8166770462256428
 40
0.8773833296569058
 40
0.9381315035705078
 40
1.0
 40
1.0
 40
1.0
 40
1.0
 10
123.5638289239996
 20
80.88874750766263
 30
0.0
 10
123.5299302562834
 20
80.8842323314384
 30
0.0
 10
123.4673628179189
 20
80.87589858179308
 30
0.0
 10
123.3819617015488
 20
80.86032976130628
 30
0.0
 10
123.3124465853943
 20
80.84446175177072
 30
0.0
 10
123.2569003287699
 20
80.82769683697007
 30
0.0
 10
123.2117682692642
 20
80.80793030476161
 30
0.0
 10
123.1743835395445
 20
80.78337719702359
 30
0.0
 10
123.1412515288666
 20
80.75583895601813
 30
0.0
 10
123.1143356030825
 20
80.72362250669176
 30
0.0
 10
123.0923508336291
 20
80.68901221256965
 30
0.0
 10
123.0775380902778
 20
80.65161546644594
 30
0.0
 10
123.0670980482136
 20
80.61287181284024
 30
0.0
 10
123.0661235231582
 20
80.58613319825235
 30
0.0
 10
123.0656318086148
 20
80.57264173843213
 30
0.0
  0
SPLINE
  5
1AA
330
81
100
AcDbEntity
  8
MD_可視
100
AcDbSpline
210
0.0
220
0.0
230
1.0
 70
     8
 71
     3
 72
    15
 73
    11
 74
     0
 42
0.000000001
 43
0.0000000001
 40
0.0
 40
0.0
 40
0.0
 40
0.0
 40
0.0911690368949051
 40
0.1924016976612072
 40
0.302457032970552
 40
0.4219227089474588
 40
0.5523214475357288
 40
0.691337583848818
 40
0.8412185572400886
 40
1.0
 40
1.0
 40
1.0
 40
1.0
 10
124.1425548855386
 20
81.00833885381689
 30
0.0
 10
124.1255973395746
 20
81.00230650216872
 30
0.0
 10
124.0898104020016
 20
80.98957592238367
 30
0.0
 10
124.0320891260562
 20
80.9742484006947
 30
0.0
 10
123.9690221761557
 20
80.95741531712519
 30
0.0
 10
123.8994621369147
 20
80.94295005925777
 30
0.0
 10
123.8242654127443
 20
80.92763094847942
 30
0.0
 10
123.7426321099847
 20
80.91404052184044
 30
0.0
 10
123.6552785024178
 20
80.90084301679416
 30
0.0
 10
123.5948925388584
 20
80.89285611312153
 30
0.0
 10
123.5638289239996
 20
80.88874750766263
 30
0.0
  0
SPLINE
  5
1AB
330
81
100
AcDbEntity
  8
MD_可視
100
AcDbSpline
210
0.0
220
0.0
230
1.0
 70
     8
 71
     3
 72
    23
 73
    19
 74
     0
 42
0.000000001
 43
0.0000000001
 40
0.0
 40
0.0
 40
0.0
 40
0.0
 40
0.0689192924954841
 40
0.1349047630310731
 40
0.1997359372185633
 40
0.2626235683021045
 40
0.3245009044534111
 40
0.3855135641469314
 40
0.4473909002982372
 40
0.5091777877173258
 40
0.5709054639226037
 40
0.6308224246856549
 40
0.6901440794890961
 40
0.7497767565007379
 40
0.8097188419376911
 40
0.8709145541025355
 40
0.9345907756292993
 40
1.0
 40
1.0
 40
1.0
 40
1.0
 10
130.6155116163081
 20
81.85449269996935
 30
0.0
 10
130.5944601663523
 20
81.85400384056993
 30
0.0
 10
130.553253404576
 20
81.85304693199942
 30
0.0
 10
130.4925467760404
 20
81.84631317440471
 30
0.0
 10
130.4343633412009
 20
81.83515033229559
 30
0.0
 10
130.3788062401254
 20
81.81858788149657
 30
0.0
 10
130.3256725391002
 20
81.79845818565992
 30
0.0
 10
130.2753358377376
 20
81.77272622018426
 30
0.0
 10
130.2274437884716
 20
81.74282657084587
 30
0.0
 10
130.1821871445409
 20
81.70862543692056
 30
0.0
 10
130.1412465467711
 20
81.67029676638595
 30
0.0
 10
130.1038058368412
 20
81.62946820456454
 30
0.0
 10
130.0728086798444
 20
81.58434328087059
 30
0.0
 10
130.0453250198243
 20
81.53702451976096
 30
0.0
 10
130.0238051281194
 20
81.4860351675925
 30
0.0
 10
130.0068637207696
 20
81.43212636076532
 30
0.0
 10
129.9948040828003
 20
81.37514952908896
 30
0.0
 10
129.9907586191657
 20
81.33591287119271
 30
0.0
 10
129.9887087316929
 20
81.31603116150836
 30
0.0
  0
SPLINE
  5
1AC
330
81
100
AcDbEntity
  8
MD_可視
100
AcDbSpline
210
0.0
220
0.0
230
1.0
 70
     8
 71
     3
 72
    15
 73
    11
 74
     0
 42
0.000000001
 43
0.0000000001
 40
0.0
 40
0.0
 40
0.0
 40
0.0
 40
0.1236858458754522
 40
0.2443006868683367
 40
0.3642287799698425
 40
0.4860022042768596
 40
0.6084407848564796
 40
0.7336696181582743
 40
0.8637723073991285
 40
1.0
 40
1.0
 40
1.0
 40
1.0
 10
131.0782520009234
 20
81.67059846920166
 30
0.0
 10
131.0631292285488
 20
81.68535877624345
 30
0.0
 10
131.0332591682199
 20
81.7145129055898
 30
0.0
 10
130.9834576926496
 20
81.7520944436128
 30
0.0
 10
130.9299358144671
 20
81.78326036183898
 30
0.0
 10
130.8737340632251
 20
81.81015081822625
 30
0.0
 10
130.8135953575947
 20
81.82963224935519
 30
0.0
 10
130.7507237600366
 20
81.84434934061391
 30
0.0
 10
130.6842440837699
 20
81.85268631855434
 30
0.0
 10
130.6387710316412
 20
81.85388141134353
 30
0.0
 10
130.6155116163081
 20
81.85449269996935
 30
0.0
  0
SPLINE
  5
1AD
330
81
100
AcDbEntity
  8
MD_可視
100
AcDbSpline
210
0.0
220
0.0
230
1.0
 70
     8
 71
     3
 72
    15
 73
    11
 74
     0
 42
0.000000001
 43
0.0000000001
 40
0.0
 40
0.0
 40
0.0
 40
0.0
 40
0.1481645315864652
 40
0.2896940731271283
 40
0.4223767178539499
 40
0.5484618558405236
 40
0.6673940763989434
 40
0.7829662373357288
 40
0.8927208011042171
 40
1.0
 40
1.0
 40
1.0
 40
1.0
 10
131.2194779624624
 20
81.31603116150836
 30
0.0
 10
131.2170569080972
 20
81.33508753471142
 30
0.0
 10
131.2123232171616
 20
81.37234691327467
 30
0.0
 10
131.2023595587907
 20
81.42623794872998
 30
0.0
 10
131.1890712074582
 20
81.47644781023519
 30
0.0
 10
131.1730674243772
 20
81.52278790825766
 30
0.0
 10
131.1535518974742
 20
81.56534695715526
 30
0.0
 10
131.1315025304411
 20
81.60419025899319
 30
0.0
 10
131.1068651318674
 20
81.63973263502157
 30
0.0
 10
131.0877169133055
 20
81.66038838709937
 30
0.0
 10
131.0782520009234
 20
81.67059846920166
 30
0.0
  0
LINE
  5
1AE
330
81
100
AcDbEntity
  8
MD_可視
100
AcDbLine
 10
129.9887087316929
 20
81.31603116150836
 30
0.0000000000000009
 11
131.2194779624624
 21
81.31603116150836
 31
0.0000000000000009
  0
LINE
  5
1AF
330
81
100
AcDbEntity
  8
MD_狭い可視
100
AcDbLine
 10
131.1425548855386
 20
85.11987731535555
 30
0.0
 11
120.1425548855386
 21
85.11987731535555
 31
0.0
  0
LINE
  5
1B0
330
81
100
AcDbEntity
  8
MD_可視
100
AcDbLine
 10
131.1425548855386
 20
86.61987731535555
 30
0.0
 11
131.1425548855386
 21
85.11987731535555
 31
0.0
  0
LINE
  5
1B1
330
81
100
AcDbEntity
  8
MD_可視
100
AcDbLine
 10
131.1425548855386
 20
85.11987731535555
 30
0.0
 11
131.1425548855386
 21
84.11987731535555
 31
0.0
  0
SPLINE
  5
1B2
330
81
100
AcDbEntity
  8
MD_可視
100
AcDbSpline
210
0.0
220
0.0
230
1.0
 70
     8
 71
     3
 72
    14
 73
    10
 74
     0
 42
0.000000001
 43
0.0000000001
 40
0.0
 40
0.0
 40
0.0
 40
0.0
 40
0.0065821656484605
 40
0.0065821656484605
 40
0.013164331296921
 40
0.013164331296921
 40
0.026328662593842
 40
0.026328662593842
 40
0.029392951525378
 40
0.029392951525378
 40
0.029392951525378
 40
0.029392951525378
 10
129.6116892967839
 20
87.07535014296992
 30
0.0
 10
129.6116892967839
 20
87.09729069513196
 30
0.0
 10
129.6140704885165
 20
87.11946303157128
 30
0.0
 10
129.623395158329
 20
87.16265106682476
 30
0.0
 10
129.6303383249924
 20
87.18366669365058
 30
0.0
 10
129.6564721427658
 20
87.24300875617883
 30
0.0
 10
129.6811761170083
 20
87.27760794067398
 30
0.0
 10
129.7125362543065
 20
87.31091187241691
 30
0.0
 10
129.7186608803476
 20
87.31698293169392
 30
0.0
 10
129.724961162603
 20
87.32283751638533
 30
0.0
  0
SPLINE
  5
1B3
330
81
100
AcDbEntity
  8
MD_可視
100
AcDbSpline
210
0.0
220
0.0
230
1.0
 70
     8
 71
     3
 72
    14
 73
    10
 74
     0
 42
0.000000001
 43
0.0000000001
 40
0.2244614209967195
 40
0.2244614209967195
 40
0.2244614209967195
 40
0.2244614209967195
 40
0.2275257099282557
 40
0.2275257099282557
 40
0.2406900412251767
 40
0.2406900412251767
 40
0.2472722068736372
 40
0.2472722068736372
 40
0.2538543725220977
 40
0.2538543725220977
 40
0.2538543725220977
 40
0.2538543725220977
 10
121.5601486084742
 20
87.32283751638533
 30
0.0
 10
121.5664488907296
 20
87.31698293169392
 30
0.0
 10
121.5725735167707
 20
87.31091187241691
 30
0.0
 10
121.6039336540689
 20
87.27760794067398
 30
0.0
 10
121.6286376283115
 20
87.24300875617883
 30
0.0
 10
121.6547714460848
 20
87.18366669365058
 30
0.0
 10
121.6617146127482
 20
87.16265106682476
 30
0.0
 10
121.6710392825607
 20
87.11946303157128
 30
0.0
 10
121.6734204742934
 20
87.09729069513196
 30
0.0
 10
121.6734204742934
 20
87.07535014296992
 30
0.0
  0
LINE
  5
1B4
330
81
100
AcDbEntity
  8
MD_可視
100
AcDbLine
 10
131.1425548855386
 20
86.63307043423264
 30
0.0
 11
131.1425548855386
 21
86.61987731535555
 31
0.0
  0
ELLIPSE
  5
1B5
330
81
100
AcDbEntity
  8
MD_可視
100
AcDbEllipse
 10
125.6425548855386
 20
86.50740099425821
 30
0.0
 11
-6.000000000000003
 21
0.0000000000000015
 31
0.0
210
0.0
220
0.0
230
1.0
 40
0.0524077792830196
 41
3.55273051591214
 42
3.909518939756299
  0
ELLIPSE
  5
1B6
330
81
100
AcDbEntity
  8
MD_可視
100
AcDbEllipse
 10
125.6425548855386
 20
86.50740099425821
 30
0.0
 11
-6.000000000000003
 21
0.0000000000000015
 31
0.0
210
0.0
220
0.0
230
1.0
 40
0.0524077792830196
 41
-0.7679262861665066
 42
-0.4111378623223479
  0
LINE
  5
1B7
330
81
100
AcDbEntity
  8
MD_可視
100
AcDbLine
 10
131.1425548855386
 20
86.61987731535555
 30
0.0
 11
120.1425548855386
 21
86.61987731535555
 31
0.0
  0
LINE
  5
1B8
330
81
100
AcDbEntity
  8
MD_可視
100
AcDbLine
 10
131.1425548855386
 20
89.31987731535446
 30
0.0
 11
131.1425548855386
 21
86.63307043423264
 31
0.0
  0
LINE
  5
1B9
330
81
100
AcDbEntity
  8
MD_可視
100
AcDbLine
 10
129.492554885539
 20
78.4698773153541
 30
0.0
 11
129.492554885539
 21
76.75987731535497
 31
0.0
  0
LINE
  5
1BA
330
81
100
AcDbEntity
  8
MD_可視
100
AcDbLine
 10
121.7925548855382
 20
78.4698773153541
 30
0.0
 11
121.7925548855382
 21
76.75987731535497
 31
0.0
  0
LINE
  5
1BB
330
81
100
AcDbEntity
  8
MD_可視
100
AcDbLine
 10
121.787554885539
 20
78.4698773153541
 30
0.0
 11
121.7925548855382
 21
78.4698773153541
 31
0.0
  0
LINE
  5
1BC
330
81
100
AcDbEntity
  8
MD_可視
100
AcDbLine
 10
129.492554885539
 20
78.4698773153541
 30
0.0
 11
129.4975548855382
 21
78.4698773153541
 31
0.0
  0
LINE
  5
1BD
330
81
100
AcDbEntity
  8
MD_可視
100
AcDbLine
 10
120.7925548855382
 20
75.01987731535519
 30
0.0
 11
120.7925548855382
 21
71.81987731535446
 31
0.0
  0
LINE
  5
1BE
330
81
100
AcDbEntity
  8
MD_狭い可視
100
AcDbLine
 10
120.2925548855382
 20
71.81987731535446
 30
0.0
 11
120.2925548855382
 21
75.01987731535519
 31
0.0
  0
LINE
  5
1BF
330
81
100
AcDbEntity
  8
MD_可視
100
AcDbLine
 10
130.492554885539
 20
71.81987731535446
 30
0.0
 11
130.492554885539
 21
75.01987731535519
 31
0.0
  0
LINE
  5
1C0
330
81
100
AcDbEntity
  8
MD_狭い可視
100
AcDbLine
 10
130.992554885539
 20
75.01987731535519
 30
0.0
 11
130.992554885539
 21
71.81987731535446
 31
0.0
  0
ENDBLK
  5
1C1
330
81
100
AcDbEntity
  8
0
100
AcDbBlockEnd
  0
BLOCK
  5
1C5
330
1C4
100
AcDbEntity
  8
0
100
AcDbBlockBegin
  2
CustomObjectsInViewport6_0
 70
     0
 10
0.0
 20
0.0
 30
0.0
  3
CustomObjectsInViewport6_0
  1

  0
LINE
  5
1C6
330
1C4
100
AcDbEntity
  8
MD_可視
100
AcDbLine
 10
131.7925548855382
 20
127.3970994143952
 30
0.0
 11
131.7925548855382
 21
127.4970994143952
 31
0.0
210
0.0000000000000003
220
-1.0
230
-0.0000000000000002
  0
LINE
  5
1C7
330
1C4
100
AcDbEntity
  8
MD_可視
100
AcDbLine
 10
119.492554885539
 20
127.4970994143952
 30
0.0
 11
119.492554885539
 21
127.3970994143952
 31
0.0
210
0.0000000000000003
220
-1.0
230
-0.0000000000000002
  0
LINE
  5
1C8
330
1C4
100
AcDbEntity
  8
MD_可視
100
AcDbLine
 10
129.6116892967839
 20
112.647546988647
 30
0.0
 11
121.6734204742934
 21
112.647546988647
 31
0.0
210
0.0000000000000003
220
-1.0
230
-0.0000000000000002
  0
LINE
  5
1C9
330
1C4
100
AcDbEntity
  8
MD_可視
100
AcDbLine
 10
118.8425548855393
 20
127.3970994143952
 30
0.0
 11
132.4425548855379
 21
127.3970994143952
 31
0.0
210
0.0000000000000003
220
-1.0
230
-0.0000000000000002
  0
LINE
  5
1CA
330
1C4
100
AcDbEntity
  8
MD_可視
100
AcDbLine
 10
121.6425548855386
 20
127.4970994143952
 30
0.0
 11
121.6425548855386
 21
127.3970994143952
 31
0.0
210
0.0000000000000003
220
-1.0
230
-0.0000000000000002
  0
LINE
  5
1CB
330
1C4
100
AcDbEntity
  8
MD_可視
100
AcDbLine
 10
120.0425548855382
 20
127.4970994143952
 30
0.0
 11
120.0425548855382
 21
127.3970994143952
 31
0.0
210
0.0000000000000003
220
-1.0
230
-0.0000000000000002
  0
LINE
  5
1CC
330
1C4
100
AcDbEntity
  8
MD_可視
100
AcDbLine
 10
129.6425548855386
 20
127.4970994143952
 30
0.0
 11
129.6425548855386
 21
127.3970994143952
 31
0.0
210
0.0000000000000003
220
-1.0
230
-0.0000000000000002
  0
LINE
  5
1CD
330
1C4
100
AcDbEntity
  8
MD_可視
100
AcDbLine
 10
131.242554885539
 20
127.3970994143952
 30
0.0
 11
131.242554885539
 21
127.4970994143952
 31
0.0
210
0.0000000000000003
220
-1.0
230
-0.0000000000000002
  0
LINE
  5
1CE
330
1C4
100
AcDbEntity
  8
MD_可視
100
AcDbLine
 10
121.6425548855386
 20
123.3071126070303
 30
0.0
 11
121.6425548855386
 21
127.0970994143951
 31
0.0
210
0.0000000000000003
220
-1.0
230
-0.0000000000000002
  0
LINE
  5
1CF
330
1C4
100
AcDbEntity
  8
MD_可視
100
AcDbLine
 10
121.6425548855386
 20
127.0970994143952
 30
0.0
 11
120.1425548855386
 21
127.0970994143952
 31
0.0
210
0.0000000000000003
220
-1.0
230
-0.0000000000000002
  0
LINE
  5
1D0
330
1C4
100
AcDbEntity
  8
MD_可視
100
AcDbLine
 10
120.1425548855386
 20
123.3071126070303
 30
0.0
 11
120.1425548855386
 21
127.0970994143951
 31
0.0
210
0.0000000000000003
220
-1.0
230
-0.0000000000000002
  0
LINE
  5
1D1
330
1C4
100
AcDbEntity
  8
MD_狭い可視
100
AcDbLine
 10
121.6425548855386
 20
123.3071126070303
 30
0.0
 11
120.1425548855386
 21
123.3071126070303
 31
0.0
210
0.0000000000000003
220
-1.0
230
-0.0000000000000002
  0
LINE
  5
1D2
330
1C4
100
AcDbEntity
  8
MD_可視
100
AcDbLine
 10
121.6425548855386
 20
123.3071126070303
 30
0.0
 11
121.6425548855386
 21
122.1741323758221
 31
0.0
210
0.0000000000000003
220
-1.0
230
-0.0000000000000002
  0
LINE
  5
1D3
330
1C4
100
AcDbEntity
  8
MD_可視
100
AcDbLine
 10
120.1425548855386
 20
123.3071126070303
 30
0.0
 11
120.1425548855386
 21
115.2470994143952
 31
0.0
210
0.0000000000000003
220
-1.0
230
-0.0000000000000002
  0
LINE
  5
1D4
330
1C4
100
AcDbEntity
  8
MD_可視
100
AcDbLine
 10
123.6425548855386
 20
113.3470994142011
 30
0.0
 11
127.6425548855386
 21
113.3470994142011
 31
0.0
210
0.0000000000000003
220
-1.0
230
-0.0000000000000002
  0
LINE
  5
1D5
330
1C4
100
AcDbEntity
  8
MD_可視
100
AcDbLine
 10
131.1425548855386
 20
123.3071126070303
 30
0.0
 11
131.1425548855386
 21
115.2470994143952
 31
0.0
210
0.0000000000000003
220
-1.0
230
-0.0000000000000002
  0
LINE
  5
1D6
330
1C4
100
AcDbEntity
  8
MD_狭い可視
100
AcDbLine
 10
131.1425548855386
 20
123.3071126070303
 30
0.0
 11
129.6425548855386
 21
123.3071126070303
 31
0.0
210
0.0000000000000003
220
-1.0
230
-0.0000000000000002
  0
LINE
  5
1D7
330
1C4
100
AcDbEntity
  8
MD_可視
100
AcDbLine
 10
129.6425548855386
 20
123.3071126070303
 30
0.0
 11
129.6425548855386
 21
122.1741323758221
 31
0.0
210
0.0000000000000003
220
-1.0
230
-0.0000000000000002
  0
LINE
  5
1D8
330
1C4
100
AcDbEntity
  8
MD_可視
100
AcDbLine
 10
121.6425548855386
 20
122.1741323758221
 30
0.0
 11
129.6425548855386
 21
122.1741323758221
 31
0.0
210
0.0000000000000003
220
-1.0
230
-0.0000000000000002
  0
LINE
  5
1D9
330
1C4
100
AcDbEntity
  8
MD_可視
100
AcDbLine
 10
127.6425548855386
 20
118.8470994138565
 30
0.0
 11
123.6425548855386
 21
118.8470994138565
 31
0.0
210
0.0000000000000003
220
-1.0
230
-0.0000000000000002
  0
LINE
  5
1DA
330
1C4
100
AcDbEntity
  8
MD_可視
100
AcDbLine
 10
127.6425548855386
 20
118.8470994138565
 30
0.0
 11
127.6425548855386
 21
117.4470994138565
 31
0.0
210
0.0000000000000003
220
-1.0
230
-0.0000000000000002
  0
LINE
  5
1DB
330
1C4
100
AcDbEntity
  8
MD_可視
100
AcDbLine
 10
123.6425548855386
 20
117.4470994138565
 30
0.0
 11
123.6425548855386
 21
118.8470994138565
 31
0.0
210
0.0000000000000003
220
-1.0
230
-0.0000000000000002
  0
LINE
  5
1DC
330
1C4
100
AcDbEntity
  8
MD_可視
100
AcDbLine
 10
127.6425548855386
 20
117.4470994138565
 30
0.0
 11
123.6425548855386
 21
117.4470994138565
 31
0.0
210
0.0000000000000003
220
-1.0
230
-0.0000000000000002
  0
LINE
  5
1DD
330
1C4
100
AcDbEntity
  8
MD_可視
100
AcDbLine
 10
127.6425548855386
 20
117.4470994138565
 30
0.0
 11
127.6425548855386
 21
116.9470994136624
 31
0.0
210
0.0000000000000003
220
-1.0
230
-0.0000000000000002
  0
LINE
  5
1DE
330
1C4
100
AcDbEntity
  8
MD_可視
100
AcDbLine
 10
123.6425548855386
 20
116.9470994136624
 30
0.0
 11
123.6425548855386
 21
117.4470994138565
 31
0.0
210
0.0000000000000003
220
-1.0
230
-0.0000000000000002
  0
LINE
  5
1DF
330
1C4
100
AcDbEntity
  8
MD_可視
100
AcDbLine
 10
127.6425548855386
 20
116.9470994136624
 30
0.0
 11
123.6425548855386
 21
116.9470994136624
 31
0.0
210
0.0000000000000003
220
-1.0
230
-0.0000000000000002
  0
LINE
  5
1E0
330
1C4
100
AcDbEntity
  8
MD_可視
100
AcDbLine
 10
120.1425548855386
 20
115.2470994143952
 30
0.0
 11
120.1425548855386
 21
114.7491836520061
 31
0.0
210
0.0000000000000003
220
-1.0
230
-0.0000000000000002
  0
LINE
  5
1E1
330
1C4
100
AcDbEntity
  8
MD_可視
100
AcDbLine
 10
123.6425548855386
 20
115.2470994143952
 30
0.0
 11
120.1425548855386
 21
115.2470994143952
 31
0.0
210
0.0000000000000003
220
-1.0
230
-0.0000000000000002
  0
LINE
  5
1E2
330
1C4
100
AcDbEntity
  8
MD_可視
100
AcDbLine
 10
131.1425548855386
 20
115.2470994143952
 30
0.0
 11
127.6425548855386
 21
115.2470994143952
 31
0.0
210
0.0000000000000003
220
-1.0
230
-0.0000000000000002
  0
ARC
  5
1E3
330
1C4
100
AcDbEntity
  8
MD_可視
100
AcDbCircle
 10
-125.6425548855386
 20
117.1470994136624
 30
0.0
 40
6.000000000000001
210
0.0
220
0.0
230
-1.0
100
AcDbArc
 50
336.4218215273898
 51
336.443535690876
  0
LINE
  5
1E4
330
1C4
100
AcDbEntity
  8
MD_可視
100
AcDbLine
 10
123.6425548855386
 20
114.7470994142011
 30
0.0
 11
120.1434640513562
 21
114.7470994142011
 31
0.0
210
0.0000000000000003
220
-1.0
230
-0.0000000000000002
  0
LINE
  5
1E5
330
1C4
100
AcDbEntity
  8
MD_可視
100
AcDbLine
 10
123.6425548855386
 20
115.2470994143952
 30
0.0
 11
123.6425548855386
 21
114.7470994142011
 31
0.0
210
0.0000000000000003
220
-1.0
230
-0.0000000000000002
  0
LINE
  5
1E6
330
1C4
100
AcDbEntity
  8
MD_可視
100
AcDbLine
 10
131.141645719721
 20
114.7470994142011
 30
0.0
 11
127.6425548855386
 21
114.7470994142011
 31
0.0
210
0.0000000000000003
220
-1.0
230
-0.0000000000000002
  0
ARC
  5
1E7
330
1C4
100
AcDbEntity
  8
MD_可視
100
AcDbCircle
 10
-125.6425548855386
 20
117.1470994136624
 30
0.0
 40
6.000000000000002
210
0.0
220
0.0
230
-1.0
100
AcDbArc
 50
203.5564643091247
 51
203.578178472611
  0
LINE
  5
1E8
330
1C4
100
AcDbEntity
  8
MD_可視
100
AcDbLine
 10
131.1425548855386
 20
115.2470994143952
 30
0.0
 11
131.1425548855386
 21
114.7491836520061
 31
0.0
210
0.0000000000000003
220
-1.0
230
-0.0000000000000002
  0
LINE
  5
1E9
330
1C4
100
AcDbEntity
  8
MD_可視
100
AcDbLine
 10
127.6425548855386
 20
114.7470994142011
 30
0.0
 11
127.6425548855386
 21
115.2470994143952
 31
0.0
210
0.0000000000000003
220
-1.0
230
-0.0000000000000002
  0
LINE
  5
1EA
330
1C4
100
AcDbEntity
  8
MD_狭い可視
100
AcDbLine
 10
129.724961162603
 20
112.7500596152317
 30
0.0
 11
121.5601486084742
 21
112.7500596152317
 31
0.0
210
0.0000000000000003
220
-1.0
230
-0.0000000000000002
  0
ELLIPSE
  5
1EB
330
1C4
100
AcDbEntity
  8
MD_可視
100
AcDbEllipse
 10
125.6425548855313
 20
117.1470994136683
 30
0.0
 11
6.000000000007001
 21
0.0000000000044776
 31
0.0
210
0.0
220
-0.0000000000000001
230
1.0
 40
1.0
 41
-0.8224865817377921
 42
-0.4115168459701131
  0
LINE
  5
1EC
330
1C4
100
AcDbEntity
  8
MD_可視
100
AcDbLine
 10
127.6425548855386
 20
113.3470994142011
 30
0.0
 11
127.6425548855386
 21
114.7470994142011
 31
0.0
210
0.0000000000000003
220
-1.0
230
-0.0000000000000002
  0
LINE
  5
1ED
330
1C4
100
AcDbEntity
  8
MD_可視
100
AcDbLine
 10
123.6425548855386
 20
114.7470994142011
 30
0.0
 11
123.6425548855386
 21
113.3470994142011
 31
0.0
210
0.0000000000000003
220
-1.0
230
-0.0000000000000002
  0
ELLIPSE
  5
1EE
330
1C4
100
AcDbEntity
  8
MD_可視
100
AcDbEllipse
 10
125.6425548855222
 20
117.1470994136516
 30
0.0
 11
3.402603589560583
 21
-4.941891218167066
 31
-0.0000000000000003
210
0.0
220
-0.0000000000000001
230
1.0
 40
0.9999999999983808
 41
4.520924447735724
 42
4.931894183504361
  0
LINE
  5
1EF
330
1C4
100
AcDbEntity
  8
MD_可視
100
AcDbLine
 10
131.1425548855386
 20
127.0970994143952
 30
0.0
 11
132.4425548855379
 21
127.0970994143952
 31
0.0
210
0.0000000000000003
220
-1.0
230
-0.0000000000000002
  0
LINE
  5
1F0
330
1C4
100
AcDbEntity
  8
MD_可視
100
AcDbLine
 10
118.8425548855393
 20
127.0970994143952
 30
0.0
 11
120.1425548855386
 21
127.0970994143952
 31
0.0
210
0.0000000000000003
220
-1.0
230
-0.0000000000000002
  0
LINE
  5
1F1
330
1C4
100
AcDbEntity
  8
MD_可視
100
AcDbLine
 10
118.8425548855393
 20
127.0947922973001
 30
0.0
 11
118.8425548855393
 21
127.0970994143952
 31
0.0
210
0.0000000000000003
220
-1.0
230
-0.0000000000000002
  0
LINE
  5
1F2
330
1C4
100
AcDbEntity
  8
MD_可視
100
AcDbLine
 10
118.8425548855393
 20
127.0947922973001
 30
0.0
 11
118.742554885539
 21
127.0947922975502
 31
0.0
210
0.0000000000000003
220
-1.0
230
-0.0000000000000002
  0
LINE
  5
1F3
330
1C4
100
AcDbEntity
  8
MD_狭い可視
100
AcDbLine
 10
118.742554885539
 20
127.0947922975502
 30
0.0
 11
118.742554885539
 21
107.2970994143952
 31
0.0
210
0.0000000000000003
220
-1.0
230
-0.0000000000000002
  0
LINE
  5
1F4
330
1C4
100
AcDbEntity
  8
MD_可視
100
AcDbLine
 10
132.5425548855382
 20
107.2970994143952
 30
0.0
 11
118.742554885539
 21
107.2970994143952
 31
0.0
210
0.0000000000000003
220
-1.0
230
-0.0000000000000002
  0
LINE
  5
1F5
330
1C4
100
AcDbEntity
  8
MD_狭い可視
100
AcDbLine
 10
132.5425548855382
 20
107.2970994143952
 30
0.0
 11
132.5425548855382
 21
127.0947922975502
 31
0.0
210
0.0000000000000003
220
-1.0
230
-0.0000000000000002
  0
LINE
  5
1F6
330
1C4
100
AcDbEntity
  8
MD_可視
100
AcDbLine
 10
132.4425548855379
 20
127.0947922973001
 30
0.0
 11
132.5425548855382
 21
127.0947922975502
 31
0.0
210
0.0000000000000003
220
-1.0
230
-0.0000000000000002
  0
LINE
  5
1F7
330
1C4
100
AcDbEntity
  8
MD_可視
100
AcDbLine
 10
132.4425548855379
 20
127.0970994143952
 30
0.0
 11
132.4425548855379
 21
127.0947922973001
 31
0.0
210
0.0000000000000003
220
-1.0
230
-0.0000000000000002
  0
LINE
  5
1F8
330
1C4
100
AcDbEntity
  8
MD_可視
100
AcDbLine
 10
132.5425548855382
 20
107.2970994143952
 30
0.0
 11
132.9425548855379
 21
107.2970994143952
 31
0.0
210
0.0000000000000003
220
-1.0
230
-0.0000000000000002
  0
LINE
  5
1F9
330
1C4
100
AcDbEntity
  8
MD_可視
100
AcDbLine
 10
118.3425548855393
 20
107.2970994143952
 30
0.0
 11
118.742554885539
 21
107.2970994143952
 31
0.0
210
0.0000000000000003
220
-1.0
230
-0.0000000000000002
  0
LINE
  5
1FA
330
1C4
100
AcDbEntity
  8
MD_可視
100
AcDbLine
 10
118.3425548855393
 20
107.2970994143952
 30
0.0
 11
118.3425548855393
 21
127.0763132058562
 31
0.0
210
0.0000000000000003
220
-1.0
230
-0.0000000000000002
  0
LINE
  5
1FB
330
1C4
100
AcDbEntity
  8
MD_可視
100
AcDbLine
 10
132.9425548855379
 20
127.0763132058562
 30
0.0
 11
132.9425548855379
 21
107.2970994143952
 31
0.0
210
0.0000000000000003
220
-1.0
230
-0.0000000000000002
  0
SPLINE
  5
1FC
330
1C4
100
AcDbEntity
  8
MD_可視
100
AcDbSpline
210
0.0
220
0.0
230
1.0
 70
     8
 71
     3
 72
    14
 73
    10
 74
     0
 42
0.000000001
 43
0.0000000001
 40
0.1207034243617316
 40
0.1207034243617316
 40
0.1207034243617316
 40
0.1207034243617316
 40
0.1357694336663689
 40
0.1357694336663689
 40
0.1508354429710062
 40
0.1508354429710062
 40
0.1659245541309337
 40
0.1659245541309337
 40
0.1810136652908612
 40
0.1810136652908612
 40
0.1810136652908612
 40
0.1810136652908612
 10
132.5425548855382
 20
127.0947922973001
 30
0.0
 10
132.5927749165548
 20
127.0947922973001
 30
0.0
 10
132.6463417362156
 20
127.0945789497175
 30
0.0
 10
132.7448787157027
 20
127.0934938787355
 30
0.0
 10
132.7898486006088
 20
127.0925971955567
 30
0.0
 10
132.8609122656107
 20
127.0899970493079
 30
0.0
 10
132.8917143998023
 20
127.0881147852151
 30
0.0
 10
132.9325349653682
 20
127.0830257291071
 30
0.0
 10
132.9425548855379
 20
127.0797939773016
 30
0.0
 10
132.9425548855379
 20
127.0763132058562
 30
0.0
  0
LINE
  5
1FD
330
1C4
100
AcDbEntity
  8
MD_可視
100
AcDbLine
 10
132.4425548855379
 20
127.0970994143952
 30
0.0
 11
132.4425548855379
 21
127.3970994143952
 31
0.0
210
0.0000000000000003
220
-1.0
230
-0.0000000000000002
  0
SPLINE
  5
1FE
330
1C4
100
AcDbEntity
  8
MD_可視
100
AcDbSpline
210
0.0
220
0.0
230
1.0
 70
     8
 71
     3
 72
    14
 73
    10
 74
     0
 42
0.000000001
 43
0.0000000001
 40
0.1810966077943337
 40
0.1810966077943337
 40
0.1810966077943337
 40
0.1810966077943337
 40
0.1961857189542612
 40
0.1961857189542612
 40
0.2112748301141886
 40
0.2112748301141886
 40
0.2263408394188259
 40
0.2263408394188259
 40
0.2414068487234632
 40
0.2414068487234632
 40
0.2414068487234632
 40
0.2414068487234632
 10
118.3425548855393
 20
127.0763132058562
 30
0.0
 10
118.3425548855393
 20
127.0797939773016
 30
0.0
 10
118.3525748057091
 20
127.0830257291071
 30
0.0
 10
118.3933953712749
 20
127.0881147852151
 30
0.0
 10
118.4241975054665
 20
127.0899970493079
 30
0.0
 10
118.4952611704684
 20
127.0925971955567
 30
0.0
 10
118.5402310553745
 20
127.0934938787355
 30
0.0
 10
118.6387680348616
 20
127.0945789497175
 30
0.0
 10
118.6923348545224
 20
127.0947922973001
 30
0.0
 10
118.742554885539
 20
127.0947922973001
 30
0.0
  0
LINE
  5
1FF
330
1C4
100
AcDbEntity
  8
MD_可視
100
AcDbLine
 10
118.8425548855393
 20
127.0970994143952
 30
0.0
 11
118.8425548855393
 21
127.3970994143952
 31
0.0
210
0.0000000000000003
220
-1.0
230
-0.0000000000000002
  0
LINE
  5
200
330
1C4
100
AcDbEntity
  8
MD_可視
100
AcDbLine
 10
121.6425548855386
 20
127.0970994143952
 30
0.0
 11
129.6425548855386
 21
127.0970994143952
 31
0.0
210
0.0000000000000003
220
-1.0
230
-0.0000000000000002
  0
LINE
  5
201
330
1C4
100
AcDbEntity
  8
MD_可視
100
AcDbLine
 10
131.1425548855386
 20
127.0970994143952
 30
0.0
 11
129.6425548855386
 21
127.0970994143952
 31
0.0
210
0.0000000000000003
220
-1.0
230
-0.0000000000000002
  0
LINE
  5
202
330
1C4
100
AcDbEntity
  8
MD_可視
100
AcDbLine
 10
129.6425548855386
 20
123.3071126070303
 30
0.0
 11
129.6425548855386
 21
127.0970994143951
 31
0.0
210
0.0000000000000003
220
-1.0
230
-0.0000000000000002
  0
LINE
  5
203
330
1C4
100
AcDbEntity
  8
MD_可視
100
AcDbLine
 10
131.1425548855386
 20
123.3071126070303
 30
0.0
 11
131.1425548855386
 21
127.0970994143951
 31
0.0
210
0.0000000000000003
220
-1.0
230
-0.0000000000000002
  0
SPLINE
  5
204
330
1C4
100
AcDbEntity
  8
MD_可視
100
AcDbSpline
210
0.0
220
0.0
230
1.0
 70
     8
 71
     3
 72
    14
 73
    10
 74
     0
 42
0.000000001
 43
0.0000000001
 40
0.0
 40
0.0
 40
0.0
 40
0.0
 40
0.0065821656484605
 40
0.0065821656484605
 40
0.013164331296921
 40
0.013164331296921
 40
0.026328662593842
 40
0.026328662593842
 40
0.029392951525378
 40
0.029392951525378
 40
0.029392951525378
 40
0.029392951525378
 10
129.6116892967839
 20
112.647546988647
 30
0.0
 10
129.6116892967839
 20
112.647546988647
 30
0.0
 10
129.6140704885165
 20
112.6496441052112
 30
0.0
 10
129.623395158329
 20
112.657895938336
 30
0.0
 10
129.6303383249924
 20
112.664051383558
 30
0.0
 10
129.6564721427658
 20
112.6873893472614
 30
0.0
 10
129.6811761170083
 20
112.7096751310641
 30
0.0
 10
129.7125362543065
 20
112.7385490345544
 30
0.0
 10
129.7186608803476
 20
112.7442120518632
 30
0.0
 10
129.724961162603
 20
112.7500596152317
 30
0.0
  0
SPLINE
  5
205
330
1C4
100
AcDbEntity
  8
MD_可視
100
AcDbSpline
210
0.0
220
0.0
230
1.0
 70
     8
 71
     3
 72
    14
 73
    10
 74
     0
 42
0.000000001
 43
0.0000000001
 40
0.2244614209967195
 40
0.2244614209967195
 40
0.2244614209967195
 40
0.2244614209967195
 40
0.2275257099282557
 40
0.2275257099282557
 40
0.2406900412251767
 40
0.2406900412251767
 40
0.2472722068736372
 40
0.2472722068736372
 40
0.2538543725220977
 40
0.2538543725220977
 40
0.2538543725220977
 40
0.2538543725220977
 10
121.5601486084742
 20
112.7500596152317
 30
0.0
 10
121.5664488907296
 20
112.7442120518632
 30
0.0
 10
121.5725735167707
 20
112.7385490345544
 30
0.0
 10
121.6039336540689
 20
112.709675131064
 30
0.0
 10
121.6286376283115
 20
112.6873893472614
 30
0.0
 10
121.6547714460848
 20
112.664051383558
 30
0.0
 10
121.6617146127482
 20
112.657895938336
 30
0.0
 10
121.6710392825607
 20
112.6496441052112
 30
0.0
 10
121.6734204742934
 20
112.647546988647
 30
0.0
 10
121.6734204742934
 20
112.647546988647
 30
0.0
  0
LINE
  5
206
330
1C4
100
AcDbEntity
  8
MD_可視
100
AcDbLine
 10
121.6425548855386
 20
124.0970994143952
 30
0.0
 11
129.6425548855386
 21
124.0970994143952
 31
0.0
210
0.0000000000000003
220
-1.0
230
-0.0000000000000002
  0
LINE
  5
207
330
1C4
100
AcDbEntity
  8
MD_可視
100
AcDbLine
 10
132.9425548855379
 20
127.4773295644329
 30
0.0
 11
132.9425548855379
 21
137.1970994143952
 31
0.0
210
0.0000000000000003
220
-1.0
230
-0.0000000000000002
  0
LINE
  5
208
330
1C4
100
AcDbEntity
  8
MD_可視
100
AcDbLine
 10
132.9425548855379
 20
127.4773295644324
 30
0.0
 11
132.9425548855379
 21
127.0763132058559
 31
0.0
210
0.0000000000000003
220
-1.0
230
-0.0000000000000002
  0
LINE
  5
209
330
1C4
100
AcDbEntity
  8
MD_可視
100
AcDbLine
 10
132.5425548855382
 20
137.1970994143952
 30
0.0
 11
132.9425548855379
 21
137.1970994143952
 31
0.0
210
0.0000000000000003
220
-1.0
230
-0.0000000000000002
  0
LINE
  5
20A
330
1C4
100
AcDbEntity
  8
MD_可視
100
AcDbLine
 10
118.3425548855393
 20
137.1970994143952
 30
0.0
 11
118.742554885539
 21
137.1970994143952
 31
0.0
210
0.0000000000000003
220
-1.0
230
-0.0000000000000002
  0
LINE
  5
20B
330
1C4
100
AcDbEntity
  8
MD_可視
100
AcDbLine
 10
132.5425548855382
 20
137.1970994143952
 30
0.0
 11
118.742554885539
 21
137.1970994143952
 31
0.0
210
0.0000000000000003
220
-1.0
230
-0.0000000000000002
  0
LINE
  5
20C
330
1C4
100
AcDbEntity
  8
MD_可視
100
AcDbLine
 10
132.5425548855382
 20
127.4970994143952
 30
0.0
 11
118.742554885539
 21
127.4970994143952
 31
0.0
210
0.0000000000000003
220
-1.0
230
-0.0000000000000002
  0
LINE
  5
20D
330
1C4
100
AcDbEntity
  8
MD_可視
100
AcDbLine
 10
118.3425548855393
 20
127.4773295644328
 30
0.0
 11
118.3425548855393
 21
137.1970994143952
 31
0.0
210
0.0000000000000003
220
-1.0
230
-0.0000000000000002
  0
LINE
  5
20E
330
1C4
100
AcDbEntity
  8
MD_可視
100
AcDbLine
 10
118.3425548855393
 20
127.4773295644324
 30
0.0
 11
118.3425548855393
 21
127.0763132058559
 31
0.0
210
0.0000000000000003
220
-1.0
230
-0.0000000000000002
  0
LINE
  5
20F
330
1C4
100
AcDbEntity
  8
MD_可視
100
AcDbLine
 10
118.742554885539
 20
127.494904882497
 30
0.0
 11
118.742554885539
 21
127.0947922975516
 31
0.0
210
0.0000000000000003
220
-1.0
230
-0.0000000000000002
  0
SPLINE
  5
210
330
1C4
100
AcDbEntity
  8
MD_可視
100
AcDbSpline
210
0.0
220
0.0
230
1.0
 70
     8
 71
     3
 72
    14
 73
    10
 74
     0
 42
0.000000001
 43
0.0000000001
 40
-0.1206877541597957
 40
-0.1206877541597957
 40
-0.1206877541597957
 40
-0.1206877541597957
 40
-0.1056216057138046
 40
-0.1056216057138046
 40
-0.0905554572678135
 40
-0.0905554572678135
 40
-0.0754684111425704
 40
-0.0754684111425704
 40
-0.0603813650173274
 40
-0.0603813650173274
 40
-0.0603813650173274
 40
-0.0603813650173274
 10
118.742554885539
 20
127.494904882497
 30
0.0
 10
118.6923343907183
 20
127.494904882497
 30
0.0
 10
118.6387670183157
 20
127.4947019450916
 30
0.0
 10
118.5402286331064
 20
127.4936698147308
 30
0.0
 10
118.4952578690463
 20
127.4928168810775
 30
0.0
 10
118.4241975401201
 20
127.4903437550477
 30
0.0
 10
118.3933971336846
 20
127.4885536161986
 30
0.0
 10
118.3525764793939
 20
127.4837136421634
 30
0.0
 10
118.3425548855393
 20
127.4806400662481
 30
0.0
 10
118.3425548855393
 20
127.4773295644328
 30
0.0
  0
LINE
  5
211
330
1C4
100
AcDbEntity
  8
MD_可視
100
AcDbLine
 10
118.742554885539
 20
127.494904882497
 30
0.0
 11
118.742554885539
 21
127.4970994143952
 31
0.0
210
0.0000000000000003
220
-1.0
230
-0.0000000000000002
  0
SPLINE
  5
212
330
1C4
100
AcDbEntity
  8
MD_可視
100
AcDbSpline
210
0.0
220
0.0
230
1.0
 70
     8
 71
     3
 72
    14
 73
    10
 74
     0
 42
0.000000001
 43
0.0000000001
 40
0.0
 40
0.0
 40
0.0
 40
0.0
 40
0.0150661484459911
 40
0.0150661484459911
 40
0.0301322968919822
 40
0.0301322968919822
 40
0.0452193430172253
 40
0.0452193430172253
 40
0.0603063891424683
 40
0.0603063891424683
 40
0.0603063891424683
 40
0.0603063891424683
 10
132.5425548855382
 20
127.494904882497
 30
0.0
 10
132.5927753803589
 20
127.494904882497
 30
0.0
 10
132.6463427527615
 20
127.4947019450916
 30
0.0
 10
132.7448811379708
 20
127.4936698147308
 30
0.0
 10
132.7898519020309
 20
127.4928168810775
 30
0.0
 10
132.8609122309572
 20
127.4903437550477
 30
0.0
 10
132.8917126373926
 20
127.4885536161986
 30
0.0
 10
132.9325332916833
 20
127.4837136421634
 30
0.0
 10
132.9425548855379
 20
127.4806400662481
 30
0.0
 10
132.9425548855379
 20
127.4773295644328
 30
0.0
  0
LINE
  5
213
330
1C4
100
AcDbEntity
  8
MD_可視
100
AcDbLine
 10
132.5425548855382
 20
127.494904882497
 30
0.0
 11
132.5425548855382
 21
127.0947922975516
 31
0.0
210
0.0000000000000003
220
-1.0
230
-0.0000000000000002
  0
LINE
  5
214
330
1C4
100
AcDbEntity
  8
MD_可視
100
AcDbLine
 10
132.5425548855382
 20
127.4970994143952
 30
0.0
 11
132.5425548855382
 21
127.494904882497
 31
0.0
210
0.0000000000000003
220
-1.0
230
-0.0000000000000002
  0
LINE
  5
215
330
1C4
100
AcDbEntity
  8
MD_狭い可視
100
AcDbLine
 10
118.742554885539
 20
127.4970994143952
 30
0.0
 11
118.742554885539
 21
137.1970994143952
 31
0.0
210
0.0000000000000003
220
-1.0
230
-0.0000000000000002
  0
LINE
  5
216
330
1C4
100
AcDbEntity
  8
MD_狭い可視
100
AcDbLine
 10
132.5425548855382
 20
127.4970994143952
 30
0.0
 11
132.5425548855382
 21
137.1970994143952
 31
0.0
210
0.0000000000000003
220
-1.0
230
-0.0000000000000002
  0
ENDBLK
  5
217
330
1C4
100
AcDbEntity
  8
0
100
AcDbBlockEnd
  0
BLOCK
  5
21B
330
21A
100
AcDbEntity
  8
0
100
AcDbBlockBegin
  2
CustomObjectsInViewport8_0
 70
     0
 10
0.0
 20
0.0
 30
0.0
  3
CustomObjectsInViewport8_0
  1

  0
SPLINE
  5
21C
330
21A
100
AcDbEntity
  8
MD_可視
100
AcDbSpline
210
0.0
220
0.0
230
1.0
 70
     8
 71
     3
 72
    16
 73
    12
 74
     0
 42
0.000000001
 43
0.0000000001
 40
0.1915318358489329
 40
0.1915318358489329
 40
0.1915318358489329
 40
0.1915318358489329
 40
0.2082705684396541
 40
0.2082705684396541
 40
0.2275257099282557
 40
0.2275257099282557
 40
0.2406900412251766
 40
0.2406900412251766
 40
0.2472722068736371
 40
0.2472722068736371
 40
0.2538543725220976
 40
0.2538543725220976
 40
0.2538543725220976
 40
0.2538543725220976
 10
162.0938018402748
 20
86.72582980580591
 30
0.0
 10
162.0529207278967
 20
86.72804527834705
 30
0.0
 10
162.0104106389243
 20
86.73761826843474
 30
0.0
 10
161.9245200178547
 20
86.77563082707456
 30
0.0
 10
161.8819281782508
 20
86.80656198756697
 30
0.0
 10
161.8242475673769
 20
86.87309234526583
 30
0.0
 10
161.8019617835742
 20
86.907691529761
 30
0.0
 10
161.7786238198708
 20
86.96703359228923
 30
0.0
 10
161.7724683746489
 20
86.98804921911506
 30
0.0
 10
161.764216541524
 20
87.03123725437036
 30
0.0
 10
161.7621194249598
 20
87.05340959080785
 30
0.0
 10
161.7621194249598
 20
87.07535014296992
 30
0.0
  0
LINE
  5
21D
330
21A
100
AcDbEntity
  8
MD_可視
100
AcDbLine
 10
166.061671850708
 20
66.51987731535519
 30
0.0
 11
166.061671850708
 21
68.11987731535555
 31
0.0
210
-1.0
220
-0.0000000000000002
230
0.0
  0
LINE
  5
21E
330
21A
100
AcDbEntity
  8
MD_可視
100
AcDbLine
 10
166.061671850708
 20
66.51987731535519
 30
0.0
 11
166.561671850708
 21
66.51987731535519
 31
0.0
210
-1.0
220
-0.0000000000000002
230
0.0
  0
LINE
  5
21F
330
21A
100
AcDbEntity
  8
MD_可視
100
AcDbLine
 10
166.561671850708
 20
66.51987731535519
 30
0.0
 11
168.161671850708
 21
68.11987731535555
 31
0.0
210
-1.0
220
-0.0000000000000002
230
0.0
  0
LINE
  5
220
330
21A
100
AcDbEntity
  8
MD_可視
100
AcDbLine
 10
162.261671850708
 20
68.11987731535555
 30
0.0
 11
163.861671850708
 21
66.51987731535519
 31
0.0
210
-1.0
220
-0.0000000000000002
230
0.0
  0
LINE
  5
221
330
21A
100
AcDbEntity
  8
MD_可視
100
AcDbLine
 10
163.861671850708
 20
66.51987731535519
 30
0.0
 11
164.361671850708
 21
66.51987731535519
 31
0.0
210
-1.0
220
-0.0000000000000002
230
0.0
  0
LINE
  5
222
330
21A
100
AcDbEntity
  8
MD_可視
100
AcDbLine
 10
164.361671850708
 20
66.51987731535519
 30
0.0
 11
164.361671850708
 21
68.11987731535555
 31
0.0
210
-1.0
220
-0.0000000000000002
230
0.0
  0
LINE
  5
223
330
21A
100
AcDbEntity
  8
MD_可視
100
AcDbLine
 10
176.511671850708
 20
82.97342582200872
 30
0.0
 11
176.511671850708
 21
84.01987731535518
 31
0.0
210
-1.0
220
-0.0000000000000002
230
0.0
  0
LINE
  5
224
330
21A
100
AcDbEntity
  8
MD_可視
100
AcDbLine
 10
176.511671850708
 20
83.31987731535447
 30
0.0
 11
176.5566490790233
 21
83.31987731535447
 31
0.0
210
-1.0
220
-0.0000000000000002
230
0.0
  0
LINE
  5
225
330
21A
100
AcDbEntity
  8
MD_可視
100
AcDbLine
 10
172.4216850433431
 20
87.91987731535483
 30
0.0
 11
164.361671850708
 21
87.91987731535483
 31
0.0
210
-1.0
220
-0.0000000000000002
230
0.0
  0
LINE
  5
226
330
21A
100
AcDbEntity
  8
MD_可視
100
AcDbLine
 10
167.9616718501693
 20
87.91987731535483
 30
0.0
 11
166.5616718501693
 21
89.31987731535446
 31
0.0
210
-1.0
220
-0.0000000000000002
230
0.0
  0
LINE
  5
227
330
21A
100
AcDbEntity
  8
MD_可視
100
AcDbLine
 10
166.5616718501693
 20
89.31987731535446
 30
0.0
 11
166.0616718499752
 21
89.31987731535446
 31
0.0
210
-1.0
220
-0.0000000000000002
230
0.0
  0
LINE
  5
228
330
21A
100
AcDbEntity
  8
MD_可視
100
AcDbLine
 10
166.0616718499752
 20
89.31987731535446
 30
0.0
 11
166.0616718499752
 21
87.91987731535483
 31
0.0
210
-1.0
220
-0.0000000000000002
230
0.0
  0
LINE
  5
229
330
21A
100
AcDbEntity
  8
MD_可視
100
AcDbLine
 10
164.361671850708
 20
87.91987731535483
 30
0.0
 11
164.361671850708
 21
89.31987731535446
 31
0.0
210
-1.0
220
-0.0000000000000002
230
0.0
  0
LINE
  5
22A
330
21A
100
AcDbEntity
  8
MD_可視
100
AcDbLine
 10
163.8616718505127
 20
89.31987731535446
 30
0.0
 11
163.8637560883175
 21
89.31987731535446
 31
0.0
210
-1.0
220
-0.0000000000000002
230
0.0
  0
LINE
  5
22B
330
21A
100
AcDbEntity
  8
MD_可視
100
AcDbLine
 10
164.361671850708
 20
89.31987731535446
 30
0.0
 11
163.8637560883189
 21
89.31987731535446
 31
0.0
210
-1.0
220
-0.0000000000000002
230
0.0
  0
LINE
  5
22C
330
21A
100
AcDbEntity
  8
MD_可視
100
AcDbLine
 10
163.8616718505139
 20
89.31987731535263
 30
0.0
 11
161.8646320515446
 21
87.32283751638533
 31
0.0
210
-1.0
220
-0.0000000000000002
230
0.0
  0
LINE
  5
22D
330
21A
100
AcDbEntity
  8
MD_可視
100
AcDbLine
 10
156.411671850708
 20
84.11987731535555
 30
0.0
 11
176.209364733863
 21
84.11987731570844
 31
0.0
210
-1.0
220
-0.0000000000000002
230
0.0
  0
LINE
  5
22E
330
21A
100
AcDbEntity
  8
MD_可視
100
AcDbLine
 10
176.211671850708
 20
84.11987731535555
 30
0.0
 11
176.2093647336129
 21
84.11987731535555
 31
0.0
210
-1.0
220
-0.0000000000000002
230
0.0
  0
LINE
  5
22F
330
21A
100
AcDbEntity
  8
MD_可視
100
AcDbLine
 10
169.711671850708
 20
68.11987731535555
 30
0.0
 11
156.411671850708
 21
68.11987731535555
 31
0.0
210
-1.0
220
-0.0000000000000002
230
0.0
  0
LINE
  5
230
330
21A
100
AcDbEntity
  8
MD_可視
100
AcDbLine
 10
156.411671850708
 20
68.51987731535519
 30
0.0
 11
156.411671850708
 21
68.11987731535555
 31
0.0
210
-1.0
220
-0.0000000000000002
230
0.0
  0
LINE
  5
231
330
21A
100
AcDbEntity
  8
MD_可視
100
AcDbLine
 10
156.411671850708
 20
68.51987731535519
 30
0.0
 11
156.411671850708
 21
83.7198773153541
 31
0.0
210
-1.0
220
-0.0000000000000002
230
0.0
  0
LINE
  5
232
330
21A
100
AcDbEntity
  8
MD_可視
100
AcDbLine
 10
156.411671850708
 20
84.11987731535374
 30
0.0
 11
156.411671850708
 21
83.7198773153541
 31
0.0
210
-1.0
220
-0.0000000000000002
230
0.0
  0
LINE
  5
233
330
21A
100
AcDbEntity
  8
MD_可視
100
AcDbLine
 10
170.011671850708
 20
71.081401716845
 30
0.0
 11
170.011671850708
 21
68.41987731535482
 31
0.0
210
-1.0
220
-0.0000000000000002
230
0.0
  0
LINE
  5
234
330
21A
100
AcDbEntity
  8
MD_可視
100
AcDbLine
 10
173.6126772538735
 20
78.11987731535555
 30
0.0
 11
174.1781059051072
 21
78.11987731535555
 31
0.0
210
-1.0
220
-0.0000000000000002
230
0.0
  0
LINE
  5
235
330
21A
100
AcDbEntity
  8
MD_狭い可視
100
AcDbLine
 10
156.411671850708
 20
68.51987731535519
 30
0.0
 11
169.7170900686642
 21
68.51987731535519
 31
0.0
210
-1.0
220
-0.0000000000000002
230
0.0
  0
ARC
  5
236
330
21A
100
AcDbEntity
  8
MD_可視
100
AcDbCircle
 10
184.4793831517526
 20
68.11987731535555
 30
0.0
 40
14.76771130104466
100
AcDbArc
 50
136.2752751594607
 51
178.4478898164673
  0
ARC
  5
237
330
21A
100
AcDbEntity
  8
MD_可視
100
AcDbCircle
 10
167.5416908440603
 20
84.31987731535446
 30
0.0
 40
8.669981006647681
100
AcDbArc
 50
316.2752751594596
 51
356.0317136464791
  0
LINE
  5
238
330
21A
100
AcDbEntity
  8
MD_狭い可視
100
AcDbLine
 10
176.1908856421691
 20
83.7198773153541
 30
0.0
 11
156.411671850708
 21
83.7198773153541
 31
0.0
210
-1.0
220
-0.0000000000000002
230
0.0
  0
LINE
  5
239
330
21A
100
AcDbEntity
  8
MD_可視
100
AcDbLine
 10
170.011671850708
 20
69.7198773153541
 30
0.0
 11
170.111671850708
 21
69.7198773153541
 31
0.0
210
-1.0
220
-0.0000000000000002
230
0.0
  0
LINE
  5
23A
330
21A
100
AcDbEntity
  8
MD_可視
100
AcDbLine
 10
170.111671850708
 20
70.61987731535555
 30
0.0
 11
170.011671850708
 21
70.61987731535555
 31
0.0
210
-1.0
220
-0.0000000000000002
230
0.0
  0
SPLINE
  5
23B
330
21A
100
AcDbEntity
  8
MD_可視
100
AcDbSpline
210
0.0
220
0.0
230
1.0
 70
     8
 71
     3
 72
    14
 73
    10
 74
     0
 42
0.000000001
 43
0.0000000001
 40
0.1207034243617316
 40
0.1207034243617316
 40
0.1207034243617316
 40
0.1207034243617316
 40
0.1357694336663689
 40
0.1357694336663689
 40
0.1508354429710062
 40
0.1508354429710062
 40
0.1659245541309337
 40
0.1659245541309337
 40
0.1810136652908612
 40
0.1810136652908612
 40
0.1810136652908612
 40
0.1810136652908612
 10
176.2093647336129
 20
84.11987731535555
 30
0.0
 10
176.2093647336129
 20
84.11987731535555
 30
0.0
 10
176.2091513860303
 20
84.109841457519
 30
0.0
 10
176.2080663150483
 20
84.06903173680076
 30
0.0
 10
176.2071696318695
 20
84.03825787757524
 30
0.0
 10
176.2045694856207
 20
83.96721651104417
 30
0.0
 10
176.2026872215279
 20
83.92219842671147
 30
0.0
 10
176.19759816542
 20
83.82361610082261
 30
0.0
 10
176.1943664136144
 20
83.77005376582019
 30
0.0
 10
176.1908856421691
 20
83.7198773153541
 30
0.0
  0
ELLIPSE
  5
23C
330
21A
100
AcDbEntity
  8
MD_可視
100
AcDbEllipse
 10
169.7276288408251
 20
68.51958768758596
 30
0.0
 11
-0.0108200741596275
 21
-0.3999006199970242
 31
0.0
210
0.0
220
-0.0000000000000001
230
1.0
 40
0.0263537808967725
 41
-1.570807524343408
 42
-1.318086861173543
  0
LINE
  5
23D
330
21A
100
AcDbEntity
  8
MD_可視
100
AcDbLine
 10
176.211671850708
 20
84.11987731535555
 30
0.0
 11
176.211671850708
 21
84.01987731535518
 31
0.0
210
-1.0
220
-0.0000000000000002
230
0.0
  0
LINE
  5
23E
330
21A
100
AcDbEntity
  8
MD_可視
100
AcDbLine
 10
176.211671850708
 20
84.01987731535518
 30
0.0
 11
176.511671850708
 21
84.01987731535518
 31
0.0
210
-1.0
220
-0.0000000000000002
230
0.0
  0
LINE
  5
23F
330
21A
100
AcDbEntity
  8
MD_可視
100
AcDbLine
 10
170.011671850708
 20
68.41987731535482
 30
0.0
 11
169.71471935365
 21
68.41987731535482
 31
0.0
210
-1.0
220
-0.0000000000000002
230
0.0
  0
LINE
  5
240
330
21A
100
AcDbEntity
  8
MD_可視
100
AcDbLine
 10
169.71471935365
 20
68.41987731535482
 30
0.0
 11
169.711671850708
 21
68.41987731535482
 31
0.0
210
-1.0
220
-0.0000000000000002
230
0.0
  0
LINE
  5
241
330
21A
100
AcDbEntity
  8
MD_可視
100
AcDbLine
 10
169.711671850708
 20
68.11987731535555
 30
0.0
 11
169.711671850708
 21
68.41987731535482
 31
0.0
210
-1.0
220
-0.0000000000000002
230
0.0
  0
LINE
  5
242
330
21A
100
AcDbEntity
  8
MD_可視
100
AcDbLine
 10
176.211671850708
 20
84.31987731535446
 30
0.0
 11
176.211671850708
 21
84.11987731535555
 31
0.0
210
-1.0
220
-0.0000000000000002
230
0.0
  0
ARC
  5
243
330
21A
100
AcDbEntity
  8
MD_可視
100
AcDbCircle
 10
-170.211671850708
 20
85.11987731535555
 30
0.0000000000000095
 40
1.5
210
0.0
220
0.0000000000000001
230
-1.0
100
AcDbArc
 50
90.0
 51
180.0
  0
LINE
  5
244
330
21A
100
AcDbEntity
  8
MD_可視
100
AcDbLine
 10
171.711671850708
 20
85.11987731535555
 30
0.0
 11
171.711671850708
 21
84.11987731535555
 31
0.0
210
-1.0
220
-0.0000000000000002
230
0.0
  0
ARC
  5
245
330
21A
100
AcDbEntity
  8
MD_可視
100
AcDbCircle
 10
172.4216850433431
 20
84.12487731535476
 30
0.0
 40
3.794999999999998
100
AcDbArc
 50
2.945348960732657
 51
89.99999999999674
  0
SPLINE
  5
246
330
21A
100
AcDbEntity
  8
MD_可視
100
AcDbSpline
210
0.0
220
0.0
230
1.0
 70
     8
 71
     3
 72
    14
 73
    10
 74
     0
 42
0.000000001
 43
0.0000000001
 40
0.0
 40
0.0
 40
0.0
 40
0.0
 40
0.0065821656484605
 40
0.0065821656484605
 40
0.013164331296921
 40
0.013164331296921
 40
0.026328662593842
 40
0.026328662593842
 40
0.029392951525378
 40
0.029392951525378
 40
0.029392951525378
 40
0.029392951525378
 10
161.7621194249598
 20
87.07535014296992
 30
0.0
 10
161.7621194249598
 20
87.09729069513196
 30
0.0
 10
161.764216541524
 20
87.11946303157128
 30
0.0
 10
161.7724683746489
 20
87.16265106682476
 30
0.0
 10
161.7786238198708
 20
87.18366669365058
 30
0.0
 10
161.8019617835742
 20
87.24300875617883
 30
0.0
 10
161.8242475673769
 20
87.27760794067398
 30
0.0
 10
161.8531214708673
 20
87.31091187241691
 30
0.0
 10
161.858784488176
 20
87.31698293169392
 30
0.0
 10
161.8646320515446
 20
87.32283751638533
 30
0.0
  0
LINE
  5
247
330
21A
100
AcDbEntity
  8
MD_可視
100
AcDbLine
 10
163.8637560883189
 20
86.63307043423264
 30
0.0
 11
164.115495792981
 21
86.61987731535555
 31
0.0
210
-1.0
220
-0.0000000000000002
230
0.0
  0
LINE
  5
248
330
21A
100
AcDbEntity
  8
MD_可視
100
AcDbLine
 10
162.0938018402748
 20
86.72582980580774
 30
0.0
 11
163.8637560883189
 21
86.63307043423447
 31
0.0
210
-1.0
220
-0.0000000000000002
230
0.0
  0
LINE
  5
249
330
21A
100
AcDbEntity
  8
MD_可視
100
AcDbLine
 10
164.115495792981
 20
86.61987731535555
 30
0.0
 11
170.211671850708
 21
86.61987731535555
 31
0.0
210
-1.0
220
-0.0000000000000002
230
0.0
  0
LINE
  5
24A
330
21A
100
AcDbEntity
  8
MD_可視
100
AcDbLine
 10
163.8637560883189
 20
89.31987731535446
 30
0.0
 11
163.8637560883189
 21
86.63307043423264
 31
0.0
210
-1.0
220
-0.0000000000000002
230
0.0
  0
LINE
  5
24B
330
21A
100
AcDbEntity
  8
MD_可視
100
AcDbLine
 10
186.311671850708
 20
83.7198773153541
 30
0.0
 11
186.3116718507081
 21
68.51987731535519
 31
0.0
210
-1.0
220
-0.0000000000000002
230
0.0
  0
LINE
  5
24C
330
21A
100
AcDbEntity
  8
MD_狭い可視
100
AcDbLine
 10
176.5919020007457
 20
83.7198773153541
 30
0.0
 11
186.311671850708
 21
83.7198773153541
 31
0.0
210
-1.0
220
-0.0000000000000002
230
0.0
  0
ARC
  5
24D
330
21A
100
AcDbEntity
  8
MD_可視
100
AcDbCircle
 10
-167.4970137310499
 20
84.31987731535446
 30
0.0000000000000094
 40
9.114658119658129
210
0.0
220
0.0000000000000001
230
-1.0
100
AcDbArc
 50
183.7743976731795
 51
223.724724840537
  0
ARC
  5
24E
330
21A
100
AcDbEntity
  8
MD_可視
100
AcDbCircle
 10
-184.4347060387422
 20
68.11987731535555
 30
0.0000000000000076
 40
14.32303418803421
210
0.0
220
0.0000000000000001
230
-1.0
100
AcDbArc
 50
1.600309796394874
 51
43.72472484053815
  0
LINE
  5
24F
330
21A
100
AcDbEntity
  8
MD_狭い可視
100
AcDbLine
 10
170.1172583488921
 20
68.51987731535519
 30
0.0
 11
186.3116718507081
 21
68.51987731535519
 31
0.0
210
-1.0
220
-0.0000000000000002
230
0.0
  0
LINE
  5
250
330
21A
100
AcDbEntity
  8
MD_可視
100
AcDbLine
 10
186.311671850708
 20
84.11987731535374
 30
0.0
 11
186.311671850708
 21
83.7198773153541
 31
0.0
210
-1.0
220
-0.0000000000000002
230
0.0
  0
LINE
  5
251
330
21A
100
AcDbEntity
  8
MD_可視
100
AcDbLine
 10
186.3116718507081
 20
68.11987731535555
 30
0.0
 11
186.3116718507081
 21
68.51987731535519
 31
0.0
210
-1.0
220
-0.0000000000000002
230
0.0
  0
LINE
  5
252
330
21A
100
AcDbEntity
  8
MD_可視
100
AcDbLine
 10
170.111671850708
 20
68.11987731535555
 30
0.0
 11
170.111671850708
 21
71.53369761537579
 31
0.0
210
-1.0
220
-0.0000000000000002
230
0.0
  0
LINE
  5
253
330
21A
100
AcDbEntity
  8
MD_可視
100
AcDbLine
 10
186.3116718507081
 20
68.11987731535555
 30
0.0
 11
170.111671850708
 21
68.11987731535555
 31
0.0
210
-1.0
220
-0.0000000000000002
230
0.0
  0
LINE
  5
254
330
21A
100
AcDbEntity
  8
MD_可視
100
AcDbLine
 10
174.0838940729303
 20
78.01987731535518
 30
0.0
 11
173.5214957152528
 21
78.01987731535518
 31
0.0
210
-1.0
220
-0.0000000000000002
230
0.0
  0
SPLINE
  5
255
330
21A
100
AcDbEntity
  8
MD_可視
100
AcDbSpline
210
0.0
220
0.0
230
1.0
 70
     8
 71
     3
 72
    14
 73
    10
 74
     0
 42
0.000000001
 43
0.0000000001
 40
0.120570007454013
 40
0.120570007454013
 40
0.120570007454013
 40
0.120570007454013
 40
0.1356375538748845
 40
0.1356375538748845
 40
0.150705100295756
 40
0.150705100295756
 40
0.1657750306747279
 40
0.1657750306747279
 40
0.1808449610536997
 40
0.1808449610536997
 40
0.1808449610536997
 40
0.1808449610536997
 10
170.111671850708
 20
68.11987731535555
 30
0.0
 10
170.111671850708
 20
68.11987731535555
 30
0.0
 10
170.111660824732
 20
68.12991489116575
 30
0.0
 10
170.1117476050466
 20
68.17073655393142
 30
0.0
 10
170.111860509907
 20
68.20152064944341
 30
0.0
 10
170.1124415581343
 20
68.27255417526612
 30
0.0
 10
170.112951013733
 20
68.317539525151
 30
0.0
 10
170.1146504274438
 20
68.41609452431839
 30
0.0
 10
170.1158554868838
 20
68.46966380680715
 30
0.0
 10
170.1172583488921
 20
68.51987731535519
 30
0.0
  0
SPLINE
  5
256
330
21A
100
AcDbEntity
  8
MD_可視
100
AcDbSpline
210
0.0
220
0.0
230
1.0
 70
     8
 71
     3
 72
    14
 73
    10
 74
     0
 42
0.000000001
 43
0.0000000001
 40
0.0
 40
0.0
 40
0.0
 40
0.0
 40
0.0150661484459911
 40
0.0150661484459911
 40
0.0301322968919822
 40
0.0301322968919822
 40
0.0452193430172253
 40
0.0452193430172253
 40
0.0603063891424683
 40
0.0603063891424683
 40
0.0603063891424683
 40
0.0603063891424683
 10
176.6094773188098
 20
84.11987731535555
 30
0.0
 10
176.6094773188098
 20
84.11987731535555
 30
0.0
 10
176.6092743814045
 20
84.10984130503676
 30
0.0
 10
176.6082422510436
 20
84.06903046506887
 30
0.0
 10
176.6073893173903
 20
84.03825563868123
 30
0.0
 10
176.6049161913606
 20
83.96721548259483
 30
0.0
 10
176.6031260525114
 20
83.92220111733696
 30
0.0
 10
176.5982860784763
 20
83.82362170828491
 30
0.0
 10
176.595212502561
 20
83.77005838889818
 30
0.0
 10
176.5919020007457
 20
83.7198773153541
 30
0.0
  0
LINE
  5
257
330
21A
100
AcDbEntity
  8
MD_可視
100
AcDbLine
 10
176.611671850708
 20
84.11987731535555
 30
0.0
 11
176.6094773188098
 21
84.11987731535555
 31
0.0
210
-1.0
220
-0.0000000000000002
230
0.0
  0
LINE
  5
258
330
21A
100
AcDbEntity
  8
MD_可視
100
AcDbLine
 10
176.611671850708
 20
84.11987731535555
 30
0.0
 11
186.311671850708
 21
84.11987731535555
 31
0.0
210
-1.0
220
-0.0000000000000002
230
0.0
  0
ENDBLK
  5
259
330
21A
100
AcDbEntity
  8
0
100
AcDbBlockEnd
  0
ENDSEC
  0
SECTION
  2
ENTITIES
  0
INSERT
  5
7F
330
70
100
AcDbEntity
  8
MD_可視
100
AcDbBlockReference
  2
CustomObjectsInViewport4_0
 10
0.0
 20
0.0
 30
0.0
  0
INSERT
  5
1C2
330
70
100
AcDbEntity
  8
MD_可視
100
AcDbBlockReference
  2
CustomObjectsInViewport6_0
 10
0.0
 20
0.0
 30
0.0
  0
INSERT
  5
218
330
70
100
AcDbEntity
  8
MD_可視
100
AcDbBlockReference
  2
CustomObjectsInViewport8_0
 10
0.0
 20
0.0
 30
0.0
  0
ENDSEC
  0
SECTION
  2
OBJECTS
  0
DICTIONARY
  5
C
330
0
100
AcDbDictionary
281
     1
  3
ACAD_CIP_PREVIOUS_PRODUCT_INFO
350
269
  3
ACAD_COLOR
350
63
  3
ACAD_DETAILVIEWSTYLE
350
6A
  3
ACAD_GROUP
350
D
  3
ACAD_LAST_SAVED_VERSION_INFO
350
26B
  3
ACAD_LAYOUT
350
62
  3
ACAD_MATERIAL
350
10
  3
ACAD_MLEADERSTYLE
350
66
  3
ACAD_MLINESTYLE
350
5F
  3
ACAD_PLOTSETTINGS
350
61
  3
ACAD_PLOTSTYLENAME
350
E
  3
ACAD_SCALELIST
350
42
  3
ACAD_SECTIONVIEWSTYLE
350
68
  3
ACAD_TABLESTYLE
350
64
  3
ACAD_VISUALSTYLE
350
29
  3
ACDB_RECOMPOSE_DATA
350
26F
  3
AcDbVariableDictionary
350
25B
  0
DICTIONARY
  5
7D
330
70
100
AcDbDictionary
280
     1
281
     1
  3
ACAD_SORTENTS
360
7E
  0
XRECORD
  5
269
102
{ACAD_REACTORS
330
C
102
}
330
C
100
AcDbXrecord
280
     1
300
ACD
300
2024
300

  0
DICTIONARY
  5
63
102
{ACAD_REACTORS
330
C
102
}
330
C
100
AcDbDictionary
281
     1
  0
DICTIONARY
  5
6A
102
{ACAD_REACTORS
330
C
102
}
330
C
100
AcDbDictionary
281
     1
  3
Imperial24
350
6B
  3
Metric50
350
264
  0
DICTIONARY
  5
D
102
{ACAD_REACTORS
330
C
102
}
330
C
100
AcDbDictionary
281
     1
  0
XRECORD
  5
26B
102
{ACAD_REACTORS
330
C
102
}
330
C
100
AcDbXrecord
280
     1
300
{5B1151AE-531E-1743-B5F8-AE3938CA6463}
301
{D72EA1C6-2516-914E-A575-26C11F06C466}
302
{5B1151AE-531E-1743-B5F8-AE3938CA6463}
303
C:\Users\dsp199\Desktop\CAD HP UP\ジャック、JJ\NSJJC5EBK-KEY.dxf
  0
DICTIONARY
  5
62
102
{ACAD_REACTORS
330
C
102
}
330
C
100
AcDbDictionary
281
     1
  3
Model
350
73
  3
レイアウト1
350
6F
  3
レイアウト2
350
77
  0
DICTIONARY
  5
10
102
{ACAD_REACTORS
330
C
102
}
330
C
100
AcDbDictionary
281
     1
  3
ByBlock
350
19
  3
ByLayer
350
11
  3
Global
350
21
  0
DICTIONARY
  5
66
102
{ACAD_REACTORS
330
C
102
}
330
C
100
AcDbDictionary
281
     1
  3
Standard
350
67
  0
DICTIONARY
  5
5F
102
{ACAD_REACTORS
330
C
102
}
330
C
100
AcDbDictionary
281
     1
  3
Standard
350
60
  0
DICTIONARY
  5
61
102
{ACAD_REACTORS
330
C
102
}
330
C
100
AcDbDictionary
281
     1
  0
ACDBDICTIONARYWDFLT
  5
E
102
{ACAD_REACTORS
330
C
102
}
330
C
100
AcDbDictionary
281
     1
  3
Normal
350
F
100
AcDbDictionaryWithDefault
340
F
  0
DICTIONARY
  5
42
102
{ACAD_REACTORS
330
C
102
}
330
C
100
AcDbDictionary
281
     1
  3
A0
350
43
  3
A1
350
44
  3
A2
350
45
  3
A3
350
46
  3
A4
350
47
  3
A5
350
48
  3
A6
350
49
  3
A7
350
4A
  3
A8
350
4B
  3
A9
350
4C
  3
B0
350
4D
  3
B1
350
4E
  3
B2
350
4F
  3
B3
350
50
  3
B4
350
51
  3
B5
350
52
  3
B6
350
53
  0
DICTIONARY
  5
68
102
{ACAD_REACTORS
330
C
102
}
330
C
100
AcDbDictionary
281
     1
  3
Imperial24
350
69
  3
Metric50
350
263
  0
DICTIONARY
  5
64
102
{ACAD_REACTORS
330
C
102
}
330
C
100
AcDbDictionary
281
     1
  3
Standard
350
65
  0
DICTIONARY
  5
29
102
{ACAD_REACTORS
330
C
102
}
330
C
100
AcDbDictionary
281
     1
  3
2dWireframe
350
2F
  3
Basic
350
2E
  3
Brighten
350
35
  3
ColorChange
350
39
  3
Conceptual
350
32
  3
Dim
350
34
  3
EdgeColorOff
350
41
  3
Facepattern
350
38
  3
Flat
350
2A
  3
FlatWithEdges
350
2B
  3
Gouraud
350
2C
  3
GouraudWithEdges
350
2D
  3
Hidden
350
31
  3
JitterOff
350
3F
  3
Linepattern
350
37
  3
OverhangOff
350
40
  3
Realistic
350
33
  3
Shaded
350
3E
  3
Shaded with edges
350
3D
  3
Shades of Gray
350
3A
  3
Sketchy
350
3B
  3
Thicken
350
36
  3
Wireframe
350
30
  3
X-Ray
350
3C
  0
XRECORD
  5
26F
102
{ACAD_REACTORS
330
C
102
}
330
C
100
AcDbXrecord
280
     1
 90
        1
330
65
  0
DICTIONARY
  5
25B
102
{ACAD_REACTORS
330
C
102
}
330
C
100
AcDbDictionary
281
     1
  3
ANNOALLVISIBLE
350
260
  3
CANNOSCALE
350
261
  3
CMLEADERSTYLE
350
25D
  3
CTABLESTYLE
350
25C
  3
CVIEWDETAILSTYLE
350
25E
  3
CVIEWSECTIONSTYLE
350
25F
  0
SORTENTSTABLE
  5
7E
102
{ACAD_REACTORS
330
7D
102
}
330
7D
100
AcDbSortentsTable
330
70
  0
ACDBDETAILVIEWSTYLE
  5
6B
102
{ACAD_REACTORS
330
6A
102
}
330
6A
100
AcDbModelDocViewStyle
 70
     0
  3
Imperial24
290
     1
300
Imperial24
 90
        0
100
AcDbDetailViewStyle
 70
     0
 71
     0
 90
        3
 71
     1
340
55
 62
   256
 40
0.24
340
0
 62
   256
 40
0.24
300

 40
0.36
280
     3
 71
     2
340
5D
 90
       25
 62
   256
 71
     3
340
55
 62
   256
 40
0.24
 90
        1
 40
0.75
 90
        1
300
%<\AcVar ViewType \f "%tc1">% %<\AcVar ViewDetailId>%\PSCALE %<\AcVar ViewScale \f "%sn">%
 71
     4
340
5D
 90
       25
 62
   256
340
5D
 90
       25
 62
   256
280
     0
  0
ACDBDETAILVIEWSTYLE
  5
264
102
{ACAD_REACTORS
330
6A
102
}
330
6A
100
AcDbModelDocViewStyle
 70
     0
  3
Metric50
290
     1
300
Metric50
 90
        0
100
AcDbDetailViewStyle
 70
     0
 71
     0
 90
        3
 71
     1
340
55
 62
   256
 40
5.0
340
0
 62
   256
 40
5.0
300

 40
0.0
280
     1
 71
     2
340
5D
 90
       25
 62
   256
 71
     3
340
55
 62
   256
 40
5.0
 90
        0
 40
15.0
 90
        1
300
%<\AcVar ViewDetailId>% (%<\AcVar ViewScale \f "%sn">%)
 71
     4
340
5D
 90
       25
 62
   256
340
5D
 90
       25
 62
   256
280
     0
  0
LAYOUT
  5
73
102
{ACAD_REACTORS
330
62
102
}
330
62
100
AcDbPlotSettings
  1

  2
none_device
  4
ISO_A4_(210.00_x_297.00_MM)
  6

 40
7.5
 41
20.0
 42
7.5
 43
20.0
 44
210.0
 45
297.0
 46
0.0
 47
0.0
 48
0.0
 49
0.0
140
0.0
141
0.0
142
1.0
143
1.280083138790596
 70
 11952
 72
     1
 73
     1
 74
     0
  7

 75
     0
147
0.7811992594049676
 76
     0
 77
     2
 78
   300
148
-17.79664348054007
149
-33.55369866991259
100
AcDbLayout
  1
Model
 70
     1
 71
     0
 10
0.0
 20
0.0
 11
12.0
 21
9.0
 12
0.0
 22
0.0
 32
0.0
 14
0.0
 24
0.0
 34
0.0
 15
0.0
 25
0.0
 35
0.0
146
0.0
 13
0.0
 23
0.0
 33
0.0
 16
1.0
 26
0.0
 36
0.0
 17
0.0
 27
1.0
 37
0.0
 76
     0
330
70
331
57
1001
ACAD_PSEXT
1000
なし
1000
なし
1000
適切ではありません
1000
新しいプロッタ環境設定名を選択しない限り、レイアウトは印刷されません。
1070
     0
  0
LAYOUT
  5
6F
102
{ACAD_REACTORS
330
62
102
}
330
62
100
AcDbPlotSettings
  1

  2
Microsoft Print to PDF
  4

  6

 40
0.0
 41
0.0
 42
0.0
 43
0.0
 44
0.0
 45
0.0
 46
0.0
 47
0.0
 48
0.0
 49
0.0
140
0.0
141
0.0
142
1.0
143
1.0
 70
   688
 72
     0
 73
     0
 74
     5
  7

 75
    16
147
1.0
 76
     0
 77
     2
 78
   300
148
0.0
149
0.0
100
AcDbLayout
  1
レイアウト1
 70
     1
 71
     1
 10
0.0
 20
0.0
 11
12.0
 21
9.0
 12
0.0
 22
0.0
 32
0.0
 14
1.000000000000000E+20
 24
1.000000000000000E+20
 34
1.000000000000000E+20
 15
-1.000000000000000E+20
 25
-1.000000000000000E+20
 35
-1.000000000000000E+20
146
0.0
 13
0.0
 23
0.0
 33
0.0
 16
1.0
 26
0.0
 36
0.0
 17
0.0
 27
1.0
 37
0.0
 76
     0
330
6C
  0
LAYOUT
  5
77
102
{ACAD_REACTORS
330
62
102
}
330
62
100
AcDbPlotSettings
  1

  2
Microsoft Print to PDF
  4

  6

 40
0.0
 41
0.0
 42
0.0
 43
0.0
 44
0.0
 45
0.0
 46
0.0
 47
0.0
 48
0.0
 49
0.0
140
0.0
141
0.0
142
1.0
143
1.0
 70
   688
 72
     0
 73
     0
 74
     5
  7

 75
    16
147
1.0
 76
     0
 77
     2
 78
   300
148
0.0
149
0.0
100
AcDbLayout
  1
レイアウト2
 70
     1
 71
     2
 10
0.0
 20
0.0
 11
12.0
 21
9.0
 12
0.0
 22
0.0
 32
0.0
 14
0.0
 24
0.0
 34
0.0
 15
0.0
 25
0.0
 35
0.0
146
0.0
 13
0.0
 23
0.0
 33
0.0
 16
1.0
 26
0.0
 36
0.0
 17
0.0
 27
1.0
 37
0.0
 76
     0
330
74
  0
MATERIAL
  5
19
102
{ACAD_XDICTIONARY
360
1A
102
}
102
{ACAD_REACTORS
330
10
102
}
330
10
100
AcDbMaterial
  1
ByBlock
 72
     0
 43
0.0208333333333333
 43
0.0
 43
0.0
 43
0.0
 43
0.0
 43
0.0208333333333333
 43
0.0
 43
0.0
 43
0.0
 43
0.0
 43
1.0
 43
0.0
 43
0.0
 43
0.0
 43
0.0
 43
1.0
 77
     0
 47
0.0208333333333333
 47
0.0
 47
0.0
 47
0.0
 47
0.0
 47
0.0208333333333333
 47
0.0
 47
0.0
 47
0.0
 47
0.0
 47
1.0
 47
0.0
 47
0.0
 47
0.0
 47
0.0
 47
1.0
171
     0
 49
0.0208333333333333
 49
0.0
 49
0.0
 49
0.0
 49
0.0
 49
0.0208333333333333
 49
0.0
 49
0.0
 49
0.0
 49
0.0
 49
1.0
 49
0.0
 49
0.0
 49
0.0
 49
0.0
 49
1.0
175
     0
142
0.0208333333333333
142
0.0
142
0.0
142
0.0
142
0.0
142
0.0208333333333333
142
0.0
142
0.0
142
0.0
142
0.0
142
1.0
142
0.0
142
0.0
142
0.0
142
0.0
142
1.0
179
     0
144
0.0208333333333333
144
0.0
144
0.0
144
0.0
144
0.0
144
0.0208333333333333
144
0.0
144
0.0
144
0.0
144
0.0
144
1.0
144
0.0
144
0.0
144
0.0
144
0.0
144
1.0
147
0.0208333333333333
147
0.0
147
0.0
147
0.0
147
0.0
147
0.0208333333333333
147
0.0
147
0.0
147
0.0
147
0.0
147
1.0
147
0.0
147
0.0
147
0.0
147
0.0
147
1.0
  0
MATERIAL
  5
11
102
{ACAD_XDICTIONARY
360
12
102
}
102
{ACAD_REACTORS
330
10
102
}
330
10
100
AcDbMaterial
  1
ByLayer
 72
     0
 43
0.0208333333333333
 43
0.0
 43
0.0
 43
0.0
 43
0.0
 43
0.0208333333333333
 43
0.0
 43
0.0
 43
0.0
 43
0.0
 43
1.0
 43
0.0
 43
0.0
 43
0.0
 43
0.0
 43
1.0
 77
     0
 47
0.0208333333333333
 47
0.0
 47
0.0
 47
0.0
 47
0.0
 47
0.0208333333333333
 47
0.0
 47
0.0
 47
0.0
 47
0.0
 47
1.0
 47
0.0
 47
0.0
 47
0.0
 47
0.0
 47
1.0
171
     0
 49
0.0208333333333333
 49
0.0
 49
0.0
 49
0.0
 49
0.0
 49
0.0208333333333333
 49
0.0
 49
0.0
 49
0.0
 49
0.0
 49
1.0
 49
0.0
 49
0.0
 49
0.0
 49
0.0
 49
1.0
175
     0
142
0.0208333333333333
142
0.0
142
0.0
142
0.0
142
0.0
142
0.0208333333333333
142
0.0
142
0.0
142
0.0
142
0.0
142
1.0
142
0.0
142
0.0
142
0.0
142
0.0
142
1.0
179
     0
144
0.0208333333333333
144
0.0
144
0.0
144
0.0
144
0.0
144
0.0208333333333333
144
0.0
144
0.0
144
0.0
144
0.0
144
1.0
144
0.0
144
0.0
144
0.0
144
0.0
144
1.0
147
0.0208333333333333
147
0.0
147
0.0
147
0.0
147
0.0
147
0.0208333333333333
147
0.0
147
0.0
147
0.0
147
0.0
147
1.0
147
0.0
147
0.0
147
0.0
147
0.0
147
1.0
  0
MATERIAL
  5
21
102
{ACAD_XDICTIONARY
360
22
102
}
102
{ACAD_REACTORS
330
10
102
}
330
10
100
AcDbMaterial
  1
Global
 72
     0
 43
0.0208333333333333
 43
0.0
 43
0.0
 43
0.0
 43
0.0
 43
0.0208333333333333
 43
0.0
 43
0.0
 43
0.0
 43
0.0
 43
1.0
 43
0.0
 43
0.0
 43
0.0
 43
0.0
 43
1.0
 77
     0
 47
0.0208333333333333
 47
0.0
 47
0.0
 47
0.0
 47
0.0
 47
0.0208333333333333
 47
0.0
 47
0.0
 47
0.0
 47
0.0
 47
1.0
 47
0.0
 47
0.0
 47
0.0
 47
0.0
 47
1.0
171
     0
 49
0.0208333333333333
 49
0.0
 49
0.0
 49
0.0
 49
0.0
 49
0.0208333333333333
 49
0.0
 49
0.0
 49
0.0
 49
0.0
 49
1.0
 49
0.0
 49
0.0
 49
0.0
 49
0.0
 49
1.0
175
     0
142
0.0208333333333333
142
0.0
142
0.0
142
0.0
142
0.0
142
0.0208333333333333
142
0.0
142
0.0
142
0.0
142
0.0
142
1.0
142
0.0
142
0.0
142
0.0
142
0.0
142
1.0
179
     0
144
0.0208333333333333
144
0.0
144
0.0
144
0.0
144
0.0
144
0.0208333333333333
144
0.0
144
0.0
144
0.0
144
0.0
144
1.0
144
0.0
144
0.0
144
0.0
144
0.0
144
1.0
147
0.0208333333333333
147
0.0
147
0.0
147
0.0
147
0.0
147
0.0208333333333333
147
0.0
147
0.0
147
0.0
147
0.0
147
1.0
147
0.0
147
0.0
147
0.0
147
0.0
147
1.0
  0
MLEADERSTYLE
  5
67
102
{ACAD_REACTORS
330
66
102
}
330
66
100
AcDbMLeaderStyle
179
     2
170
     2
171
     1
172
     0
 90
        2
 40
0.0
 41
0.0
173
     1
 91
-1056964608
340
5B
 92
       -2
290
     1
 42
0.09
291
     1
 43
0.36
  3
Standard
 44
0.18
300

342
55
174
     1
178
     6
175
     1
176
     0
 93
-1056964608
 45
0.18
292
     0
297
     0
 46
0.18
 94
-1056964608
 47
1.0
 49
1.0
140
1.0
293
     1
141
0.0
294
     1
177
     0
142
1.0
295
     1
296
     0
143
0.125
271
     0
272
     9
273
     9
298
     1
  0
MLINESTYLE
  5
60
102
{ACAD_REACTORS
330
5F
102
}
330
5F
100
AcDbMlineStyle
  2
STANDARD
 70
     0
  3

 62
   256
 51
90.0
 52
90.0
 71
     2
 49
0.5
 62
   256
  6
BYLAYER
 49
-0.5
 62
   256
  6
BYLAYER
  0
ACDBPLACEHOLDER
  5
F
102
{ACAD_REACTORS
330
E
102
}
330
E
  0
SCALE
  5
43
102
{ACAD_REACTORS
330
42
102
}
330
42
100
AcDbScale
 70
     0
300
1:1
140
1.0
141
1.0
290
     1
  0
SCALE
  5
44
102
{ACAD_REACTORS
330
42
102
}
330
42
100
AcDbScale
 70
     0
300
1:2
140
1.0
141
2.0
290
     0
  0
SCALE
  5
45
102
{ACAD_REACTORS
330
42
102
}
330
42
100
AcDbScale
 70
     0
300
1:4
140
1.0
141
4.0
290
     0
  0
SCALE
  5
46
102
{ACAD_REACTORS
330
42
102
}
330
42
100
AcDbScale
 70
     0
300
1:5
140
1.0
141
5.0
290
     0
  0
SCALE
  5
47
102
{ACAD_REACTORS
330
42
102
}
330
42
100
AcDbScale
 70
     0
300
1:8
140
1.0
141
8.0
290
     0
  0
SCALE
  5
48
102
{ACAD_REACTORS
330
42
102
}
330
42
100
AcDbScale
 70
     0
300
1:10
140
1.0
141
10.0
290
     0
  0
SCALE
  5
49
102
{ACAD_REACTORS
330
42
102
}
330
42
100
AcDbScale
 70
     0
300
1:16
140
1.0
141
16.0
290
     0
  0
SCALE
  5
4A
102
{ACAD_REACTORS
330
42
102
}
330
42
100
AcDbScale
 70
     0
300
1:20
140
1.0
141
20.0
290
     0
  0
SCALE
  5
4B
102
{ACAD_REACTORS
330
42
102
}
330
42
100
AcDbScale
 70
     0
300
1:30
140
1.0
141
30.0
290
     0
  0
SCALE
  5
4C
102
{ACAD_REACTORS
330
42
102
}
330
42
100
AcDbScale
 70
     0
300
1:40
140
1.0
141
40.0
290
     0
  0
SCALE
  5
4D
102
{ACAD_REACTORS
330
42
102
}
330
42
100
AcDbScale
 70
     0
300
1:50
140
1.0
141
50.0
290
     0
  0
SCALE
  5
4E
102
{ACAD_REACTORS
330
42
102
}
330
42
100
AcDbScale
 70
     0
300
1:100
140
1.0
141
100.0
290
     0
  0
SCALE
  5
4F
102
{ACAD_REACTORS
330
42
102
}
330
42
100
AcDbScale
 70
     0
300
2:1
140
2.0
141
1.0
290
     0
  0
SCALE
  5
50
102
{ACAD_REACTORS
330
42
102
}
330
42
100
AcDbScale
 70
     0
300
4:1
140
4.0
141
1.0
290
     0
  0
SCALE
  5
51
102
{ACAD_REACTORS
330
42
102
}
330
42
100
AcDbScale
 70
     0
300
8:1
140
8.0
141
1.0
290
     0
  0
SCALE
  5
52
102
{ACAD_REACTORS
330
42
102
}
330
42
100
AcDbScale
 70
     0
300
10:1
140
10.0
141
1.0
290
     0
  0
SCALE
  5
53
102
{ACAD_REACTORS
330
42
102
}
330
42
100
AcDbScale
 70
     0
300
100:1
140
100.0
141
1.0
290
     0
  0
ACDBSECTIONVIEWSTYLE
  5
69
102
{ACAD_REACTORS
330
68
102
}
330
68
100
AcDbModelDocViewStyle
 70
     0
  3
Imperial24
290
     1
300
Imperial24
 90
        0
100
AcDbSectionViewStyle
 70
     0
 71
     0
 90
       78
 71
     1
340
55
 62
   256
 40
0.24
340
0
340
0
 62
   256
 40
0.24
300
I, O, Q, S, X, Z
 40
0.48
 90
        3
 40
0.18
 90
        1
 71
     2
340
5D
 90
       25
 62
   256
340
5D
 90
       50
 62
   256
 40
0.24
 40
0.0
 40
0.24
 71
     3
340
55
 62
   256
 40
0.24
 90
        1
 40
0.75
 90
        1
300
%<\AcVar ViewType \f "%tc1">% %<\AcVar ViewSectionStartId>%-%<\AcVar ViewSectionEndId>%\PSCALE %<\AcVar ViewScale \f "%sn">%
 71
     4
 62
   256
 62
   257
300
ANSI31
 40
1.0
 90
        0
290
     0
290
     0
 90
        6
 40
0.0
 40
1.570796326794896
 40
0.2617993877991494
 40
1.308996938995747
 40
-0.2617993877991494
 40
1.832595714594046
  0
ACDBSECTIONVIEWSTYLE
  5
263
102
{ACAD_REACTORS
330
68
102
}
330
68
100
AcDbModelDocViewStyle
 70
     0
  3
Metric50
290
     1
300
Metric50
 90
        0
100
AcDbSectionViewStyle
 70
     0
 71
     0
 90
      102
 71
     1
340
55
 62
   256
 40
5.0
340
0
340
0
 62
   256
 40
5.0
300
I, O, Q, S, X, Z
 40
10.0
 90
        0
 40
2.5
 90
        0
 71
     2
340
5D
 90
       25
 62
   256
340
5D
 90
       50
 62
   256
 40
5.0
 40
2.5
 40
5.0
 71
     3
340
55
 62
   256
 40
5.0
 90
        0
 40
15.0
 90
        1
300
%<\AcVar ViewSectionStartId>%-%<\AcVar ViewSectionEndId>% (%<\AcVar ViewScale \f "%sn">%)
 71
     4
 62
   256
 62
   257
300
ANSI31
 40
1.0
 90
        0
290
     0
290
     0
 90
        6
 40
0.0
 40
1.570796326794896
 40
0.2617993877991494
 40
1.308996938995747
 40
-0.2617993877991494
 40
1.832595714594046
  0
TABLESTYLE
  5
65
102
{ACAD_XDICTIONARY
360
26D
102
}
102
{ACAD_REACTORS
330
64
102
}
330
64
100
AcDbTableStyle
280
     0
  3
Standard
 70
     0
 71
     3
 40
1.5
 41
1.5
280
     0
281
     0
  7
Standard
140
4.5
170
     2
 62
     0
 63
     7
283
     0
 90
      512
 91
        0
  1

274
    -2
284
     1
 64
     0
275
    -2
285
     1
 65
     0
276
    -2
286
     1
 66
     0
277
    -2
287
     1
 67
     0
278
    -2
288
     1
 68
     0
279
    -2
289
     1
 69
     0
  7
Standard
140
6.0
170
     5
 62
     0
 63
     7
283
     0
 90
      512
 91
        0
  1

274
    -2
284
     1
 64
     0
275
    -2
285
     1
 65
     0
276
    -2
286
     1
 66
     0
277
    -2
287
     1
 67
     0
278
    -2
288
     1
 68
     0
279
    -2
289
     1
 69
     0
  7
Standard
140
4.5
170
     5
 62
     0
 63
     7
283
     0
 90
      512
 91
        0
  1

274
    -2
284
     1
 64
     0
275
    -2
285
     1
 65
     0
276
    -2
286
     1
 66
     0
277
    -2
287
     1
 67
     0
278
    -2
288
     1
 68
     0
279
    -2
289
     1
 69
     0
  0
VISUALSTYLE
  5
2F
102
{ACAD_REACTORS
330
29
102
}
330
29
100
AcDbVisualStyle
  2
2dWireframe
 70
     4
177
     3
291
     0
 70
    58
 90
        0
176
     1
 90
        2
176
     1
 90
        0
176
     1
 90
        0
176
     1
 40
0.6
176
     1
 40
30.0
176
     1
 62
     7
420
 16777215
176
     1
 90
        1
176
     1
 90
        4
176
     1
 62
     7
176
     1
 62
   257
176
     1
 90
        1
176
     1
 90
        1
176
     1
 40
1.0
176
     1
 90
        0
176
     1
 62
   257
176
     1
 40
1.0
176
     1
 90
        1
176
     1
 90
        6
176
     1
 90
        2
176
     1
 62
     7
176
     1
 90
        5
176
     1
 90
        0
176
     1
 90
        0
176
     1
290
     0
176
     1
 90
        1
176
     1
 40
0.0
176
     1
 90
        0
176
     1
290
     1
176
     1
290
     1
176
     1
290
     0
176
     1
290
     0
176
     1
290
     0
176
     1
290
     0
176
     1
290
     0
176
     1
290
     0
176
     1
290
     0
176
     1
 90
       50
176
     1
 40
0.0
176
     1
 40
1.0
176
     1
 90
        0
176
     1
 62
    18
420
        0
176
     1
 90
       50
176
     1
 90
        3
176
     1
 62
     5
420
      255
176
     1
290
     0
176
     1
 90
       50
176
     1
 90
       50
176
     1
 90
       50
176
     1
290
     0
176
     1
 90
       50
176
     1
 62
   256
176
     0
 40
1.0
176
     0
 90
        2
176
     1
  1
strokes_ogs.tif
176
     1
290
     0
176
     1
 40
1.0
176
     1
 40
1.0
176
     1
  0
VISUALSTYLE
  5
2E
102
{ACAD_REACTORS
330
29
102
}
330
29
100
AcDbVisualStyle
  2
Basic
 70
     7
177
     3
291
     1
 70
    58
 90
        1
176
     1
 90
        0
176
     1
 90
        1
176
     1
 90
        0
176
     1
 40
0.6
176
     1
 40
30.0
176
     1
 62
     7
420
 16777215
176
     1
 90
        0
176
     1
 90
        4
176
     1
 62
     7
176
     1
 62
   257
176
     1
 90
        1
176
     1
 90
        1
176
     1
 40
1.0
176
     1
 90
        8
176
     1
 62
     7
176
     1
 40
1.0
176
     1
 90
        1
176
     1
 90
        6
176
     1
 90
        2
176
     1
 62
     7
176
     1
 90
        5
176
     1
 90
        0
176
     1
 90
        0
176
     1
290
     0
176
     1
 90
        1
176
     1
 40
0.0
176
     1
 90
        0
176
     1
290
     0
176
     1
290
     1
176
     1
290
     1
176
     1
290
     0
176
     1
290
     0
176
     1
290
     0
176
     1
290
     0
176
     1
290
     0
176
     1
290
     0
176
     1
 90
       50
176
     1
 40
0.0
176
     1
 40
1.0
176
     1
 90
        0
176
     1
 62
    18
420
        0
176
     1
 90
       50
176
     1
 90
        3
176
     1
 62
     5
420
      255
176
     1
290
     0
176
     1
 90
       50
176
     1
 90
       50
176
     1
 90
       50
176
     1
290
     0
176
     1
 90
       50
176
     1
 62
   256
176
     0
 40
1.0
176
     0
 90
        2
176
     1
  1
strokes_ogs.tif
176
     1
290
     0
176
     1
 40
1.0
176
     1
 40
1.0
176
     1
  0
VISUALSTYLE
  5
35
102
{ACAD_REACTORS
330
29
102
}
330
29
100
AcDbVisualStyle
  2
Brighten
 70
    12
177
     3
291
     1
 70
    58
 90
        2
176
     1
 90
        2
176
     1
 90
        0
176
     1
 90
        0
176
     1
 40
0.6
176
     1
 40
30.0
176
     1
 62
     7
420
 16777215
176
     1
 90
        1
176
     1
 90
        4
176
     1
 62
     7
176
     1
 62
   257
176
     1
 90
        1
176
     1
 90
        1
176
     1
 40
1.0
176
     1
 90
        8
176
     1
 62
     7
176
     1
 40
1.0
176
     1
 90
        1
176
     1
 90
        6
176
     1
 90
        2
176
     1
 62
     7
176
     1
 90
        5
176
     1
 90
        0
176
     1
 90
        0
176
     1
290
     0
176
     1
 90
        1
176
     1
 40
50.0
176
     1
 90
        0
176
     1
290
     0
176
     1
290
     1
176
     1
290
     1
176
     1
290
     0
176
     1
290
     0
176
     1
290
     0
176
     1
290
     0
176
     1
290
     0
176
     1
290
     0
176
     1
 90
       50
176
     1
 40
0.0
176
     1
 40
1.0
176
     1
 90
        0
176
     1
 62
    18
420
        0
176
     1
 90
       50
176
     1
 90
        3
176
     1
 62
     5
420
      255
176
     1
290
     0
176
     1
 90
       50
176
     1
 90
       50
176
     1
 90
       50
176
     1
290
     0
176
     1
 90
       50
176
     1
 62
   256
176
     0
 40
1.0
176
     0
 90
        2
176
     1
  1
strokes_ogs.tif
176
     1
290
     0
176
     1
 40
1.0
176
     1
 40
1.0
176
     1
  0
VISUALSTYLE
  5
39
102
{ACAD_REACTORS
330
29
102
}
330
29
100
AcDbVisualStyle
  2
ColorChange
 70
    16
177
     3
291
     1
 70
    58
 90
        2
176
     1
 90
        2
176
     1
 90
        3
176
     1
 90
        0
176
     1
 40
0.6
176
     1
 40
30.0
176
     1
 62
     8
420
  8421504
176
     1
 90
        1
176
     1
 90
        4
176
     1
 62
     7
176
     1
 62
   257
176
     1
 90
        1
176
     1
 90
        1
176
     1
 40
1.0
176
     1
 90
        8
176
     1
 62
     8
420
  8421504
176
     1
 40
1.0
176
     1
 90
        1
176
     1
 90
        6
176
     1
 90
        2
176
     1
 62
     7
176
     1
 90
        5
176
     1
 90
        0
176
     1
 90
        0
176
     1
290
     0
176
     1
 90
        1
176
     1
 40
0.0
176
     1
 90
        0
176
     1
290
     0
176
     1
290
     1
176
     1
290
     1
176
     1
290
     0
176
     1
290
     0
176
     1
290
     0
176
     1
290
     0
176
     1
290
     0
176
     1
290
     0
176
     1
 90
       50
176
     1
 40
0.0
176
     1
 40
1.0
176
     1
 90
        0
176
     1
 62
    18
420
        0
176
     1
 90
       50
176
     1
 90
        3
176
     1
 62
     5
420
      255
176
     1
290
     0
176
     1
 90
       50
176
     1
 90
       50
176
     1
 90
       50
176
     1
290
     0
176
     1
 90
       50
176
     1
 62
   256
176
     0
 40
1.0
176
     0
 90
        2
176
     1
  1
strokes_ogs.tif
176
     1
290
     0
176
     1
 40
1.0
176
     1
 40
1.0
176
     1
  0
VISUALSTYLE
  5
32
102
{ACAD_REACTORS
330
29
102
}
330
29
100
AcDbVisualStyle
  2
Conceptual
 70
     9
177
     3
291
     0
 70
    58
 90
        3
176
     1
 90
        2
176
     1
 90
        0
176
     1
 90
        0
176
     1
 40
0.6
176
     1
 40
30.0
176
     1
 62
     7
420
 16777215
176
     1
 90
        2
176
     1
 90
        2
176
     1
 62
     7
176
     1
 62
   257
176
     1
 90
        1
176
     1
 90
        1
176
     1
 40
179.0
176
     1
 90
        8
176
     1
 62
     7
176
     1
 40
1.0
176
     1
 90
        1
176
     1
 90
        6
176
     1
 90
        2
176
     1
 62
     7
176
     1
 90
        3
176
     1
 90
        0
176
     1
 90
        0
176
     1
290
     0
176
     1
 90
        1
176
     1
 40
0.0
176
     1
 90
        0
176
     1
290
     0
176
     1
290
     1
176
     1
290
     1
176
     1
290
     0
176
     1
290
     0
176
     1
290
     0
176
     1
290
     0
176
     1
290
     0
176
     1
290
     0
176
     1
 90
       50
176
     1
 40
0.0
176
     1
 40
1.0
176
     1
 90
        0
176
     1
 62
    18
420
        0
176
     1
 90
       50
176
     1
 90
        3
176
     1
 62
     5
420
      255
176
     1
290
     0
176
     1
 90
       50
176
     1
 90
       50
176
     1
 90
       50
176
     1
290
     0
176
     1
 90
       50
176
     1
 62
   256
176
     0
 40
1.0
176
     0
 90
        2
176
     1
  1
strokes_ogs.tif
176
     1
290
     0
176
     1
 40
1.0
176
     1
 40
1.0
176
     1
  0
VISUALSTYLE
  5
34
102
{ACAD_REACTORS
330
29
102
}
330
29
100
AcDbVisualStyle
  2
Dim
 70
    11
177
     3
291
     1
 70
    58
 90
        2
176
     1
 90
        2
176
     1
 90
        0
176
     1
 90
        0
176
     1
 40
0.6
176
     1
 40
30.0
176
     1
 62
     7
420
 16777215
176
     1
 90
        1
176
     1
 90
        4
176
     1
 62
     7
176
     1
 62
   257
176
     1
 90
        1
176
     1
 90
        1
176
     1
 40
1.0
176
     1
 90
        8
176
     1
 62
     7
176
     1
 40
1.0
176
     1
 90
        1
176
     1
 90
        6
176
     1
 90
        2
176
     1
 62
     7
176
     1
 90
        5
176
     1
 90
        0
176
     1
 90
        0
176
     1
290
     0
176
     1
 90
        1
176
     1
 40
-50.0
176
     1
 90
        0
176
     1
290
     0
176
     1
290
     1
176
     1
290
     1
176
     1
290
     0
176
     1
290
     0
176
     1
290
     0
176
     1
290
     0
176
     1
290
     0
176
     1
290
     0
176
     1
 90
       50
176
     1
 40
0.0
176
     1
 40
1.0
176
     1
 90
        0
176
     1
 62
    18
420
        0
176
     1
 90
       50
176
     1
 90
        3
176
     1
 62
     5
420
      255
176
     1
290
     0
176
     1
 90
       50
176
     1
 90
       50
176
     1
 90
       50
176
     1
290
     0
176
     1
 90
       50
176
     1
 62
   256
176
     0
 40
1.0
176
     0
 90
        2
176
     1
  1
strokes_ogs.tif
176
     1
290
     0
176
     1
 40
1.0
176
     1
 40
1.0
176
     1
  0
VISUALSTYLE
  5
41
102
{ACAD_REACTORS
330
29
102
}
330
29
100
AcDbVisualStyle
  2
EdgeColorOff
 70
    22
177
     3
291
     1
 70
    58
 90
        2
176
     0
 90
        2
176
     0
 90
        0
176
     0
 90
        0
176
     0
 40
0.6
176
     0
 40
30.0
176
     0
 62
     7
420
 16777215
176
     0
 90
        1
176
     0
 90
        4
176
     0
 62
     7
176
     0
 62
   257
176
     0
 90
        1
176
     0
 90
        1
176
     0
 40
1.0
176
     0
 90
        8
176
     2
 62
     7
176
     0
 40
1.0
176
     0
 90
        1
176
     0
 90
        6
176
     0
 90
        2
176
     0
 62
     7
176
     0
 90
        5
176
     0
 90
        0
176
     0
 90
        0
176
     0
290
     0
176
     0
 90
        1
176
     0
 40
0.0
176
     0
 90
        0
176
     0
290
     0
176
     0
290
     1
176
     0
290
     1
176
     0
290
     0
176
     0
290
     0
176
     0
290
     0
176
     0
290
     0
176
     0
290
     0
176
     0
290
     0
176
     0
 90
       50
176
     0
 40
0.0
176
     0
 40
1.0
176
     0
 90
        0
176
     0
 62
    18
420
        0
176
     0
 90
       50
176
     0
 90
        3
176
     0
 62
     5
420
      255
176
     0
290
     0
176
     0
 90
       50
176
     0
 90
       50
176
     0
 90
       50
176
     0
290
     0
176
     0
 90
       50
176
     0
 62
   256
176
     0
 40
1.0
176
     0
 90
        2
176
     0
  1
strokes_ogs.tif
176
     0
290
     0
176
     0
 40
1.0
176
     0
 40
1.0
176
     0
  0
VISUALSTYLE
  5
38
102
{ACAD_REACTORS
330
29
102
}
330
29
100
AcDbVisualStyle
  2
Facepattern
 70
    15
177
     3
291
     1
 70
    58
 90
        2
176
     1
 90
        2
176
     1
 90
        0
176
     1
 90
        0
176
     1
 40
0.6
176
     1
 40
30.0
176
     1
 62
     7
420
 16777215
176
     1
 90
        1
176
     1
 90
        4
176
     1
 62
     7
176
     1
 62
   257
176
     1
 90
        1
176
     1
 90
        1
176
     1
 40
1.0
176
     1
 90
        8
176
     1
 62
     7
176
     1
 40
1.0
176
     1
 90
        1
176
     1
 90
        6
176
     1
 90
        2
176
     1
 62
     7
176
     1
 90
        5
176
     1
 90
        0
176
     1
 90
        0
176
     1
290
     0
176
     1
 90
        1
176
     1
 40
0.0
176
     1
 90
        0
176
     1
290
     0
176
     1
290
     1
176
     1
290
     1
176
     1
290
     0
176
     1
290
     0
176
     1
290
     0
176
     1
290
     0
176
     1
290
     0
176
     1
290
     0
176
     1
 90
       50
176
     1
 40
0.0
176
     1
 40
1.0
176
     1
 90
        0
176
     1
 62
    18
420
        0
176
     1
 90
       50
176
     1
 90
        3
176
     1
 62
     5
420
      255
176
     1
290
     0
176
     1
 90
       50
176
     1
 90
       50
176
     1
 90
       50
176
     1
290
     0
176
     1
 90
       50
176
     1
 62
   256
176
     0
 40
1.0
176
     0
 90
        2
176
     1
  1
strokes_ogs.tif
176
     1
290
     0
176
     1
 40
1.0
176
     1
 40
1.0
176
     1
  0
VISUALSTYLE
  5
2A
102
{ACAD_REACTORS
330
29
102
}
330
29
100
AcDbVisualStyle
  2
Flat
 70
     0
177
     3
291
     1
 70
    58
 90
        2
176
     1
 90
        1
176
     1
 90
        1
176
     1
 90
        2
176
     1
 40
0.6
176
     1
 40
30.0
176
     1
 62
     7
420
 16777215
176
     1
 90
        0
176
     1
 90
        0
176
     1
 62
     7
176
     1
 62
   257
176
     1
 90
        1
176
     1
 90
        1
176
     1
 40
1.0
176
     1
 90
        8
176
     1
 62
     7
176
     1
 40
1.0
176
     1
 90
        1
176
     1
 90
        6
176
     1
 90
        2
176
     1
 62
     7
176
     1
 90
        5
176
     1
 90
        0
176
     1
 90
        0
176
     1
290
     0
176
     1
 90
       13
176
     1
 40
0.0
176
     1
 90
        0
176
     1
290
     0
176
     1
290
     1
176
     1
290
     1
176
     1
290
     0
176
     1
290
     0
176
     1
290
     0
176
     1
290
     0
176
     1
290
     0
176
     1
290
     0
176
     1
 90
       50
176
     1
 40
0.0
176
     1
 40
1.0
176
     1
 90
        0
176
     1
 62
    18
420
        0
176
     1
 90
       50
176
     1
 90
        3
176
     1
 62
     5
420
      255
176
     1
290
     0
176
     1
 90
       50
176
     1
 90
       50
176
     1
 90
       50
176
     1
290
     0
176
     1
 90
       50
176
     1
 62
   256
176
     0
 40
1.0
176
     0
 90
        2
176
     1
  1
strokes_ogs.tif
176
     1
290
     0
176
     1
 40
1.0
176
     1
 40
1.0
176
     1
  0
VISUALSTYLE
  5
2B
102
{ACAD_REACTORS
330
29
102
}
330
29
100
AcDbVisualStyle
  2
FlatWithEdges
 70
     1
177
     3
291
     1
 70
    58
 90
        2
176
     1
 90
        1
176
     1
 90
        1
176
     1
 90
        2
176
     1
 40
0.6
176
     1
 40
30.0
176
     1
 62
     7
420
 16777215
176
     1
 90
        1
176
     1
 90
        0
176
     1
 62
     7
176
     1
 62
   257
176
     1
 90
        1
176
     1
 90
        1
176
     1
 40
1.0
176
     1
 90
        0
176
     1
 62
   257
176
     1
 40
1.0
176
     1
 90
        1
176
     1
 90
        6
176
     1
 90
        2
176
     1
 62
     7
176
     1
 90
        5
176
     1
 90
        0
176
     1
 90
        0
176
     1
290
     0
176
     1
 90
       13
176
     1
 40
0.0
176
     1
 90
        0
176
     1
290
     0
176
     1
290
     1
176
     1
290
     1
176
     1
290
     0
176
     1
290
     0
176
     1
290
     0
176
     1
290
     0
176
     1
290
     0
176
     1
290
     0
176
     1
 90
       50
176
     1
 40
0.0
176
     1
 40
1.0
176
     1
 90
        0
176
     1
 62
    18
420
        0
176
     1
 90
       50
176
     1
 90
        3
176
     1
 62
     5
420
      255
176
     1
290
     0
176
     1
 90
       50
176
     1
 90
       50
176
     1
 90
       50
176
     1
290
     0
176
     1
 90
       50
176
     1
 62
   256
176
     0
 40
1.0
176
     0
 90
        2
176
     1
  1
strokes_ogs.tif
176
     1
290
     0
176
     1
 40
1.0
176
     1
 40
1.0
176
     1
  0
VISUALSTYLE
  5
2C
102
{ACAD_REACTORS
330
29
102
}
330
29
100
AcDbVisualStyle
  2
Gouraud
 70
     2
177
     3
291
     1
 70
    58
 90
        2
176
     1
 90
        2
176
     1
 90
        1
176
     1
 90
        2
176
     1
 40
0.6
176
     1
 40
30.0
176
     1
 62
     7
420
 16777215
176
     1
 90
        0
176
     1
 90
        0
176
     1
 62
     7
176
     1
 62
   257
176
     1
 90
        1
176
     1
 90
        1
176
     1
 40
1.0
176
     1
 90
        0
176
     1
 62
     7
176
     1
 40
1.0
176
     1
 90
        1
176
     1
 90
        6
176
     1
 90
        2
176
     1
 62
     7
176
     1
 90
        5
176
     1
 90
        0
176
     1
 90
        0
176
     1
290
     0
176
     1
 90
       13
176
     1
 40
0.0
176
     1
 90
        0
176
     1
290
     0
176
     1
290
     1
176
     1
290
     1
176
     1
290
     0
176
     1
290
     0
176
     1
290
     0
176
     1
290
     0
176
     1
290
     0
176
     1
290
     0
176
     1
 90
       50
176
     1
 40
0.0
176
     1
 40
1.0
176
     1
 90
        0
176
     1
 62
    18
420
        0
176
     1
 90
       50
176
     1
 90
        3
176
     1
 62
     5
420
      255
176
     1
290
     0
176
     1
 90
       50
176
     1
 90
       50
176
     1
 90
       50
176
     1
290
     0
176
     1
 90
       50
176
     1
 62
   256
176
     0
 40
1.0
176
     0
 90
        2
176
     1
  1
strokes_ogs.tif
176
     1
290
     0
176
     1
 40
1.0
176
     1
 40
1.0
176
     1
  0
VISUALSTYLE
  5
2D
102
{ACAD_REACTORS
330
29
102
}
330
29
100
AcDbVisualStyle
  2
GouraudWithEdges
 70
     3
177
     3
291
     1
 70
    58
 90
        2
176
     1
 90
        2
176
     1
 90
        1
176
     1
 90
        2
176
     1
 40
0.6
176
     1
 40
30.0
176
     1
 62
     7
420
 16777215
176
     1
 90
        1
176
     1
 90
        0
176
     1
 62
     7
176
     1
 62
   257
176
     1
 90
        1
176
     1
 90
        1
176
     1
 40
1.0
176
     1
 90
        0
176
     1
 62
   257
176
     1
 40
1.0
176
     1
 90
        1
176
     1
 90
        6
176
     1
 90
        2
176
     1
 62
     7
176
     1
 90
        5
176
     1
 90
        0
176
     1
 90
        0
176
     1
290
     0
176
     1
 90
       13
176
     1
 40
0.0
176
     1
 90
        0
176
     1
290
     0
176
     1
290
     1
176
     1
290
     1
176
     1
290
     0
176
     1
290
     0
176
     1
290
     0
176
     1
290
     0
176
     1
290
     0
176
     1
290
     0
176
     1
 90
       50
176
     1
 40
0.0
176
     1
 40
1.0
176
     1
 90
        0
176
     1
 62
    18
420
        0
176
     1
 90
       50
176
     1
 90
        3
176
     1
 62
     5
420
      255
176
     1
290
     0
176
     1
 90
       50
176
     1
 90
       50
176
     1
 90
       50
176
     1
290
     0
176
     1
 90
       50
176
     1
 62
   256
176
     0
 40
1.0
176
     0
 90
        2
176
     1
  1
strokes_ogs.tif
176
     1
290
     0
176
     1
 40
1.0
176
     1
 40
1.0
176
     1
  0
VISUALSTYLE
  5
31
102
{ACAD_REACTORS
330
29
102
}
330
29
100
AcDbVisualStyle
  2
Hidden
 70
     6
177
     3
291
     0
 70
    58
 90
        1
176
     1
 90
        2
176
     1
 90
        2
176
     1
 90
        0
176
     1
 40
0.6
176
     1
 40
30.0
176
     1
 62
     7
420
 16777215
176
     1
 90
        2
176
     1
 90
        2
176
     1
 62
     7
176
     1
 62
   257
176
     1
 90
        2
176
     1
 90
        1
176
     1
 40
40.0
176
     1
 90
        0
176
     1
 62
   257
176
     1
 40
1.0
176
     1
 90
        1
176
     1
 90
        6
176
     1
 90
        2
176
     1
 62
     7
176
     1
 90
        3
176
     1
 90
        0
176
     1
 90
        0
176
     1
290
     0
176
     1
 90
        1
176
     1
 40
0.0
176
     1
 90
        0
176
     1
290
     0
176
     1
290
     1
176
     1
290
     1
176
     1
290
     0
176
     1
290
     0
176
     1
290
     0
176
     1
290
     0
176
     1
290
     0
176
     1
290
     0
176
     1
 90
       50
176
     1
 40
0.0
176
     1
 40
1.0
176
     1
 90
        0
176
     1
 62
    18
420
        0
176
     1
 90
       50
176
     1
 90
        3
176
     1
 62
     5
420
      255
176
     1
290
     0
176
     1
 90
       50
176
     1
 90
       50
176
     1
 90
       50
176
     1
290
     0
176
     1
 90
       50
176
     1
 62
   256
176
     0
 40
1.0
176
     0
 90
        2
176
     1
  1
strokes_ogs.tif
176
     1
290
     0
176
     1
 40
1.0
176
     1
 40
1.0
176
     1
  0
VISUALSTYLE
  5
3F
102
{ACAD_REACTORS
330
29
102
}
330
29
100
AcDbVisualStyle
  2
JitterOff
 70
    20
177
     3
291
     1
 70
    58
 90
        2
176
     0
 90
        2
176
     0
 90
        0
176
     0
 90
        0
176
     0
 40
0.6
176
     0
 40
30.0
176
     0
 62
     7
420
 16777215
176
     0
 90
        1
176
     0
 90
        4
176
     0
 62
     7
176
     0
 62
   257
176
     0
 90
        1
176
     0
 90
        1
176
     0
 40
1.0
176
     0
 90
       10
176
     2
 62
     7
176
     0
 40
1.0
176
     0
 90
        1
176
     0
 90
        6
176
     0
 90
        2
176
     0
 62
     7
176
     0
 90
        5
176
     0
 90
        0
176
     0
 90
        0
176
     0
290
     0
176
     0
 90
        1
176
     0
 40
0.0
176
     0
 90
        0
176
     0
290
     0
176
     0
290
     1
176
     0
290
     1
176
     0
290
     0
176
     0
290
     0
176
     0
290
     0
176
     0
290
     0
176
     0
290
     0
176
     0
290
     0
176
     0
 90
       50
176
     0
 40
0.0
176
     0
 40
1.0
176
     0
 90
        0
176
     0
 62
    18
420
        0
176
     0
 90
       50
176
     0
 90
        3
176
     0
 62
     5
420
      255
176
     0
290
     0
176
     0
 90
       50
176
     0
 90
       50
176
     0
 90
       50
176
     0
290
     0
176
     0
 90
       50
176
     0
 62
   256
176
     0
 40
1.0
176
     0
 90
        2
176
     0
  1
strokes_ogs.tif
176
     0
290
     0
176
     0
 40
1.0
176
     0
 40
1.0
176
     0
  0
VISUALSTYLE
  5
37
102
{ACAD_REACTORS
330
29
102
}
330
29
100
AcDbVisualStyle
  2
Linepattern
 70
    14
177
     3
291
     1
 70
    58
 90
        2
176
     1
 90
        2
176
     1
 90
        0
176
     1
 90
        0
176
     1
 40
0.6
176
     1
 40
30.0
176
     1
 62
     7
420
 16777215
176
     1
 90
        1
176
     1
 90
        4
176
     1
 62
     7
176
     1
 62
   257
176
     1
 90
        7
176
     1
 90
        7
176
     1
 40
1.0
176
     1
 90
        8
176
     1
 62
     7
176
     1
 40
1.0
176
     1
 90
        1
176
     1
 90
        6
176
     1
 90
        2
176
     1
 62
     7
176
     1
 90
        5
176
     1
 90
        0
176
     1
 90
        0
176
     1
290
     0
176
     1
 90
        1
176
     1
 40
0.0
176
     1
 90
        0
176
     1
290
     0
176
     1
290
     1
176
     1
290
     1
176
     1
290
     0
176
     1
290
     0
176
     1
290
     0
176
     1
290
     0
176
     1
290
     0
176
     1
290
     0
176
     1
 90
       50
176
     1
 40
0.0
176
     1
 40
1.0
176
     1
 90
        0
176
     1
 62
    18
420
        0
176
     1
 90
       50
176
     1
 90
        3
176
     1
 62
     5
420
      255
176
     1
290
     0
176
     1
 90
       50
176
     1
 90
       50
176
     1
 90
       50
176
     1
290
     0
176
     1
 90
       50
176
     1
 62
   256
176
     0
 40
1.0
176
     0
 90
        2
176
     1
  1
strokes_ogs.tif
176
     1
290
     0
176
     1
 40
1.0
176
     1
 40
1.0
176
     1
  0
VISUALSTYLE
  5
40
102
{ACAD_REACTORS
330
29
102
}
330
29
100
AcDbVisualStyle
  2
OverhangOff
 70
    21
177
     3
291
     1
 70
    58
 90
        2
176
     0
 90
        2
176
     0
 90
        0
176
     0
 90
        0
176
     0
 40
0.6
176
     0
 40
30.0
176
     0
 62
     7
420
 16777215
176
     0
 90
        1
176
     0
 90
        4
176
     0
 62
     7
176
     0
 62
   257
176
     0
 90
        1
176
     0
 90
        1
176
     0
 40
1.0
176
     0
 90
        9
176
     2
 62
     7
176
     0
 40
1.0
176
     0
 90
        1
176
     0
 90
        6
176
     0
 90
        2
176
     0
 62
     7
176
     0
 90
        5
176
     0
 90
        0
176
     0
 90
        0
176
     0
290
     0
176
     0
 90
        1
176
     0
 40
0.0
176
     0
 90
        0
176
     0
290
     0
176
     0
290
     1
176
     0
290
     1
176
     0
290
     0
176
     0
290
     0
176
     0
290
     0
176
     0
290
     0
176
     0
290
     0
176
     0
290
     0
176
     0
 90
       50
176
     0
 40
0.0
176
     0
 40
1.0
176
     0
 90
        0
176
     0
 62
    18
420
        0
176
     0
 90
       50
176
     0
 90
        3
176
     0
 62
     5
420
      255
176
     0
290
     0
176
     0
 90
       50
176
     0
 90
       50
176
     0
 90
       50
176
     0
290
     0
176
     0
 90
       50
176
     0
 62
   256
176
     0
 40
1.0
176
     0
 90
        2
176
     0
  1
strokes_ogs.tif
176
     0
290
     0
176
     0
 40
1.0
176
     0
 40
1.0
176
     0
  0
VISUALSTYLE
  5
33
102
{ACAD_REACTORS
330
29
102
}
330
29
100
AcDbVisualStyle
  2
Realistic
 70
     8
177
     3
291
     0
 70
    58
 90
        2
176
     1
 90
        3
176
     1
 90
        0
176
     1
 90
        2
176
     1
 40
0.6
176
     1
 40
30.0
176
     1
 62
     7
420
 16777215
176
     1
 90
        0
176
     1
 90
        0
176
     1
 62
     7
176
     1
 62
   257
176
     1
 90
        1
176
     1
 90
        1
176
     1
 40
1.0
176
     1
 90
        8
176
     1
 62
   257
176
     1
 40
1.0
176
     1
 90
        1
176
     1
 90
        6
176
     1
 90
        2
176
     1
 62
     7
176
     1
 90
        3
176
     1
 90
        0
176
     1
 90
        0
176
     1
290
     0
176
     1
 90
       13
176
     1
 40
0.0
176
     1
 90
        0
176
     1
290
     0
176
     1
290
     1
176
     1
290
     1
176
     1
290
     0
176
     1
290
     0
176
     1
290
     0
176
     1
290
     0
176
     1
290
     0
176
     1
290
     0
176
     1
 90
       50
176
     1
 40
0.0
176
     1
 40
1.0
176
     1
 90
        0
176
     1
 62
    18
420
        0
176
     1
 90
       50
176
     1
 90
        3
176
     1
 62
     5
420
      255
176
     1
290
     0
176
     1
 90
       50
176
     1
 90
       50
176
     1
 90
       50
176
     1
290
     0
176
     1
 90
       50
176
     1
 62
   256
176
     0
 40
1.0
176
     0
 90
        2
176
     1
  1
strokes_ogs.tif
176
     1
290
     0
176
     1
 40
1.0
176
     1
 40
1.0
176
     1
  0
VISUALSTYLE
  5
3E
102
{ACAD_REACTORS
330
29
102
}
330
29
100
AcDbVisualStyle
  2
Shaded
 70
    27
177
     3
291
     0
 70
    58
 90
        2
176
     1
 90
        2
176
     1
 90
        1
176
     1
 90
        2
176
     1
 40
0.6
176
     1
 40
30.0
176
     1
 62
     7
420
 16777215
176
     1
 90
        0
176
     1
 90
        4
176
     1
 62
     7
176
     1
 62
   257
176
     1
 90
        1
176
     1
 90
        1
176
     1
 40
1.0
176
     1
 90
        8
176
     1
 62
   257
176
     1
 40
1.0
176
     1
 90
        1
176
     1
 90
        6
176
     1
 90
        2
176
     1
 62
     8
420
  7895160
176
     1
 90
        3
176
     1
 90
        0
176
     1
 90
        0
176
     1
290
     0
176
     1
 90
        5
176
     1
 40
0.0
176
     1
 90
        0
176
     1
290
     0
176
     1
290
     1
176
     1
290
     1
176
     1
290
     0
176
     1
290
     0
176
     1
290
     0
176
     1
290
     0
176
     1
290
     0
176
     1
290
     0
176
     1
 90
       50
176
     1
 40
0.0
176
     1
 40
1.0
176
     1
 90
        0
176
     1
 62
    18
420
        0
176
     1
 90
       50
176
     1
 90
        3
176
     1
 62
     5
420
      255
176
     1
290
     0
176
     1
 90
       50
176
     1
 90
       50
176
     1
 90
       50
176
     1
290
     0
176
     1
 90
       50
176
     1
 62
   256
176
     0
 40
1.0
176
     0
 90
        2
176
     1
  1
strokes_ogs.tif
176
     1
290
     0
176
     1
 40
1.0
176
     1
 40
1.0
176
     1
  0
VISUALSTYLE
  5
3D
102
{ACAD_REACTORS
330
29
102
}
330
29
100
AcDbVisualStyle
  2
Shaded with edges
 70
    26
177
     3
291
     0
 70
    58
 90
        2
176
     1
 90
        2
176
     1
 90
        1
176
     1
 90
        2
176
     1
 40
0.6
176
     1
 40
30.0
176
     1
 62
     7
420
 16777215
176
     1
 90
        1
176
     1
 90
        2
176
     1
 62
     7
176
     1
 62
   257
176
     1
 90
        2
176
     1
 90
        1
176
     1
 40
1.0
176
     1
 90
        8
176
     1
 62
   257
176
     1
 40
1.0
176
     1
 90
        1
176
     1
 90
        6
176
     1
 90
        2
176
     1
 62
     7
176
     1
 90
        3
176
     1
 90
        0
176
     1
 90
        0
176
     1
290
     0
176
     1
 90
        5
176
     1
 40
0.0
176
     1
 90
        0
176
     1
290
     0
176
     1
290
     1
176
     1
290
     1
176
     1
290
     0
176
     1
290
     0
176
     1
290
     0
176
     1
290
     0
176
     1
290
     0
176
     1
290
     0
176
     1
 90
       50
176
     1
 40
0.0
176
     1
 40
1.0
176
     1
 90
        0
176
     1
 62
    18
420
        0
176
     1
 90
       50
176
     1
 90
        3
176
     1
 62
     5
420
      255
176
     1
290
     0
176
     1
 90
       50
176
     1
 90
       50
176
     1
 90
       50
176
     1
290
     0
176
     1
 90
       50
176
     1
 62
   256
176
     0
 40
1.0
176
     0
 90
        2
176
     1
  1
strokes_ogs.tif
176
     1
290
     0
176
     1
 40
1.0
176
     1
 40
1.0
176
     1
  0
VISUALSTYLE
  5
3A
102
{ACAD_REACTORS
330
29
102
}
330
29
100
AcDbVisualStyle
  2
Shades of Gray
 70
    23
177
     3
291
     0
 70
    58
 90
        2
176
     1
 90
        2
176
     1
 90
        3
176
     1
 90
        0
176
     1
 40
0.6
176
     1
 40
30.0
176
     1
 62
     7
420
 16777215
176
     1
 90
        2
176
     1
 90
        2
176
     1
 62
     7
176
     1
 62
     7
176
     1
 90
        1
176
     1
 90
        1
176
     1
 40
40.0
176
     1
 90
        8
176
     1
 62
     7
176
     1
 40
1.0
176
     1
 90
        1
176
     1
 90
        6
176
     1
 90
        2
176
     1
 62
     7
176
     1
 90
        3
176
     1
 90
        0
176
     1
 90
        0
176
     1
290
     0
176
     1
 90
        1
176
     1
 40
0.0
176
     1
 90
        0
176
     1
290
     0
176
     1
290
     1
176
     1
290
     1
176
     1
290
     0
176
     1
290
     0
176
     1
290
     0
176
     1
290
     0
176
     1
290
     0
176
     1
290
     0
176
     1
 90
       50
176
     1
 40
0.0
176
     1
 40
1.0
176
     1
 90
        0
176
     1
 62
    18
420
        0
176
     1
 90
       50
176
     1
 90
        3
176
     1
 62
     5
420
      255
176
     1
290
     0
176
     1
 90
       50
176
     1
 90
       50
176
     1
 90
       50
176
     1
290
     0
176
     1
 90
       50
176
     1
 62
   256
176
     0
 40
1.0
176
     0
 90
        2
176
     1
  1
strokes_ogs.tif
176
     1
290
     0
176
     1
 40
1.0
176
     1
 40
1.0
176
     1
  0
VISUALSTYLE
  5
3B
102
{ACAD_REACTORS
330
29
102
}
330
29
100
AcDbVisualStyle
  2
Sketchy
 70
    24
177
     3
291
     0
 70
    58
 90
        1
176
     1
 90
        2
176
     1
 90
        2
176
     1
 90
        0
176
     1
 40
0.6
176
     1
 40
30.0
176
     1
 62
     7
420
 16777215
176
     1
 90
        2
176
     1
 90
        2
176
     1
 62
     7
176
     1
 62
     7
176
     1
 90
        1
176
     1
 90
        1
176
     1
 40
40.0
176
     1
 90
       11
176
     1
 62
     7
176
     1
 40
1.0
176
     1
 90
        1
176
     1
 90
        6
176
     1
 90
        2
176
     1
 62
     7
176
     1
 90
        6
176
     1
 90
        0
176
     1
 90
        0
176
     1
290
     0
176
     1
 90
        1
176
     1
 40
0.0
176
     1
 90
        0
176
     1
290
     0
176
     1
290
     1
176
     1
290
     1
176
     1
290
     0
176
     1
290
     0
176
     1
290
     0
176
     1
290
     0
176
     1
290
     0
176
     1
290
     0
176
     1
 90
       50
176
     1
 40
0.0
176
     1
 40
1.0
176
     1
 90
        0
176
     1
 62
    18
420
        0
176
     1
 90
       50
176
     1
 90
        3
176
     1
 62
     5
420
      255
176
     1
290
     0
176
     1
 90
       50
176
     1
 90
       50
176
     1
 90
       50
176
     1
290
     0
176
     1
 90
       50
176
     1
 62
   256
176
     0
 40
1.0
176
     0
 90
        2
176
     1
  1
strokes_ogs.tif
176
     1
290
     0
176
     1
 40
1.0
176
     1
 40
1.0
176
     1
  0
VISUALSTYLE
  5
36
102
{ACAD_REACTORS
330
29
102
}
330
29
100
AcDbVisualStyle
  2
Thicken
 70
    13
177
     3
291
     1
 70
    58
 90
        2
176
     1
 90
        2
176
     1
 90
        0
176
     1
 90
        0
176
     1
 40
0.6
176
     1
 40
30.0
176
     1
 62
     7
420
 16777215
176
     1
 90
        1
176
     1
 90
        4
176
     1
 62
     7
176
     1
 62
   257
176
     1
 90
        1
176
     1
 90
        1
176
     1
 40
1.0
176
     1
 90
       12
176
     1
 62
     7
176
     1
 40
1.0
176
     1
 90
        1
176
     1
 90
        6
176
     1
 90
        2
176
     1
 62
     7
176
     1
 90
        5
176
     1
 90
        0
176
     1
 90
        0
176
     1
290
     0
176
     1
 90
        1
176
     1
 40
0.0
176
     1
 90
        0
176
     1
290
     0
176
     1
290
     1
176
     1
290
     1
176
     1
290
     0
176
     1
290
     0
176
     1
290
     0
176
     1
290
     0
176
     1
290
     0
176
     1
290
     0
176
     1
 90
       50
176
     1
 40
0.0
176
     1
 40
1.0
176
     1
 90
        0
176
     1
 62
    18
420
        0
176
     1
 90
       50
176
     1
 90
        3
176
     1
 62
     5
420
      255
176
     1
290
     0
176
     1
 90
       50
176
     1
 90
       50
176
     1
 90
       50
176
     1
290
     0
176
     1
 90
       50
176
     1
 62
   256
176
     0
 40
1.0
176
     0
 90
        2
176
     1
  1
strokes_ogs.tif
176
     1
290
     0
176
     1
 40
1.0
176
     1
 40
1.0
176
     1
  0
VISUALSTYLE
  5
30
102
{ACAD_REACTORS
330
29
102
}
330
29
100
AcDbVisualStyle
  2
Wireframe
 70
     5
177
     3
291
     0
 70
    58
 90
        0
176
     1
 90
        2
176
     1
 90
        0
176
     1
 90
        0
176
     1
 40
0.6
176
     1
 40
30.0
176
     1
 62
     7
420
 16777215
176
     1
 90
        1
176
     1
 90
        4
176
     1
 62
     7
176
     1
 62
   257
176
     1
 90
        1
176
     1
 90
        1
176
     1
 40
1.0
176
     1
 90
        0
176
     1
 62
   257
176
     1
 40
1.0
176
     1
 90
        1
176
     1
 90
        6
176
     1
 90
        2
176
     1
 62
     7
176
     1
 90
        3
176
     1
 90
        0
176
     1
 90
        0
176
     1
290
     0
176
     1
 90
        1
176
     1
 40
0.0
176
     1
 90
        0
176
     1
290
     0
176
     1
290
     1
176
     1
290
     1
176
     1
290
     0
176
     1
290
     0
176
     1
290
     0
176
     1
290
     0
176
     1
290
     0
176
     1
290
     0
176
     1
 90
       50
176
     1
 40
0.0
176
     1
 40
1.0
176
     1
 90
        0
176
     1
 62
    18
420
        0
176
     1
 90
       50
176
     1
 90
        3
176
     1
 62
     5
420
      255
176
     1
290
     0
176
     1
 90
       50
176
     1
 90
       50
176
     1
 90
       50
176
     1
290
     0
176
     1
 90
       50
176
     1
 62
   256
176
     0
 40
1.0
176
     0
 90
        2
176
     1
  1
strokes_ogs.tif
176
     1
290
     0
176
     1
 40
1.0
176
     1
 40
1.0
176
     1
  0
VISUALSTYLE
  5
3C
102
{ACAD_REACTORS
330
29
102
}
330
29
100
AcDbVisualStyle
  2
X-Ray
 70
    25
177
     3
291
     0
 70
    58
 90
        2
176
     1
 90
        2
176
     1
 90
        1
176
     1
 90
        1
176
     1
 40
0.5
176
     1
 40
30.0
176
     1
 62
     7
420
 16777215
176
     1
 90
        1
176
     1
 90
        0
176
     1
 62
     7
176
     1
 62
   257
176
     1
 90
        1
176
     1
 90
        1
176
     1
 40
1.0
176
     1
 90
        8
176
     1
 62
     7
176
     1
 40
1.0
176
     1
 90
        1
176
     1
 90
        6
176
     1
 90
        2
176
     1
 62
     7
176
     1
 90
        3
176
     1
 90
        0
176
     1
 90
        0
176
     1
290
     0
176
     1
 90
       13
176
     1
 40
0.0
176
     1
 90
        0
176
     1
290
     0
176
     1
290
     1
176
     1
290
     1
176
     1
290
     0
176
     1
290
     0
176
     1
290
     0
176
     1
290
     0
176
     1
290
     0
176
     1
290
     0
176
     1
 90
       50
176
     1
 40
0.0
176
     1
 40
1.0
176
     1
 90
        0
176
     1
 62
    18
420
        0
176
     1
 90
       50
176
     1
 90
        3
176
     1
 62
     5
420
      255
176
     1
290
     0
176
     1
 90
       50
176
     1
 90
       50
176
     1
 90
       50
176
     1
290
     0
176
     1
 90
       50
176
     1
 62
   256
176
     0
 40
1.0
176
     0
 90
        2
176
     1
  1
strokes_ogs.tif
176
     1
290
     0
176
     1
 40
1.0
176
     1
 40
1.0
176
     1
  0
DICTIONARYVAR
  5
260
102
{ACAD_REACTORS
330
25B
102
}
330
25B
100
DictionaryVariables
280
     0
  1
0
  0
DICTIONARYVAR
  5
261
102
{ACAD_REACTORS
330
25B
102
}
330
25B
100
DictionaryVariables
280
     0
  1
1:1
  0
DICTIONARYVAR
  5
25D
102
{ACAD_REACTORS
330
25B
102
}
330
25B
100
DictionaryVariables
280
     0
  1
STANDARD
  0
DICTIONARYVAR
  5
25C
102
{ACAD_REACTORS
330
25B
102
}
330
25B
100
DictionaryVariables
280
     0
  1
STANDARD
  0
DICTIONARYVAR
  5
25E
102
{ACAD_REACTORS
330
25B
102
}
330
25B
100
DictionaryVariables
280
     0
  1
Imperial24
  0
DICTIONARYVAR
  5
25F
102
{ACAD_REACTORS
330
25B
102
}
330
25B
100
DictionaryVariables
280
     0
  1
Imperial24
  0
DICTIONARY
  5
1A
330
19
100
AcDbDictionary
280
     1
281
     1
  3
BUMPTILE
360
1C
  3
DIFFUSETILE
360
1B
  3
OPACITYTILE
360
1F
  3
REFLECTIONTILE
360
1E
  3
REFRACTIONTILE
360
20
  3
SPECULARTILE
360
1D
  0
DICTIONARY
  5
12
330
11
100
AcDbDictionary
280
     1
281
     1
  3
BUMPTILE
360
14
  3
DIFFUSETILE
360
13
  3
OPACITYTILE
360
17
  3
REFLECTIONTILE
360
16
  3
REFRACTIONTILE
360
18
  3
SPECULARTILE
360
15
  0
DICTIONARY
  5
22
330
21
100
AcDbDictionary
280
     1
281
     1
  3
BUMPTILE
360
24
  3
DIFFUSETILE
360
23
  3
OPACITYTILE
360
27
  3
REFLECTIONTILE
360
26
  3
REFRACTIONTILE
360
28
  3
SPECULARTILE
360
25
  0
DICTIONARY
  5
26D
330
65
100
AcDbDictionary
280
     1
281
     1
  3
ACAD_ROUNDTRIP_2008_TABLESTYLE_CELLSTYLEMAP
360
26E
  0
XRECORD
  5
1C
102
{ACAD_REACTORS
330
1A
102
}
330
1A
100
AcDbXrecord
280
     1
270
     1
271
     1
  0
XRECORD
  5
1B
102
{ACAD_REACTORS
330
1A
102
}
330
1A
100
AcDbXrecord
280
     1
270
     1
271
     1
  0
XRECORD
  5
1F
102
{ACAD_REACTORS
330
1A
102
}
330
1A
100
AcDbXrecord
280
     1
270
     1
271
     1
  0
XRECORD
  5
1E
102
{ACAD_REACTORS
330
1A
102
}
330
1A
100
AcDbXrecord
280
     1
270
     1
271
     1
  0
XRECORD
  5
20
102
{ACAD_REACTORS
330
1A
102
}
330
1A
100
AcDbXrecord
280
     1
270
     1
271
     1
  0
XRECORD
  5
1D
102
{ACAD_REACTORS
330
1A
102
}
330
1A
100
AcDbXrecord
280
     1
270
     1
271
     1
  0
XRECORD
  5
14
102
{ACAD_REACTORS
330
12
102
}
330
12
100
AcDbXrecord
280
     1
270
     1
271
     1
  0
XRECORD
  5
13
102
{ACAD_REACTORS
330
12
102
}
330
12
100
AcDbXrecord
280
     1
270
     1
271
     1
  0
XRECORD
  5
17
102
{ACAD_REACTORS
330
12
102
}
330
12
100
AcDbXrecord
280
     1
270
     1
271
     1
  0
XRECORD
  5
16
102
{ACAD_REACTORS
330
12
102
}
330
12
100
AcDbXrecord
280
     1
270
     1
271
     1
  0
XRECORD
  5
18
102
{ACAD_REACTORS
330
12
102
}
330
12
100
AcDbXrecord
280
     1
270
     1
271
     1
  0
XRECORD
  5
15
102
{ACAD_REACTORS
330
12
102
}
330
12
100
AcDbXrecord
280
     1
270
     1
271
     1
  0
XRECORD
  5
24
102
{ACAD_REACTORS
330
22
102
}
330
22
100
AcDbXrecord
280
     1
270
     1
271
     1
  0
XRECORD
  5
23
102
{ACAD_REACTORS
330
22
102
}
330
22
100
AcDbXrecord
280
     1
270
     1
271
     1
  0
XRECORD
  5
27
102
{ACAD_REACTORS
330
22
102
}
330
22
100
AcDbXrecord
280
     1
270
     1
271
     1
  0
XRECORD
  5
26
102
{ACAD_REACTORS
330
22
102
}
330
22
100
AcDbXrecord
280
     1
270
     1
271
     1
  0
XRECORD
  5
28
102
{ACAD_REACTORS
330
22
102
}
330
22
100
AcDbXrecord
280
     1
270
     1
271
     1
  0
XRECORD
  5
25
102
{ACAD_REACTORS
330
22
102
}
330
22
100
AcDbXrecord
280
     1
270
     1
271
     1
  0
CELLSTYLEMAP
  5
26E
102
{ACAD_REACTORS
330
26D
102
}
330
26D
100
AcDbCellStyleMap
 90
        3
300
CELLSTYLE
  1
TABLEFORMAT_BEGIN
 90
        5
170
     1
 91
        0
 92
    32768
 62
   257
 93
        1
300
CONTENTFORMAT
  1
CONTENTFORMAT_BEGIN
 90
        0
 91
        0
 92
      512
 93
        0
300

 40
0.0
140
1.0
 94
        5
 62
     0
340
55
144
6.0
309
CONTENTFORMAT_END
171
     1
301
MARGIN
  1
CELLMARGIN_BEGIN
 40
1.5
 40
1.5
 40
1.5
 40
1.5
 40
4.5
 40
4.5
309
CELLMARGIN_END
 94
        6
 95
        1
302
GRIDFORMAT
  1
GRIDFORMAT_BEGIN
 90
        0
 91
        1
 62
     0
 92
       -2
340
5B
 93
        0
 40
1.125
309
GRIDFORMAT_END
 95
        2
302
GRIDFORMAT
  1
GRIDFORMAT_BEGIN
 90
        0
 91
        1
 62
     0
 92
       -2
340
5B
 93
        0
 40
1.125
309
GRIDFORMAT_END
 95
        4
302
GRIDFORMAT
  1
GRIDFORMAT_BEGIN
 90
        0
 91
        1
 62
     0
 92
       -2
340
5B
 93
        0
 40
1.125
309
GRIDFORMAT_END
 95
        8
302
GRIDFORMAT
  1
GRIDFORMAT_BEGIN
 90
        0
 91
        1
 62
     0
 92
       -2
340
5B
 93
        0
 40
1.125
309
GRIDFORMAT_END
 95
       16
302
GRIDFORMAT
  1
GRIDFORMAT_BEGIN
 90
        0
 91
        1
 62
     0
 92
       -2
340
5B
 93
        0
 40
1.125
309
GRIDFORMAT_END
 95
       32
302
GRIDFORMAT
  1
GRIDFORMAT_BEGIN
 90
        0
 91
        1
 62
     0
 92
       -2
340
5B
 93
        0
 40
1.125
309
GRIDFORMAT_END
309
TABLEFORMAT_END
  1
CELLSTYLE_BEGIN
 90
        1
 91
        1
300
_TITLE
309
CELLSTYLE_END
300
CELLSTYLE
  1
TABLEFORMAT_BEGIN
 90
        5
170
     1
 91
        0
 92
        0
 62
   257
 93
        1
300
CONTENTFORMAT
  1
CONTENTFORMAT_BEGIN
 90
        0
 91
        0
 92
      512
 93
        0
300

 40
0.0
140
1.0
 94
        5
 62
     0
340
55
144
4.5
309
CONTENTFORMAT_END
171
     1
301
MARGIN
  1
CELLMARGIN_BEGIN
 40
1.5
 40
1.5
 40
1.5
 40
1.5
 40
4.5
 40
4.5
309
CELLMARGIN_END
 94
        6
 95
        1
302
GRIDFORMAT
  1
GRIDFORMAT_BEGIN
 90
        0
 91
        1
 62
     0
 92
       -2
340
5B
 93
        0
 40
1.125
309
GRIDFORMAT_END
 95
        2
302
GRIDFORMAT
  1
GRIDFORMAT_BEGIN
 90
        0
 91
        1
 62
     0
 92
       -2
340
5B
 93
        0
 40
1.125
309
GRIDFORMAT_END
 95
        4
302
GRIDFORMAT
  1
GRIDFORMAT_BEGIN
 90
        0
 91
        1
 62
     0
 92
       -2
340
5B
 93
        0
 40
1.125
309
GRIDFORMAT_END
 95
        8
302
GRIDFORMAT
  1
GRIDFORMAT_BEGIN
 90
        0
 91
        1
 62
     0
 92
       -2
340
5B
 93
        0
 40
1.125
309
GRIDFORMAT_END
 95
       16
302
GRIDFORMAT
  1
GRIDFORMAT_BEGIN
 90
        0
 91
        1
 62
     0
 92
       -2
340
5B
 93
        0
 40
1.125
309
GRIDFORMAT_END
 95
       32
302
GRIDFORMAT
  1
GRIDFORMAT_BEGIN
 90
        0
 91
        1
 62
     0
 92
       -2
340
5B
 93
        0
 40
1.125
309
GRIDFORMAT_END
309
TABLEFORMAT_END
  1
CELLSTYLE_BEGIN
 90
        2
 91
        1
300
_HEADER
309
CELLSTYLE_END
300
CELLSTYLE
  1
TABLEFORMAT_BEGIN
 90
        5
170
     1
 91
        0
 92
        0
 62
   257
 93
        1
300
CONTENTFORMAT
  1
CONTENTFORMAT_BEGIN
 90
        0
 91
        0
 92
      512
 93
        0
300

 40
0.0
140
1.0
 94
        2
 62
     0
340
55
144
4.5
309
CONTENTFORMAT_END
171
     1
301
MARGIN
  1
CELLMARGIN_BEGIN
 40
1.5
 40
1.5
 40
1.5
 40
1.5
 40
4.5
 40
4.5
309
CELLMARGIN_END
 94
        6
 95
        1
302
GRIDFORMAT
  1
GRIDFORMAT_BEGIN
 90
        0
 91
        1
 62
     0
 92
       -2
340
5B
 93
        0
 40
1.125
309
GRIDFORMAT_END
 95
        2
302
GRIDFORMAT
  1
GRIDFORMAT_BEGIN
 90
        0
 91
        1
 62
     0
 92
       -2
340
5B
 93
        0
 40
1.125
309
GRIDFORMAT_END
 95
        4
302
GRIDFORMAT
  1
GRIDFORMAT_BEGIN
 90
        0
 91
        1
 62
     0
 92
       -2
340
5B
 93
        0
 40
1.125
309
GRIDFORMAT_END
 95
        8
302
GRIDFORMAT
  1
GRIDFORMAT_BEGIN
 90
        0
 91
        1
 62
     0
 92
       -2
340
5B
 93
        0
 40
1.125
309
GRIDFORMAT_END
 95
       16
302
GRIDFORMAT
  1
GRIDFORMAT_BEGIN
 90
        0
 91
        1
 62
     0
 92
       -2
340
5B
 93
        0
 40
1.125
309
GRIDFORMAT_END
 95
       32
302
GRIDFORMAT
  1
GRIDFORMAT_BEGIN
 90
        0
 91
        1
 62
     0
 92
       -2
340
5B
 93
        0
 40
1.125
309
GRIDFORMAT_END
309
TABLEFORMAT_END
  1
CELLSTYLE_BEGIN
 90
        3
 91
        2
300
_DATA
309
CELLSTYLE_END
  0
ENDSEC
  0
EOF
