  0
SECTION
  2
HEADER
  9
$ACADVER
  1
AC1032
  9
$ACADMAINTVER
 90
      250
  9
$DWGCODEPAGE
  3
ANSI_932
  9
$LASTSAVEDBY
  1
dsp199
  9
$REQUIREDVERSIONS
160
                 0
  9
$INSBASE
 10
0.0
 20
0.0
 30
0.0
  9
$EXTMIN
 10
56.59186415243198
 20
149.9830643220701
 30
0.0
  9
$EXTMAX
 10
222.6833610784567
 20
303.3710258808822
 30
0.0
  9
$LIMMIN
 10
0.0
 20
0.0
  9
$LIMMAX
 10
420.0
 20
297.0
  9
$ORTHOMODE
 70
     0
  9
$REGENMODE
 70
     1
  9
$FILLMODE
 70
     1
  9
$QTEXTMODE
 70
     0
  9
$MIRRTEXT
 70
     0
  9
$LTSCALE
 40
1.0
  9
$ATTMODE
 70
     1
  9
$TEXTSIZE
 40
2.5
  9
$TRACEWID
 40
1.0
  9
$TEXTSTYLE
  7
Standard
  9
$CLAYER
  8
0
  9
$CELTYPE
  6
ByLayer
  9
$CECOLOR
 62
   256
  9
$CELTSCALE
 40
1.0
  9
$DISPSILH
 70
     0
  9
$DIMSCALE
 40
1.0
  9
$DIMASZ
 40
2.5
  9
$DIMEXO
 40
0.625
  9
$DIMDLI
 40
3.75
  9
$DIMRND
 40
0.0
  9
$DIMDLE
 40
0.0
  9
$DIMEXE
 40
1.25
  9
$DIMTP
 40
0.0
  9
$DIMTM
 40
0.0
  9
$DIMTXT
 40
2.5
  9
$DIMCEN
 40
2.5
  9
$DIMTSZ
 40
0.0
  9
$DIMTOL
 70
     0
  9
$DIMLIM
 70
     0
  9
$DIMTIH
 70
     0
  9
$DIMTOH
 70
     0
  9
$DIMSE1
 70
     0
  9
$DIMSE2
 70
     0
  9
$DIMTAD
 70
     1
  9
$DIMZIN
 70
     8
  9
$DIMBLK
  1

  9
$DIMASO
 70
     1
  9
$DIMSHO
 70
     1
  9
$DIMPOST
  1

  9
$DIMAPOST
  1

  9
$DIMALT
 70
     0
  9
$DIMALTD
 70
     3
  9
$DIMALTF
 40
0.03937007874016
  9
$DIMLFAC
 40
1.0
  9
$DIMTOFL
 70
     1
  9
$DIMTVP
 40
0.0
  9
$DIMTIX
 70
     0
  9
$DIMSOXD
 70
     0
  9
$DIMSAH
 70
     0
  9
$DIMBLK1
  1

  9
$DIMBLK2
  1

  9
$DIMSTYLE
  2
ISO-25
  9
$DIMCLRD
 70
     0
  9
$DIMCLRE
 70
     0
  9
$DIMCLRT
 70
     0
  9
$DIMTFAC
 40
1.0
  9
$DIMGAP
 40
0.625
  9
$DIMJUST
 70
     0
  9
$DIMSD1
 70
     0
  9
$DIMSD2
 70
     0
  9
$DIMTOLJ
 70
     0
  9
$DIMTZIN
 70
     8
  9
$DIMALTZ
 70
     0
  9
$DIMALTTZ
 70
     0
  9
$DIMUPT
 70
     0
  9
$DIMDEC
 70
     2
  9
$DIMTDEC
 70
     2
  9
$DIMALTU
 70
     2
  9
$DIMALTTD
 70
     3
  9
$DIMTXSTY
  7
Standard
  9
$DIMAUNIT
 70
     0
  9
$DIMADEC
 70
     0
  9
$DIMALTRND
 40
0.0
  9
$DIMAZIN
 70
     0
  9
$DIMDSEP
 70
    44
  9
$DIMATFIT
 70
     3
  9
$DIMFRAC
 70
     0
  9
$DIMLDRBLK
  1

  9
$DIMLUNIT
 70
     2
  9
$DIMLWD
 70
    -2
  9
$DIMLWE
 70
    -2
  9
$DIMTMOVE
 70
     0
  9
$DIMFXL
 40
1.0
  9
$DIMFXLON
 70
     0
  9
$DIMJOGANG
 40
0.7853981633974483
  9
$DIMTFILL
 70
     0
  9
$DIMTFILLCLR
 70
     0
  9
$DIMARCSYM
 70
     0
  9
$DIMLTYPE
  6

  9
$DIMLTEX1
  6

  9
$DIMLTEX2
  6

  9
$DIMTXTDIRECTION
 70
     0
  9
$LUNITS
 70
     2
  9
$LUPREC
 70
     4
  9
$SKETCHINC
 40
1.0
  9
$FILLETRAD
 40
0.0
  9
$AUNITS
 70
     0
  9
$AUPREC
 70
     0
  9
$MENU
  1
.
  9
$ELEVATION
 40
0.0
  9
$PELEVATION
 40
0.0
  9
$THICKNESS
 40
0.0
  9
$LIMCHECK
 70
     0
  9
$CHAMFERA
 40
0.0
  9
$CHAMFERB
 40
0.0
  9
$CHAMFERC
 40
0.0
  9
$CHAMFERD
 40
0.0
  9
$SKPOLY
 70
     0
  9
$TDCREATE
 40
2460383.462245371
  9
$TDUCREATE
 40
2460383.087245371
  9
$TDUPDATE
 40
2460383.464513889
  9
$TDUUPDATE
 40
2460383.089513889
  9
$TDINDWG
 40
0.0022685185
  9
$TDUSRTIMER
 40
0.0022685185
  9
$USRTIMER
 70
     1
  9
$ANGBASE
 50
0.0
  9
$ANGDIR
 70
     0
  9
$PDMODE
 70
     0
  9
$PDSIZE
 40
0.0
  9
$PLINEWID
 40
0.0
  9
$SPLFRAME
 70
     0
  9
$SPLINETYPE
 70
     6
  9
$SPLINESEGS
 70
     8
  9
$HANDSEED
  5
80F
  9
$SURFTAB1
 70
     6
  9
$SURFTAB2
 70
     6
  9
$SURFTYPE
 70
     6
  9
$SURFU
 70
     6
  9
$SURFV
 70
     6
  9
$UCSBASE
  2

  9
$UCSNAME
  2

  9
$UCSORG
 10
0.0
 20
0.0
 30
0.0
  9
$UCSXDIR
 10
1.0
 20
0.0
 30
0.0
  9
$UCSYDIR
 10
0.0
 20
1.0
 30
0.0
  9
$UCSORTHOREF
  2

  9
$UCSORTHOVIEW
 70
     0
  9
$UCSORGTOP
 10
0.0
 20
0.0
 30
0.0
  9
$UCSORGBOTTOM
 10
0.0
 20
0.0
 30
0.0
  9
$UCSORGLEFT
 10
0.0
 20
0.0
 30
0.0
  9
$UCSORGRIGHT
 10
0.0
 20
0.0
 30
0.0
  9
$UCSORGFRONT
 10
0.0
 20
0.0
 30
0.0
  9
$UCSORGBACK
 10
0.0
 20
0.0
 30
0.0
  9
$PUCSBASE
  2

  9
$PUCSNAME
  2

  9
$PUCSORG
 10
0.0
 20
0.0
 30
0.0
  9
$PUCSXDIR
 10
1.0
 20
0.0
 30
0.0
  9
$PUCSYDIR
 10
0.0
 20
1.0
 30
0.0
  9
$PUCSORTHOREF
  2

  9
$PUCSORTHOVIEW
 70
     0
  9
$PUCSORGTOP
 10
0.0
 20
0.0
 30
0.0
  9
$PUCSORGBOTTOM
 10
0.0
 20
0.0
 30
0.0
  9
$PUCSORGLEFT
 10
0.0
 20
0.0
 30
0.0
  9
$PUCSORGRIGHT
 10
0.0
 20
0.0
 30
0.0
  9
$PUCSORGFRONT
 10
0.0
 20
0.0
 30
0.0
  9
$PUCSORGBACK
 10
0.0
 20
0.0
 30
0.0
  9
$USERI1
 70
     0
  9
$USERI2
 70
     0
  9
$USERI3
 70
     0
  9
$USERI4
 70
     0
  9
$USERI5
 70
     0
  9
$USERR1
 40
0.0
  9
$USERR2
 40
0.0
  9
$USERR3
 40
0.0
  9
$USERR4
 40
0.0
  9
$USERR5
 40
0.0
  9
$WORLDVIEW
 70
     1
  9
$SHADEDGE
 70
     3
  9
$SHADEDIF
 70
    70
  9
$TILEMODE
 70
     1
  9
$MAXACTVP
 70
    64
  9
$PINSBASE
 10
0.0
 20
0.0
 30
0.0
  9
$PLIMCHECK
 70
     0
  9
$PEXTMIN
 10
0.0
 20
0.0
 30
0.0
  9
$PEXTMAX
 10
0.0
 20
0.0
 30
0.0
  9
$PLIMMIN
 10
0.0
 20
0.0
  9
$PLIMMAX
 10
12.0
 20
9.0
  9
$UNITMODE
 70
     0
  9
$VISRETAIN
 70
     1
  9
$PLINEGEN
 70
     0
  9
$PSLTSCALE
 70
     1
  9
$TREEDEPTH
 70
  3020
  9
$CMLSTYLE
  2
Standard
  9
$CMLJUST
 70
     0
  9
$CMLSCALE
 40
20.0
  9
$PROXYGRAPHICS
 70
     1
  9
$MEASUREMENT
 70
     1
  9
$CELWEIGHT
370
    -1
  9
$ENDCAPS
280
     0
  9
$JOINSTYLE
280
     0
  9
$LWDISPLAY
290
     0
  9
$INSUNITS
 70
     4
  9
$HYPERLINKBASE
  1

  9
$STYLESHEET
  1

  9
$XEDIT
290
     1
  9
$CEPSNTYPE
380
     0
  9
$PSTYLEMODE
290
     1
  9
$FINGERPRINTGUID
  2
{3D94DAA5-07C3-434D-9411-92721562D0E9}
  9
$VERSIONGUID
  2
{C592D5FB-E099-6F49-BE2B-54C8736F19CA}
  9
$EXTNAMES
290
     1
  9
$PSVPSCALE
 40
0.0
  9
$OLESTARTUP
290
     0
  9
$SORTENTS
280
   127
  9
$INDEXCTL
280
     0
  9
$HIDETEXT
280
     1
  9
$XCLIPFRAME
280
     2
  9
$HALOGAP
280
     0
  9
$OBSCOLOR
 70
   257
  9
$OBSLTYPE
280
     0
  9
$INTERSECTIONDISPLAY
280
     0
  9
$INTERSECTIONCOLOR
 70
   257
  9
$DIMASSOC
280
     2
  9
$PROJECTNAME
  1

  9
$CAMERADISPLAY
290
     0
  9
$LENSLENGTH
 40
50.0
  9
$CAMERAHEIGHT
 40
0.0
  9
$STEPSPERSEC
 40
2.0
  9
$STEPSIZE
 40
6.0
  9
$3DDWFPREC
 40
2.0
  9
$PSOLWIDTH
 40
5.0
  9
$PSOLHEIGHT
 40
80.0
  9
$LOFTANG1
 40
1.570796326794896
  9
$LOFTANG2
 40
1.570796326794896
  9
$LOFTMAG1
 40
0.0
  9
$LOFTMAG2
 40
0.0
  9
$LOFTPARAM
 70
     7
  9
$LOFTNORMALS
280
     1
  9
$LATITUDE
 40
37.795
  9
$LONGITUDE
 40
-122.394
  9
$NORTHDIRECTION
 40
0.0
  9
$TIMEZONE
 70
 -8000
  9
$LIGHTGLYPHDISPLAY
280
     1
  9
$TILEMODELIGHTSYNCH
280
     1
  9
$CMATERIAL
347
EC
  9
$SOLIDHIST
280
     0
  9
$SHOWHIST
280
     1
  9
$DWFFRAME
280
     2
  9
$DGNFRAME
280
     0
  9
$REALWORLDSCALE
290
     1
  9
$INTERFERECOLOR
 62
     1
  9
$INTERFEREOBJVS
345
F9
  9
$INTERFEREVPVS
346
F6
  9
$CSHADOW
280
     0
  9
$SHADOWPLANELOCATION
 40
0.0
  0
ENDSEC
  0
SECTION
  2
CLASSES
  0
CLASS
  1
ACDBDICTIONARYWDFLT
  2
AcDbDictionaryWithDefault
  3
ObjectDBX Classes
 90
        0
 91
        1
280
     0
281
     0
  0
CLASS
  1
DICTIONARYVAR
  2
AcDbDictionaryVar
  3
ObjectDBX Classes
 90
        0
 91
       12
280
     0
281
     0
  0
CLASS
  1
TABLESTYLE
  2
AcDbTableStyle
  3
ObjectDBX Classes
 90
     4095
 91
        1
280
     0
281
     0
  0
CLASS
  1
MATERIAL
  2
AcDbMaterial
  3
ObjectDBX Classes
 90
     1153
 91
        3
280
     0
281
     0
  0
CLASS
  1
VISUALSTYLE
  2
AcDbVisualStyle
  3
ObjectDBX Classes
 90
     4095
 91
       24
280
     0
281
     0
  0
CLASS
  1
SCALE
  2
AcDbScale
  3
ObjectDBX Classes
 90
     1153
 91
       17
280
     0
281
     0
  0
CLASS
  1
MLEADERSTYLE
  2
AcDbMLeaderStyle
  3
ACDB_MLEADERSTYLE_CLASS
 90
     4095
 91
        2
280
     0
281
     0
  0
CLASS
  1
CELLSTYLEMAP
  2
AcDbCellStyleMap
  3
ObjectDBX Classes
 90
     1152
 91
        1
280
     0
281
     0
  0
CLASS
  1
EXACXREFPANELOBJECT
  2
ExAcXREFPanelObject
  3
EXAC_ESW
 90
     1025
 91
        0
280
     0
281
     0
  0
CLASS
  1
NPOCOLLECTION
  2
AcDbImpNonPersistentObjectsCollection
  3
ObjectDBX Classes
 90
     1153
 91
        0
280
     0
281
     0
  0
CLASS
  1
LAYER_INDEX
  2
AcDbLayerIndex
  3
ObjectDBX Classes
 90
        0
 91
        0
280
     0
281
     0
  0
CLASS
  1
SPATIAL_INDEX
  2
AcDbSpatialIndex
  3
ObjectDBX Classes
 90
        0
 91
        0
280
     0
281
     0
  0
CLASS
  1
IDBUFFER
  2
AcDbIdBuffer
  3
ObjectDBX Classes
 90
        0
 91
        0
280
     0
281
     0
  0
CLASS
  1
ACDBSECTIONVIEWSTYLE
  2
AcDbSectionViewStyle
  3
ObjectDBX Classes
 90
     1025
 91
        1
280
     0
281
     0
  0
CLASS
  1
ACDBDETAILVIEWSTYLE
  2
AcDbDetailViewStyle
  3
ObjectDBX Classes
 90
     1025
 91
        1
280
     0
281
     0
  0
CLASS
  1
SORTENTSTABLE
  2
AcDbSortentsTable
  3
ObjectDBX Classes
 90
        0
 91
        1
280
     0
281
     0
  0
ENDSEC
  0
SECTION
  2
TABLES
  0
TABLE
  2
VPORT
  5
8
330
0
100
AcDbSymbolTable
 70
     1
  0
VPORT
  5
EA
330
8
100
AcDbSymbolTableRecord
100
AcDbViewportTableRecord
  2
*Active
 70
     0
 10
0.0
 20
0.0
 11
1.0
 21
1.0
 12
94.6593333589476
 22
212.8473227649477
 13
0.0
 23
0.0
 14
10.0
 24
10.0
 15
10.0
 25
10.0
 16
0.0
 26
0.0
 36
1.0
 17
0.0
 27
0.0
 37
0.0
 40
189.3739654148946
 41
2.028535980148883
 42
50.0
 43
0.0
 44
0.0
 50
0.0
 51
0.0
 71
     0
 72
  1000
 73
     1
 74
     3
 75
     0
 76
     1
 77
     0
 78
     0
281
     0
 65
     1
110
0.0
120
0.0
130
0.0
111
1.0
121
0.0
131
0.0
112
0.0
122
1.0
132
0.0
 79
     0
146
0.0
348
F5
 60
     3
 61
     5
292
     1
282
     1
141
0.0
142
0.0
 63
   250
421
  3355443
1001
ACAD_NAV_VCDISPLAY
1070
     3
  0
ENDTAB
  0
TABLE
  2
LTYPE
  5
5
330
0
100
AcDbSymbolTable
 70
     2
  0
LTYPE
  5
14
330
5
100
AcDbSymbolTableRecord
100
AcDbLinetypeTableRecord
  2
ByBlock
 70
     0
  3

 72
    65
 73
     0
 40
0.0
  0
LTYPE
  5
15
330
5
100
AcDbSymbolTableRecord
100
AcDbLinetypeTableRecord
  2
ByLayer
 70
     0
  3

 72
    65
 73
     0
 40
0.0
  0
LTYPE
  5
16
330
5
100
AcDbSymbolTableRecord
100
AcDbLinetypeTableRecord
  2
Continuous
 70
     0
  3
Solid line
 72
    65
 73
     0
 40
0.0
  0
ENDTAB
  0
TABLE
  2
LAYER
  5
2
102
{ACAD_XDICTIONARY
360
1FF
102
}
330
0
100
AcDbSymbolTable
 70
     1
  0
LAYER
  5
10
102
{ACAD_XDICTIONARY
360
13C
102
}
330
2
100
AcDbSymbolTableRecord
100
AcDbLayerTableRecord
  2
0
 70
     0
 62
     7
  6
Continuous
370
    -3
390
F
347
EE
348
0
  0
ENDTAB
  0
TABLE
  2
STYLE
  5
3
330
0
100
AcDbSymbolTable
 70
     2
  0
STYLE
  5
11
330
3
100
AcDbSymbolTableRecord
100
AcDbTextStyleTableRecord
  2
Standard
 70
     0
 40
0.0
 41
1.0
 50
0.0
 71
     0
 42
2.5
  3
arial.ttf
  4

1001
ACAD
1000
Arial
1071
       34
  0
STYLE
  5
132
330
3
100
AcDbSymbolTableRecord
100
AcDbTextStyleTableRecord
  2
Annotative
 70
     0
 40
0.0
 41
1.0
 50
0.0
 71
     0
 42
2.5
  3
arial.ttf
  4

1001
AcadAnnotative
1000
AnnotativeData
1002
{
1070
     1
1070
     1
1002
}
1001
ACAD
1000
Arial
1071
       34
  0
ENDTAB
  0
TABLE
  2
VIEW
  5
6
330
0
100
AcDbSymbolTable
 70
     0
  0
ENDTAB
  0
TABLE
  2
UCS
  5
7
330
0
100
AcDbSymbolTable
 70
     0
  0
ENDTAB
  0
TABLE
  2
APPID
  5
9
330
0
100
AcDbSymbolTable
 70
    13
  0
APPID
  5
12
330
9
100
AcDbSymbolTableRecord
100
AcDbRegAppTableRecord
  2
ACAD
 70
     0
  0
APPID
  5
9E
330
9
100
AcDbSymbolTableRecord
100
AcDbRegAppTableRecord
  2
ACAD_PSEXT
 70
     0
  0
APPID
  5
133
330
9
100
AcDbSymbolTableRecord
100
AcDbRegAppTableRecord
  2
AcadAnnoPO
 70
     0
  0
APPID
  5
134
330
9
100
AcDbSymbolTableRecord
100
AcDbRegAppTableRecord
  2
AcadAnnotative
 70
     0
  0
APPID
  5
135
330
9
100
AcDbSymbolTableRecord
100
AcDbRegAppTableRecord
  2
ACAD_DSTYLE_DIMJAG
 70
     0
  0
APPID
  5
136
330
9
100
AcDbSymbolTableRecord
100
AcDbRegAppTableRecord
  2
ACAD_DSTYLE_DIMTALN
 70
     0
  0
APPID
  5
165
330
9
100
AcDbSymbolTableRecord
100
AcDbRegAppTableRecord
  2
ACAD_MLEADERVER
 70
     0
  0
APPID
  5
217
330
9
100
AcDbSymbolTableRecord
100
AcDbRegAppTableRecord
  2
ACAD_NAV_VCDISPLAY
 70
     0
  0
APPID
  5
2B9
330
9
100
AcDbSymbolTableRecord
100
AcDbRegAppTableRecord
  2
AcAecLayerStandard
 70
     0
  0
APPID
  5
2BA
330
9
100
AcDbSymbolTableRecord
100
AcDbRegAppTableRecord
  2
AcCmTransparency
 70
     0
  0
APPID
  5
2BB
330
9
100
AcDbSymbolTableRecord
100
AcDbRegAppTableRecord
  2
PLOTTRANSPARENCY
 70
     0
  0
APPID
  5
802
330
9
100
AcDbSymbolTableRecord
100
AcDbRegAppTableRecord
  2
Acad_TC
 70
     0
  0
APPID
  5
804
330
9
100
AcDbSymbolTableRecord
100
AcDbRegAppTableRecord
  2
ACAD_EXEMPT_FROM_CAD_STANDARDS
 70
     0
  0
ENDTAB
  0
TABLE
  2
DIMSTYLE
  5
A
330
0
100
AcDbSymbolTable
 70
     4
100
AcDbDimStyleTable
 71
     3
340
27
340
1B0
340
137
  0
DIMSTYLE
105
1B0
330
A
100
AcDbSymbolTableRecord
100
AcDbDimStyleTableRecord
  2
Standard
 70
     0
340
11
  0
DIMSTYLE
105
137
330
A
100
AcDbSymbolTableRecord
100
AcDbDimStyleTableRecord
  2
Annotative
 70
     0
 40
0.0
 41
2.5
 42
0.625
 43
3.75
 44
1.25
 73
     0
 74
     0
 77
     1
 78
     8
140
2.5
141
2.5
143
0.03937007874016
147
0.625
171
     3
172
     1
271
     2
272
     2
274
     3
278
    44
283
     0
284
     8
340
11
1001
AcadAnnotative
1000
AnnotativeData
1002
{
1070
     1
1070
     1
1002
}
1001
ACAD_DSTYLE_DIMJAG
1070
   388
1040
1.5
1001
ACAD_DSTYLE_DIMTALN
1070
   392
1070
     0
  0
DIMSTYLE
105
27
330
A
100
AcDbSymbolTableRecord
100
AcDbDimStyleTableRecord
  2
ISO-25
 70
     0
 41
2.5
 42
0.625
 43
3.75
 44
1.25
 73
     0
 74
     0
 77
     1
 78
     8
140
2.5
141
2.5
143
0.03937007874016
147
0.625
171
     3
172
     1
271
     2
272
     2
274
     3
278
    44
283
     0
284
     8
340
11
  0
ENDTAB
  0
TABLE
  2
BLOCK_RECORD
  5
1
330
0
100
AcDbSymbolTable
 70
     3
  0
BLOCK_RECORD
  5
1F
102
{ACAD_XDICTIONARY
360
1CE
102
}
330
1
100
AcDbSymbolTableRecord
100
AcDbBlockTableRecord
  2
*Model_Space
340
22
 70
     0
280
     1
281
     0
  0
BLOCK_RECORD
  5
D2
330
1
100
AcDbSymbolTableRecord
100
AcDbBlockTableRecord
  2
*Paper_Space
340
D3
 70
     0
280
     1
281
     0
  0
BLOCK_RECORD
  5
D6
330
1
100
AcDbSymbolTableRecord
100
AcDbBlockTableRecord
  2
*Paper_Space0
340
D7
 70
     0
280
     1
281
     0
  0
ENDTAB
  0
ENDSEC
  0
SECTION
  2
BLOCKS
  0
BLOCK
  5
20
330
1F
100
AcDbEntity
  8
0
100
AcDbBlockBegin
  2
*Model_Space
 70
     0
 10
0.0
 20
0.0
 30
0.0
  3
*Model_Space
  1

  0
ENDBLK
  5
21
330
1F
100
AcDbEntity
  8
0
100
AcDbBlockEnd
  0
BLOCK
  5
D4
330
D2
100
AcDbEntity
 67
     1
  8
0
100
AcDbBlockBegin
  2
*Paper_Space
 70
     0
 10
0.0
 20
0.0
 30
0.0
  3
*Paper_Space
  1

  0
ENDBLK
  5
D5
330
D2
100
AcDbEntity
 67
     1
  8
0
100
AcDbBlockEnd
  0
BLOCK
  5
D8
330
D6
100
AcDbEntity
 67
     1
  8
0
100
AcDbBlockBegin
  2
*Paper_Space0
 70
     0
 10
0.0
 20
0.0
 30
0.0
  3
*Paper_Space0
  1

  0
ENDBLK
  5
D9
330
D6
100
AcDbEntity
 67
     1
  8
0
100
AcDbBlockEnd
  0
ENDSEC
  0
SECTION
  2
ENTITIES
  0
SPLINE
  5
562
330
1F
100
AcDbEntity
  8
0
  6
Continuous
 62
     7
370
    15
100
AcDbSpline
210
0.0
220
0.0
230
1.0
 70
     8
 71
     3
 72
     9
 73
     5
 74
     0
 42
0.000000001
 43
0.0000000001
 40
0.0
 40
0.0
 40
0.0
 40
0.0
 40
0.4890991124921237
 40
1.0
 40
1.0
 40
1.0
 40
1.0
 10
58.54897029566814
 20
176.3330643476291
 30
0.0
 10
58.53627124011495
 20
176.3328490394054
 30
0.0
 10
58.51030706387996
 20
176.3324088255139
 30
0.0
 10
58.47883993628625
 20
176.3278868138844
 30
0.0
 10
58.46276335287189
 20
176.3255765141292
 30
0.0
  0
SPLINE
  5
563
330
1F
100
AcDbEntity
  8
0
  6
Continuous
 62
     7
370
    15
100
AcDbSpline
210
0.0
220
0.0
230
1.0
 70
     8
 71
     3
 72
     9
 73
     5
 74
     0
 42
0.000000001
 43
0.0000000001
 40
0.0
 40
0.0
 40
0.0
 40
0.0
 40
0.5109008875078765
 40
1.0
 40
1.0
 40
1.0
 40
1.0
 10
114.7209649519925
 20
176.3255765141292
 30
0.0
 10
114.7048883685781
 20
176.3278868138844
 30
0.0
 10
114.6734212409849
 20
176.3324088255139
 30
0.0
 10
114.647457064749
 20
176.3328490394054
 30
0.0
 10
114.6347580091962
 20
176.3330643476291
 30
0.0
  0
ARC
  5
564
330
1F
100
AcDbEntity
  8
0
  6
Continuous
 62
     7
370
    15
100
AcDbCircle
 10
76.79186415243226
 20
176.6824987086655
 30
0.0
 40
0.2000000017357405
100
AcDbArc
 50
90.12502880050995
 51
131.1640486050207
  0
ARC
  5
565
330
1F
100
AcDbEntity
  8
0
  6
Continuous
 62
     7
370
    15
100
AcDbCircle
 10
96.39186958738832
 20
176.6825155665209
 30
0.0
 40
0.1999831447950849
100
AcDbArc
 50
48.83377815907096
 51
90.14160802015515
  0
LINE
  5
566
330
1F
100
AcDbEntity
  8
0
  6
Continuous
 62
     7
370
    15
100
AcDbLine
 10
96.3918642686615
 20
176.8824981005235
 30
0.0
 11
76.79186403620292
 21
176.8824981005235
 31
0.0
  0
LINE
  5
567
330
1F
100
AcDbEntity
  8
0
  6
Continuous
 62
     7
370
    15
100
AcDbLine
 10
87.79186420942938
 20
171.6330648810911
 30
0.0
 11
87.79186420942938
 21
171.7330647112174
 31
0.0
  0
LINE
  5
568
330
1F
100
AcDbEntity
  8
0
  6
Continuous
 62
     7
370
    15
100
AcDbLine
 10
85.3918640954355
 20
171.7330647112174
 30
0.0
 11
85.3918640954355
 21
171.6330648810911
 31
0.0
  0
LINE
  5
569
330
1F
100
AcDbEntity
  8
0
  6
Continuous
 62
     7
370
    15
100
AcDbLine
 10
92.2527626702497
 20
171.7330647112174
 30
0.0
 11
80.93096563461518
 21
171.7330647112174
 31
0.0
  0
LINE
  5
56A
330
1F
100
AcDbEntity
  8
0
  6
Continuous
 62
     7
370
    15
100
AcDbLine
 10
81.51241779196311
 20
174.1688513608022
 30
0.0
 11
80.93096563461518
 21
171.7330647112174
 31
0.0
  0
LINE
  5
56B
330
1F
100
AcDbEntity
  8
0
  6
Continuous
 62
     7
370
    15
100
AcDbLine
 10
91.6713105129013
 20
174.1688513608022
 30
0.0
 11
81.51241779196311
 21
174.1688513608022
 31
0.0
  0
LINE
  5
56C
330
1F
100
AcDbEntity
  8
0
  6
Continuous
 62
     7
370
    15
100
AcDbLine
 10
91.6713105129013
 20
174.1688513608022
 30
0.0
 11
92.2527626702497
 21
171.7330647112174
 31
0.0
  0
ELLIPSE
  5
56D
330
1F
100
AcDbEntity
  8
0
  6
Continuous
 62
     7
370
    15
100
AcDbEllipse
 10
93.23114921683758
 20
175.8330643208072
 30
0.0
 11
0.4212009145388437
 21
-0.3739175912729783
 31
0.0
210
0.0
220
0.0
230
1.0
 40
0.7880852220488177
 41
2.415591554243679
 42
3.200989717641097
  0
LINE
  5
56E
330
1F
100
AcDbEntity
  8
0
  6
Continuous
 62
     7
370
    15
100
AcDbLine
 10
96.21545687186813
 20
176.3330643476291
 30
0.0
 11
93.1117931926558
 21
176.3330643476291
 31
0.0
  0
LINE
  5
56F
330
1F
100
AcDbEntity
  8
0
  6
Continuous
 62
     7
370
    15
100
AcDbLine
 10
94.57161664831733
 20
175.3823348732043
 30
0.0
 11
96.21545687186813
 21
176.3330643476291
 31
0.0
  0
LINE
  5
570
330
1F
100
AcDbEntity
  8
0
  6
Continuous
 62
     7
370
    15
100
AcDbLine
 10
94.25276253241349
 20
171.7330647112174
 30
0.0
 11
94.57161664831733
 21
175.3823348732043
 31
0.0
  0
LINE
  5
571
330
1F
100
AcDbEntity
  8
0
  6
Continuous
 62
     7
370
    15
100
AcDbLine
 10
92.2527626702497
 20
171.7330647112174
 30
0.0
 11
94.25276253241349
 21
171.7330647112174
 31
0.0
  0
ELLIPSE
  5
572
330
1F
100
AcDbEntity
  8
0
  6
Continuous
 62
     7
370
    15
100
AcDbEllipse
 10
92.67131054953438
 20
174.1688507584343
 30
0.0
 11
0.8424018290777084
 21
-0.7478351825459982
 31
0.0
210
0.0
220
0.0
230
1.0
 40
0.788085222048771
 41
3.200989717641106
 42
3.986387881038555
  0
LINE
  5
573
330
1F
100
AcDbEntity
  8
0
  6
Continuous
 62
     7
370
    15
100
AcDbLine
 10
92.79319845008945
 20
176.1866175980616
 30
0.0
 11
91.79540878030753
 21
174.875958025579
 31
0.0
  0
ELLIPSE
  5
574
330
1F
100
AcDbEntity
  8
0
  6
Continuous
 62
     7
370
    15
100
AcDbEllipse
 10
65.73114921683668
 20
175.8330643208072
 30
0.0
 11
0.4212009145388543
 21
-0.3739175912729777
 31
0.0
210
0.0
220
0.0
230
1.0
 40
0.7880852220488319
 41
2.415591554243653
 42
3.200989717641081
  0
LINE
  5
575
330
1F
100
AcDbEntity
  8
0
  6
Continuous
 62
     7
370
    15
100
AcDbLine
 10
68.71545702087974
 20
176.3330643476291
 30
0.0
 11
65.61179287600612
 21
176.3330643476291
 31
0.0
  0
LINE
  5
576
330
1F
100
AcDbEntity
  8
0
  6
Continuous
 62
     7
370
    15
100
AcDbLine
 10
67.07161679732848
 20
175.3823348732043
 30
0.0
 11
68.71545702087974
 21
176.3330643476291
 31
0.0
  0
LINE
  5
577
330
1F
100
AcDbEntity
  8
0
  6
Continuous
 62
     7
370
    15
100
AcDbLine
 10
66.75276175010299
 20
171.7330647112174
 30
0.0
 11
67.07161679732848
 21
175.3823348732043
 31
0.0
  0
LINE
  5
578
330
1F
100
AcDbEntity
  8
0
  6
Continuous
 62
     7
370
    15
100
AcDbLine
 10
64.75276328492213
 20
171.7330647112174
 30
0.0
 11
66.75276175010299
 21
171.7330647112174
 31
0.0
  0
LINE
  5
579
330
1F
100
AcDbEntity
  8
0
  6
Continuous
 62
     7
370
    15
100
AcDbLine
 10
64.17131066191245
 20
174.1688513608022
 30
0.0
 11
64.75276328492213
 21
171.7330647112174
 31
0.0
  0
ELLIPSE
  5
57A
330
1F
100
AcDbEntity
  8
0
  6
Continuous
 62
     7
370
    15
100
AcDbEllipse
 10
65.17131054953392
 20
174.1688507584343
 30
0.0
 11
0.8424018290777192
 21
-0.7478351825459987
 31
0.0
210
0.0
220
0.0
230
1.0
 40
0.7880852220487782
 41
3.200989717641097
 42
3.986387881038544
  0
LINE
  5
57B
330
1F
100
AcDbEntity
  8
0
  6
Continuous
 62
     7
370
    15
100
AcDbLine
 10
65.29319859910106
 20
176.1866175980616
 30
0.0
 11
64.29540939498043
 21
174.875958025579
 31
0.0
  0
LINE
  5
57C
330
1F
100
AcDbEntity
  8
0
  6
Continuous
 62
     7
370
    15
100
AcDbLine
 10
64.75276328492213
 20
171.7330647112174
 30
0.0
 11
59.34186480808307
 21
171.7330647112174
 31
0.0
  0
ARC
  5
57D
330
1F
100
AcDbEntity
  8
0
  6
Continuous
 62
     7
370
    15
100
AcDbCircle
 10
59.34186415243243
 20
170.7330643208073
 30
0.0
 40
1.000000000000007
100
AcDbArc
 50
90.0
 51
161.8051276612229
  0
LINE
  5
57E
330
1F
100
AcDbEntity
  8
0
  6
Continuous
 62
     7
370
    15
100
AcDbLine
 10
58.39186362791156
 20
174.1688513608022
 30
0.0
 11
58.39186362791156
 21
171.0453146548319
 31
0.0
  0
LINE
  5
57F
330
1F
100
AcDbEntity
  8
0
  6
Continuous
 62
     7
370
    15
100
AcDbLine
 10
64.17131066191245
 20
174.1688513608022
 30
0.0
 11
58.39186362791156
 21
174.1688513608022
 31
0.0
  0
ELLIPSE
  5
580
330
1F
100
AcDbEntity
  8
0
  6
Continuous
 62
     7
370
    15
100
AcDbEllipse
 10
80.51241775533004
 20
174.1688507584343
 30
0.0
 11
0.8424018290777192
 21
0.7478351825459987
 31
0.0
210
0.0
220
0.0
230
1.0
 40
0.7880852220487719
 41
5.438390079730858
 42
6.223788243128308
  0
LINE
  5
581
330
1F
100
AcDbEntity
  8
0
  6
Continuous
 62
     7
370
    15
100
AcDbLine
 10
81.38831952455689
 20
174.875958025579
 30
0.0
 11
91.79540878030753
 21
174.875958025579
 31
0.0
  0
LINE
  5
582
330
1F
100
AcDbEntity
  8
0
  6
Continuous
 62
     7
370
    15
100
AcDbLine
 10
58.39186362791156
 20
174.1688513608022
 30
0.0
 11
58.39186362791156
 21
174.875958025579
 31
0.0
  0
LINE
  5
583
330
1F
100
AcDbEntity
  8
0
  6
Continuous
 62
     7
370
    15
100
AcDbLine
 10
58.39186362791156
 20
174.875958025579
 30
0.0
 11
64.29540939498043
 21
174.875958025579
 31
0.0
  0
LINE
  5
584
330
1F
100
AcDbEntity
  8
0
  6
Continuous
 62
     7
370
    15
100
AcDbLine
 10
78.93096577245092
 20
171.7330647112174
 30
0.0
 11
80.93096563461518
 21
171.7330647112174
 31
0.0
  0
LINE
  5
585
330
1F
100
AcDbEntity
  8
0
  6
Continuous
 62
     7
370
    15
100
AcDbLine
 10
78.93096577245092
 20
171.7330647112174
 30
0.0
 11
78.61211165654708
 21
175.3823348732043
 31
0.0
  0
LINE
  5
586
330
1F
100
AcDbEntity
  8
0
  6
Continuous
 62
     7
370
    15
100
AcDbLine
 10
76.96827143299675
 20
176.3330643476291
 30
0.0
 11
78.61211165654708
 21
175.3823348732043
 31
0.0
  0
LINE
  5
587
330
1F
100
AcDbEntity
  8
0
  6
Continuous
 62
     7
370
    15
100
AcDbLine
 10
80.07193511220908
 20
176.3330643476291
 30
0.0
 11
76.96827143299675
 21
176.3330643476291
 31
0.0
  0
ELLIPSE
  5
588
330
1F
100
AcDbEntity
  8
0
  6
Continuous
 62
     7
370
    15
100
AcDbEllipse
 10
79.95257908802682
 20
175.8330643208072
 30
0.0
 11
0.4212009145388543
 21
0.3739175912729991
 31
0.0
210
0.0
220
0.0
230
1.0
 40
0.7880852220488121
 41
6.223788243128312
 42
7.009186406525772
  0
LINE
  5
589
330
1F
100
AcDbEntity
  8
0
  6
Continuous
 62
     7
370
    15
100
AcDbLine
 10
81.38831952455689
 20
174.875958025579
 30
0.0
 11
80.39052985477542
 21
176.1866175980616
 31
0.0
  0
LINE
  5
58A
330
1F
100
AcDbEntity
  8
0
  6
Continuous
 62
     7
370
    15
100
AcDbLine
 10
108.8883189098844
 20
174.875958025579
 30
0.0
 11
114.7918646769528
 21
174.875958025579
 31
0.0
  0
LINE
  5
58B
330
1F
100
AcDbEntity
  8
0
  6
Continuous
 62
     7
370
    15
100
AcDbLine
 10
114.7918646769528
 20
174.875958025579
 30
0.0
 11
114.7918646769528
 21
174.1688513608022
 31
0.0
  0
LINE
  5
58C
330
1F
100
AcDbEntity
  8
0
  6
Continuous
 62
     7
370
    15
100
AcDbLine
 10
114.7918646769528
 20
174.1688513608022
 30
0.0
 11
109.0124176429519
 21
174.1688513608022
 31
0.0
  0
ELLIPSE
  5
58D
330
1F
100
AcDbEntity
  8
0
  6
Continuous
 62
     7
370
    15
100
AcDbEllipse
 10
108.01241775533
 20
174.1688507584343
 30
0.0
 11
0.8424018290777301
 21
0.7478351825459983
 31
0.0
210
0.0
220
0.0
230
1.0
 40
0.7880852220487603
 41
5.438390079730857
 42
6.223788243128323
  0
LINE
  5
58E
330
1F
100
AcDbEntity
  8
0
  6
Continuous
 62
     7
370
    15
100
AcDbLine
 10
106.4309665547614
 20
171.7330647112174
 30
0.0
 11
108.4309650199422
 21
171.7330647112174
 31
0.0
  0
LINE
  5
58F
330
1F
100
AcDbEntity
  8
0
  6
Continuous
 62
     7
370
    15
100
AcDbLine
 10
106.4309665547614
 20
171.7330647112174
 30
0.0
 11
106.1121115075359
 21
175.3823348732043
 31
0.0
  0
LINE
  5
590
330
1F
100
AcDbEntity
  8
0
  6
Continuous
 62
     7
370
    15
100
AcDbLine
 10
104.4682712839847
 20
176.3330643476291
 30
0.0
 11
106.1121115075359
 21
175.3823348732043
 31
0.0
  0
LINE
  5
591
330
1F
100
AcDbEntity
  8
0
  6
Continuous
 62
     7
370
    15
100
AcDbLine
 10
107.5719354288587
 20
176.3330643476291
 30
0.0
 11
104.4682712839847
 21
176.3330643476291
 31
0.0
  0
ELLIPSE
  5
592
330
1F
100
AcDbEntity
  8
0
  6
Continuous
 62
     7
370
    15
100
AcDbEllipse
 10
107.4525790880277
 20
175.8330643208072
 30
0.0
 11
0.4212009145388436
 21
0.3739175912729991
 31
0.0
210
0.0
220
0.0
230
1.0
 40
0.7880852220488232
 41
6.223788243128311
 42
7.009186406525794
  0
LINE
  5
593
330
1F
100
AcDbEntity
  8
0
  6
Continuous
 62
     7
370
    15
100
AcDbLine
 10
108.8883189098844
 20
174.875958025579
 30
0.0
 11
107.8905297057633
 21
176.1866175980616
 31
0.0
  0
LINE
  5
594
330
1F
100
AcDbEntity
  8
0
  6
Continuous
 62
     7
370
    15
100
AcDbLine
 10
109.0124176429519
 20
174.1688513608022
 30
0.0
 11
108.4309650199422
 21
171.7330647112174
 31
0.0
  0
ARC
  5
595
330
1F
100
AcDbEntity
  8
0
  6
Continuous
 62
     7
370
    15
100
AcDbCircle
 10
113.841864152432
 20
170.7330643208073
 30
0.0
 40
1.00000000000002
100
AcDbArc
 50
18.19487233877713
 51
90.0
  0
LINE
  5
596
330
1F
100
AcDbEntity
  8
0
  6
Continuous
 62
     7
370
    15
100
AcDbLine
 10
113.8418634967813
 20
171.7330647112174
 30
0.0
 11
108.4309650199422
 21
171.7330647112174
 31
0.0
  0
LINE
  5
597
330
1F
100
AcDbEntity
  8
0
  6
Continuous
 62
     7
370
    15
100
AcDbLine
 10
114.7918646769528
 20
171.0453146548319
 30
0.0
 11
114.7918646769528
 21
174.1688513608022
 31
0.0
  0
LINE
  5
598
330
1F
100
AcDbEntity
  8
0
  6
Continuous
 62
     7
370
    15
100
AcDbLine
 10
58.3418646441703
 20
170.7330645473047
 30
0.0
 11
58.39186362791156
 21
171.0453146548319
 31
0.0
  0
LINE
  5
599
330
1F
100
AcDbEntity
  8
0
  6
Continuous
 62
     7
370
    15
100
AcDbLine
 10
58.3418646441703
 20
157.533064153169
 30
0.0
 11
58.3418646441703
 21
170.7330645473047
 31
0.0
  0
LINE
  5
59A
330
1F
100
AcDbEntity
  8
0
  6
Continuous
 62
     7
370
    15
100
AcDbLine
 10
58.3418646441703
 20
157.533064153169
 30
0.0
 11
56.59186482298469
 21
157.533064153169
 31
0.0
  0
LINE
  5
59B
330
1F
100
AcDbEntity
  8
0
  6
Continuous
 62
     7
370
    15
100
AcDbLine
 10
56.59186482298469
 20
157.533064153169
 30
0.0
 11
56.59186482298469
 21
174.1688513608022
 31
0.0
  0
LINE
  5
59C
330
1F
100
AcDbEntity
  8
0
  6
Continuous
 62
     7
370
    15
100
AcDbLine
 10
58.39186362791156
 20
174.1688513608022
 30
0.0
 11
56.59186482298469
 21
174.1688513608022
 31
0.0
  0
ARC
  5
59D
330
1F
100
AcDbEntity
  8
0
  6
Continuous
 62
     7
370
    15
100
AcDbCircle
 10
57.59186415243198
 20
174.1688507584343
 30
0.0
 40
1.000000000000007
100
AcDbArc
 50
135.0000000000181
 51
180.0
  0
LINE
  5
59E
330
1F
100
AcDbEntity
  8
0
  6
Continuous
 62
     7
370
    15
100
AcDbLine
 10
56.88475645947551
 20
174.875958025579
 30
0.0
 11
58.39186362791156
 21
174.875958025579
 31
0.0
  0
LINE
  5
59F
330
1F
100
AcDbEntity
  8
0
  6
Continuous
 62
     7
370
    15
100
AcDbLine
 10
116.5918634818801
 20
157.533064153169
 30
0.0
 11
114.8418636606941
 21
157.533064153169
 31
0.0
  0
LINE
  5
5A0
330
1F
100
AcDbEntity
  8
0
  6
Continuous
 62
     7
370
    15
100
AcDbLine
 10
114.8418636606941
 20
170.7330645473047
 30
0.0
 11
114.8418636606941
 21
157.533064153169
 31
0.0
  0
LINE
  5
5A1
330
1F
100
AcDbEntity
  8
0
  6
Continuous
 62
     7
370
    15
100
AcDbLine
 10
116.5918634818801
 20
174.1688513608022
 30
0.0
 11
114.7918646769528
 21
174.1688513608022
 31
0.0
  0
LINE
  5
5A2
330
1F
100
AcDbEntity
  8
0
  6
Continuous
 62
     7
370
    15
100
AcDbLine
 10
116.5918634818801
 20
174.1688513608022
 30
0.0
 11
116.5918634818801
 21
157.533064153169
 31
0.0
  0
LINE
  5
5A3
330
1F
100
AcDbEntity
  8
0
  6
Continuous
 62
     7
370
    15
100
AcDbLine
 10
114.7918646769528
 20
171.0453146548319
 30
0.0
 11
114.8418636606941
 21
170.7330645473047
 31
0.0
  0
LINE
  5
5A4
330
1F
100
AcDbEntity
  8
0
  6
Continuous
 62
     7
370
    15
100
AcDbLine
 10
114.7918646769528
 20
174.875958025579
 30
0.0
 11
116.2989718453893
 21
174.875958025579
 31
0.0
  0
ARC
  5
5A5
330
1F
100
AcDbEntity
  8
0
  6
Continuous
 62
     7
370
    15
100
AcDbCircle
 10
115.5918641524324
 20
174.1688507584343
 30
0.0
 40
0.9999999999999879
100
AcDbArc
 50
0.0
 51
44.99999999998187
  0
SPLINE
  5
5A6
330
1F
100
AcDbEntity
  8
0
  6
Continuous
 62
     7
370
    15
100
AcDbSpline
210
0.0
220
0.0
230
1.0
 70
     8
 71
     3
 72
    11
 73
     7
 74
     0
 42
0.000000001
 43
0.0000000001
 40
0.0
 40
0.0
 40
0.0
 40
0.0
 40
0.2599753439233966
 40
0.5000039215028701
 40
0.7400091049384149
 40
1.0
 40
1.0
 40
1.0
 40
1.0
 10
58.39186362791156
 20
176.1866175980616
 30
0.0
 10
58.37117354212637
 20
176.1961836797721
 30
0.0
 10
58.33138082996971
 20
176.2145818797579
 30
0.0
 10
58.27522747132366
 20
176.2230767015879
 30
0.0
 10
58.22870305701167
 20
176.2145860030522
 30
0.0
 10
58.20680472025674
 20
176.1961855655398
 30
0.0
 10
58.19541789460277
 20
176.1866175980616
 30
0.0
  0
LINE
  5
5A7
330
1F
100
AcDbEntity
  8
0
  6
Continuous
 62
     7
370
    15
100
AcDbLine
 10
58.39186362791156
 20
174.875958025579
 30
0.0
 11
58.39186362791156
 21
176.1866175980616
 31
0.0
  0
LINE
  5
5A8
330
1F
100
AcDbEntity
  8
0
  6
Continuous
 62
     7
370
    15
100
AcDbLine
 10
56.88475645947551
 20
174.875958025579
 30
0.0
 11
58.19541789460277
 21
176.1866175980616
 31
0.0
  0
LINE
  5
5A9
330
1F
100
AcDbEntity
  8
0
  6
Continuous
 62
     7
370
    15
100
AcDbLine
 10
65.29319859910106
 20
176.1866175980616
 30
0.0
 11
58.39186362791156
 21
176.1866175980616
 31
0.0
  0
LINE
  5
5AA
330
1F
100
AcDbEntity
  8
0
  6
Continuous
 62
     7
370
    15
100
AcDbLine
 10
114.7918646769528
 20
176.1866175980616
 30
0.0
 11
107.8905297057633
 21
176.1866175980616
 31
0.0
  0
LINE
  5
5AB
330
1F
100
AcDbEntity
  8
0
  6
Continuous
 62
     7
370
    15
100
AcDbLine
 10
114.7918646769528
 20
174.875958025579
 30
0.0
 11
114.7918646769528
 21
176.1866175980616
 31
0.0
  0
SPLINE
  5
5AC
330
1F
100
AcDbEntity
  8
0
  6
Continuous
 62
     7
370
    15
100
AcDbSpline
210
0.0
220
0.0
230
1.0
 70
     8
 71
     3
 72
    11
 73
     7
 74
     0
 42
0.000000001
 43
0.0000000001
 40
0.0
 40
0.0
 40
0.0
 40
0.0
 40
0.2599668540426312
 40
0.4999951981447952
 40
0.740004198989666
 40
1.0
 40
1.0
 40
1.0
 40
1.0
 10
114.9883104102621
 20
176.1866175980616
 30
0.0
 10
114.9769256192314
 20
176.1961837054922
 30
0.0
 10
114.9550292091369
 20
176.2145822347896
 30
0.0
 10
114.9085034652032
 20
176.2230766435308
 30
0.0
 10
114.8523477936189
 20
176.2145859757018
 30
0.0
 10
114.8125559189154
 20
176.1961855651397
 30
0.0
 10
114.7918646769528
 20
176.1866175980616
 30
0.0
  0
LINE
  5
5AD
330
1F
100
AcDbEntity
  8
0
  6
Continuous
 62
     7
370
    15
100
AcDbLine
 10
116.2989718453893
 20
174.875958025579
 30
0.0
 11
114.9883104102621
 21
176.1866175980616
 31
0.0
  0
LINE
  5
5AE
330
1F
100
AcDbEntity
  8
0
  6
Continuous
 62
     7
370
    15
100
AcDbLine
 10
92.79319845008945
 20
176.1866175980616
 30
0.0
 11
80.39052985477542
 21
176.1866175980616
 31
0.0
  0
LINE
  5
5AF
330
1F
100
AcDbEntity
  8
0
  6
Continuous
 62
     7
370
    15
100
AcDbLine
 10
57.0918639736185
 20
157.533064153169
 30
0.0
 11
57.0918639736185
 21
157.0330645368739
 31
0.0
  0
LINE
  5
5B0
330
1F
100
AcDbEntity
  8
0
  6
Continuous
 62
     7
370
    15
100
AcDbLine
 10
58.3418646441703
 20
157.533064153169
 30
0.0
 11
58.3418646441703
 21
157.0330645368739
 31
0.0
  0
LINE
  5
5B1
330
1F
100
AcDbEntity
  8
0
  6
Continuous
 62
     7
370
    15
100
AcDbLine
 10
116.0918643312459
 20
157.533064153169
 30
0.0
 11
116.0918643312459
 21
157.0330645368739
 31
0.0
  0
LINE
  5
5B2
330
1F
100
AcDbEntity
  8
0
  6
Continuous
 62
     7
370
    15
100
AcDbLine
 10
114.8418636606941
 20
157.533064153169
 30
0.0
 11
114.8418636606941
 21
157.0330645368739
 31
0.0
  0
LINE
  5
5B3
330
1F
100
AcDbEntity
  8
0
  6
Continuous
 62
     7
370
    15
100
AcDbLine
 10
58.54897029566814
 20
176.3330643476291
 30
0.0
 11
65.61179287600612
 21
176.3330643476291
 31
0.0
  0
LINE
  5
5B4
330
1F
100
AcDbEntity
  8
0
  6
Continuous
 62
     7
370
    15
100
AcDbLine
 10
58.50002743172741
 20
176.3183364124346
 30
0.0
 11
58.54897029566814
 21
176.3330643476291
 31
0.0
  0
LINE
  5
5B5
330
1F
100
AcDbEntity
  8
0
  6
Continuous
 62
     7
370
    15
100
AcDbLine
 10
107.5719354288587
 20
176.3330643476291
 30
0.0
 11
114.6347580091962
 21
176.3330643476291
 31
0.0
  0
LINE
  5
5B6
330
1F
100
AcDbEntity
  8
0
  6
Continuous
 62
     7
370
    15
100
AcDbLine
 10
114.6347580091962
 20
176.3330643476291
 30
0.0
 11
114.6941708015208
 21
176.3250214458747
 31
0.0
  0
SPLINE
  5
5B7
330
1F
100
AcDbEntity
  8
0
  6
Continuous
 62
     7
370
    15
100
AcDbSpline
210
0.0
220
0.0
230
1.0
 70
     8
 71
     3
 72
     9
 73
     5
 74
     0
 42
0.000000001
 43
0.0000000001
 40
0.0
 40
0.0
 40
0.0
 40
0.0
 40
0.5025877704585869
 40
1.0
 40
1.0
 40
1.0
 40
1.0
 10
58.19541789460277
 20
176.1866175980616
 30
0.0
 10
58.22264230718906
 20
176.2108132847191
 30
0.0
 10
58.27681078120964
 20
176.2589554960503
 30
0.0
 10
58.33841978122632
 20
176.2860825313713
 30
0.0
 10
58.36906485128498
 20
176.2995758504911
 30
0.0
  0
LINE
  5
5B8
330
1F
100
AcDbEntity
  8
0
  6
Continuous
 62
     7
370
    15
100
AcDbLine
 10
58.45964528489208
 20
176.3250214458747
 30
0.0
 11
58.54897029566814
 21
176.3330643476291
 31
0.0
  0
LINE
  5
5B9
330
1F
100
AcDbEntity
  8
0
  6
Continuous
 62
     7
370
    15
100
AcDbLine
 10
114.6347580091962
 20
176.3330643476291
 30
0.0
 11
114.7216261910209
 21
176.3168947250891
 31
0.0
  0
SPLINE
  5
5BA
330
1F
100
AcDbEntity
  8
0
  6
Continuous
 62
     7
370
    15
100
AcDbSpline
210
0.0
220
0.0
230
1.0
 70
     8
 71
     3
 72
     9
 73
     5
 74
     0
 42
0.000000001
 43
0.0000000001
 40
0.0
 40
0.0
 40
0.0
 40
0.0
 40
0.4974122295414132
 40
1.0
 40
1.0
 40
1.0
 40
1.0
 10
114.8146634535794
 20
176.2995758504911
 30
0.0
 10
114.8453085236381
 20
176.2860825313713
 30
0.0
 10
114.9069175236548
 20
176.2589554960503
 30
0.0
 10
114.9610859976753
 20
176.2108132847191
 30
0.0
 10
114.9883104102621
 20
176.1866175980616
 30
0.0
  0
LINE
  5
5BB
330
1F
100
AcDbEntity
  8
0
  6
Continuous
 62
     7
370
    15
100
AcDbLine
 10
80.07193511220908
 20
176.3330643476291
 30
0.0
 11
93.1117931926558
 21
176.3330643476291
 31
0.0
  0
LINE
  5
5BC
330
1F
100
AcDbEntity
  8
0
  6
Continuous
 62
     7
370
    15
100
AcDbLine
 10
78.61211165654708
 20
175.3823348732043
 30
0.0
 11
67.07161679732848
 21
175.3823348732043
 31
0.0
  0
LINE
  5
5BD
330
1F
100
AcDbEntity
  8
0
  6
Continuous
 62
     7
370
    15
100
AcDbLine
 10
66.75276175010299
 20
171.7330647112174
 30
0.0
 11
67.19064168500995
 21
171.7330647112174
 31
0.0
  0
LINE
  5
5BE
330
1F
100
AcDbEntity
  8
0
  6
Continuous
 62
     7
370
    15
100
AcDbLine
 10
78.4930858375435
 20
171.7330647112174
 30
0.0
 11
78.93096577245092
 21
171.7330647112174
 31
0.0
  0
LINE
  5
5BF
330
1F
100
AcDbEntity
  8
0
  6
Continuous
 62
     7
370
    15
100
AcDbLine
 10
106.1121115075359
 20
175.3823348732043
 30
0.0
 11
94.57161664831733
 21
175.3823348732043
 31
0.0
  0
LINE
  5
5C0
330
1F
100
AcDbEntity
  8
0
  6
Continuous
 62
     7
370
    15
100
AcDbLine
 10
106.4309665547614
 20
171.7330647112174
 30
0.0
 11
105.9930847572093
 21
171.7330647112174
 31
0.0
  0
LINE
  5
5C1
330
1F
100
AcDbEntity
  8
0
  6
Continuous
 62
     7
370
    15
100
AcDbLine
 10
94.69064060467577
 20
171.7330647112174
 30
0.0
 11
94.25276253241349
 21
171.7330647112174
 31
0.0
  0
LINE
  5
5C2
330
1F
100
AcDbEntity
  8
0
  6
Continuous
 62
     7
370
    15
100
AcDbLine
 10
96.21545687186813
 20
176.3330643476291
 30
0.0
 11
104.4682712839847
 21
176.3330643476291
 31
0.0
  0
LINE
  5
5C3
330
1F
100
AcDbEntity
  8
0
  6
Continuous
 62
     7
370
    15
100
AcDbLine
 10
68.71545702087974
 20
176.3330643476291
 30
0.0
 11
76.96827143299675
 21
176.3330643476291
 31
0.0
  0
LINE
  5
5C4
330
1F
100
AcDbEntity
  8
0
  6
Continuous
 62
     7
370
    15
100
AcDbLine
 10
111.8918640153417
 20
176.3330643476291
 30
0.0
 11
111.8918640153417
 21
176.8330634982634
 31
0.0
  0
LINE
  5
5C5
330
1F
100
AcDbEntity
  8
0
  6
Continuous
 62
     7
370
    15
100
AcDbLine
 10
111.8918640153417
 20
176.8330634982634
 30
0.0
 11
112.0258384929905
 21
176.8330634982634
 31
0.0
  0
ARC
  5
5C6
330
1F
100
AcDbEntity
  8
0
  6
Continuous
 62
     7
370
    15
100
AcDbCircle
 10
112.0258387486476
 20
175.8330643208072
 30
0.0
 40
1.000000000000039
100
AcDbArc
 50
29.99999999999791
 51
90.0
  0
ARC
  5
5C7
330
1F
100
AcDbEntity
  8
0
  6
Continuous
 62
     7
370
    15
100
AcDbCircle
 10
61.15788955621633
 20
175.8330643208072
 30
0.0
 40
1.000000000000049
100
AcDbArc
 50
90.0
 51
149.9999999999907
  0
LINE
  5
5C8
330
1F
100
AcDbEntity
  8
0
  6
Continuous
 62
     7
370
    15
100
AcDbLine
 10
61.15788981187439
 20
176.8330634982634
 30
0.0
 11
61.29186428952266
 21
176.8330634982634
 31
0.0
  0
LINE
  5
5C9
330
1F
100
AcDbEntity
  8
0
  6
Continuous
 62
     7
370
    15
100
AcDbLine
 10
61.29186428952266
 20
176.3330643476291
 30
0.0
 11
61.29186428952266
 21
176.8330634982634
 31
0.0
  0
LINE
  5
5CA
330
1F
100
AcDbEntity
  8
0
  6
Continuous
 62
     7
370
    15
100
AcDbLine
 10
61.29186428952266
 20
176.8330634982634
 30
0.0
 11
111.8918640153417
 21
176.8330634982634
 31
0.0
  0
LINE
  5
5CB
330
1F
100
AcDbEntity
  8
0
  6
Continuous
 62
     7
370
    15
100
AcDbLine
 10
99.34186391401386
 20
176.8830643446493
 30
0.0
 11
99.34186391401386
 21
176.8330634982634
 31
0.0
  0
LINE
  5
5CC
330
1F
100
AcDbEntity
  8
0
  6
Continuous
 62
     7
370
    15
100
AcDbLine
 10
101.3034024821529
 20
176.8830643446493
 30
0.0
 11
99.34186391401386
 21
176.8830643446493
 31
0.0
  0
LINE
  5
5CD
330
1F
100
AcDbEntity
  8
0
  6
Continuous
 62
     7
370
    15
100
AcDbLine
 10
101.3034024821529
 20
176.8830643446493
 30
0.0
 11
101.3034024821529
 21
176.8330634982634
 31
0.0
  0
LINE
  5
5CE
330
1F
100
AcDbEntity
  8
0
  6
Continuous
 62
     7
370
    15
100
AcDbLine
 10
72.72647987920141
 20
176.8830643446493
 30
0.0
 11
72.72647987920141
 21
176.8330634982634
 31
0.0
  0
LINE
  5
5CF
330
1F
100
AcDbEntity
  8
0
  6
Continuous
 62
     7
370
    15
100
AcDbLine
 10
73.3034025492077
 20
176.8830643446493
 30
0.0
 11
72.72647987920141
 21
176.8830643446493
 31
0.0
  0
LINE
  5
5D0
330
1F
100
AcDbEntity
  8
0
  6
Continuous
 62
     7
370
    15
100
AcDbLine
 10
73.3034025492077
 20
176.8830643446493
 30
0.0
 11
73.3034025492077
 21
176.8330634982634
 31
0.0
  0
LINE
  5
5D1
330
1F
100
AcDbEntity
  8
0
  6
Continuous
 62
     7
370
    15
100
AcDbLine
 10
58.3418646441703
 20
157.0330645368739
 30
0.0
 11
58.39186362791156
 21
157.0827268475039
 31
0.0
  0
LINE
  5
5D2
330
1F
100
AcDbEntity
  8
0
  6
Continuous
 62
     7
370
    15
100
AcDbLine
 10
58.39186362791156
 20
158.9330641032501
 30
0.0
 11
58.3418646441703
 21
158.9330641032501
 31
0.0
  0
LINE
  5
5D3
330
1F
100
AcDbEntity
  8
0
  6
Continuous
 62
     7
370
    15
100
AcDbLine
 10
114.7918646769528
 20
157.0827268475039
 30
0.0
 11
114.8418636606941
 21
157.0330645368739
 31
0.0
  0
LINE
  5
5D4
330
1F
100
AcDbEntity
  8
0
  6
Continuous
 62
     7
370
    15
100
AcDbLine
 10
114.8418636606941
 20
158.9330641032501
 30
0.0
 11
114.7918646769528
 21
158.9330641032501
 31
0.0
  0
LINE
  5
5D5
330
1F
100
AcDbEntity
  8
0
  6
Continuous
 62
     7
370
    15
100
AcDbLine
 10
71.99571017044878
 20
176.8830643446493
 30
0.0
 11
71.99571017044878
 21
176.8330634982634
 31
0.0
  0
LINE
  5
5D6
330
1F
100
AcDbEntity
  8
0
  6
Continuous
 62
     7
370
    15
100
AcDbLine
 10
61.11225873100853
 20
171.7330647112174
 30
0.0
 11
61.10701724755859
 21
171.6330648810911
 31
0.0
  0
LINE
  5
5D7
330
1F
100
AcDbEntity
  8
0
  6
Continuous
 62
     7
370
    15
100
AcDbLine
 10
112.0714695738563
 20
171.7330647112174
 30
0.0
 11
112.0767110573062
 21
171.6330648810911
 31
0.0
  0
LINE
  5
5D8
330
1F
100
AcDbEntity
  8
0
  6
Continuous
 62
     7
370
    15
100
AcDbLine
 10
93.04186437147951
 20
149.9830643220701
 30
0.0
 11
93.09186428654289
 21
150.033064320807
 31
0.0
  0
LINE
  5
5D9
330
1F
100
AcDbEntity
  8
0
  6
Continuous
 62
     7
370
    15
100
AcDbLine
 10
87.60436417869573
 20
149.9830643220701
 30
0.0
 11
93.04186437147951
 21
149.9830643220701
 31
0.0
  0
LINE
  5
5DA
330
1F
100
AcDbEntity
  8
0
  6
Continuous
 62
     7
370
    15
100
AcDbLine
 10
87.041864144702
 20
149.9830643220701
 30
0.0
 11
87.041864144702
 21
150.033064320807
 31
0.0
  0
LINE
  5
5DB
330
1F
100
AcDbEntity
  8
0
  6
Continuous
 62
     7
370
    15
100
AcDbLine
 10
87.60436417869573
 20
149.9830643220701
 30
0.0
 11
87.041864144702
 21
149.9830643220701
 31
0.0
  0
LINE
  5
5DC
330
1F
100
AcDbEntity
  8
0
  6
Continuous
 62
     7
370
    15
100
AcDbLine
 10
107.5918638693103
 20
150.033064320807
 30
0.0
 11
107.6418647156963
 21
149.9830643220701
 31
0.0
  0
LINE
  5
5DD
330
1F
100
AcDbEntity
  8
0
  6
Continuous
 62
     7
370
    15
100
AcDbLine
 10
107.6418647156963
 20
149.9830643220701
 30
0.0
 11
113.0793636279111
 21
149.9830643220701
 31
0.0
  0
LINE
  5
5DE
330
1F
100
AcDbEntity
  8
0
  6
Continuous
 62
     7
370
    15
100
AcDbLine
 10
113.6418638365278
 20
150.033064320807
 30
0.0
 11
113.6418638365278
 21
149.9830643220701
 31
0.0
  0
LINE
  5
5DF
330
1F
100
AcDbEntity
  8
0
  6
Continuous
 62
     7
370
    15
100
AcDbLine
 10
113.6418638365278
 20
149.9830643220701
 30
0.0
 11
113.0793636279111
 21
149.9830643220701
 31
0.0
  0
LINE
  5
5E0
330
1F
100
AcDbEntity
  8
0
  6
Continuous
 62
     7
370
    15
100
AcDbLine
 10
95.04186376798248
 20
149.9830643220701
 30
0.0
 11
93.04186437147951
 21
149.9830643220701
 31
0.0
  0
LINE
  5
5E1
330
1F
100
AcDbEntity
  8
0
  6
Continuous
 62
     7
370
    15
100
AcDbLine
 10
107.6418647156963
 20
149.9830643220701
 30
0.0
 11
105.6418643878707
 21
149.9830643220701
 31
0.0
  0
LINE
  5
5E2
330
1F
100
AcDbEntity
  8
0
  6
Continuous
 62
     7
370
    15
100
AcDbLine
 10
105.6418643878707
 20
149.9830643220701
 30
0.0
 11
95.04186376798248
 21
149.9830643220701
 31
0.0
  0
LINE
  5
5E3
330
1F
100
AcDbEntity
  8
0
  6
Continuous
 62
     7
370
    15
100
AcDbLine
 10
86.14186416016242
 20
150.033064320807
 30
0.0
 11
86.14186416016242
 21
149.9830643220701
 31
0.0
  0
LINE
  5
5E4
330
1F
100
AcDbEntity
  8
0
  6
Continuous
 62
     7
370
    15
100
AcDbLine
 10
86.14186416016242
 20
149.9830643220701
 30
0.0
 11
85.57936412616914
 21
149.9830643220701
 31
0.0
  0
LINE
  5
5E5
330
1F
100
AcDbEntity
  8
0
  6
Continuous
 62
     7
370
    15
100
AcDbLine
 10
80.14186393338537
 20
149.9830643220701
 30
0.0
 11
85.57936412616914
 21
149.9830643220701
 31
0.0
  0
LINE
  5
5E6
330
1F
100
AcDbEntity
  8
0
  6
Continuous
 62
     7
370
    15
100
AcDbLine
 10
80.09186401832153
 20
150.033064320807
 30
0.0
 11
80.14186393338537
 21
149.9830643220701
 31
0.0
  0
LINE
  5
5E7
330
1F
100
AcDbEntity
  8
0
  6
Continuous
 62
     7
370
    15
100
AcDbLine
 10
65.54186358916808
 20
149.9830643220701
 30
0.0
 11
65.59186443555404
 21
150.033064320807
 31
0.0
  0
LINE
  5
5E8
330
1F
100
AcDbEntity
  8
0
  6
Continuous
 62
     7
370
    15
100
AcDbLine
 10
60.10436467695331
 20
149.9830643220701
 30
0.0
 11
65.54186358916808
 21
149.9830643220701
 31
0.0
  0
LINE
  5
5E9
330
1F
100
AcDbEntity
  8
0
  6
Continuous
 62
     7
370
    15
100
AcDbLine
 10
59.54186446833706
 20
149.9830643220701
 30
0.0
 11
59.54186446833706
 21
150.033064320807
 31
0.0
  0
LINE
  5
5EA
330
1F
100
AcDbEntity
  8
0
  6
Continuous
 62
     7
370
    15
100
AcDbLine
 10
60.10436467695331
 20
149.9830643220701
 30
0.0
 11
59.54186446833706
 21
149.9830643220701
 31
0.0
  0
LINE
  5
5EB
330
1F
100
AcDbEntity
  8
0
  6
Continuous
 62
     7
370
    15
100
AcDbLine
 10
80.14186393338537
 20
149.9830643220701
 30
0.0
 11
78.14186453688193
 21
149.9830643220701
 31
0.0
  0
LINE
  5
5EC
330
1F
100
AcDbEntity
  8
0
  6
Continuous
 62
     7
370
    15
100
AcDbLine
 10
67.54186391699363
 20
149.9830643220701
 30
0.0
 11
65.54186358916808
 21
149.9830643220701
 31
0.0
  0
LINE
  5
5ED
330
1F
100
AcDbEntity
  8
0
  6
Continuous
 62
     7
370
    15
100
AcDbLine
 10
78.14186453688193
 20
149.9830643220701
 30
0.0
 11
67.54186391699363
 21
149.9830643220701
 31
0.0
  0
LINE
  5
5EE
330
1F
100
AcDbEntity
  8
0
  6
Continuous
 62
     7
370
    15
100
AcDbLine
 10
93.96686419713546
 20
165.1830646620441
 30
0.0
 11
98.34183581042385
 21
165.1830646620441
 31
0.0
  0
LWPOLYLINE
  5
5EF
330
1F
100
AcDbEntity
  8
0
  6
Continuous
 62
     7
370
    15
100
AcDbPolyline
 90
        9
 70
   128
 43
0.0
 10
98.34183581042385
 20
165.1830646620441
 10
98.34403000640964
 20
165.1792210937782
 10
98.3505269126897
 20
165.1678403319168
 10
98.36107786613798
 20
165.1493582354236
 10
98.37527681011057
 20
165.1244854034229
 10
98.39257892090131
 20
165.0941783041997
 10
98.41231830287028
 20
165.059601090972
 10
98.43373592811918
 20
165.0220827610536
 10
98.4560103701358
 20
164.983064070468
  0
LINE
  5
5F0
330
1F
100
AcDbEntity
  8
0
  6
Continuous
 62
     7
370
    15
100
AcDbLine
 10
98.4560103701358
 20
164.983064070468
 30
0.0
 11
100.1681463407287
 21
161.9839092196269
 31
0.0
  0
ARC
  5
5F1
330
1F
100
AcDbEntity
  8
0
  6
Continuous
 62
     7
370
    15
100
AcDbCircle
 10
100.3418361408073
 20
162.0830643208072
 30
0.0
 40
0.2000000000000201
100
AcDbArc
 50
209.7208601079209
 51
330.2791398923134
  0
LINE
  5
5F2
330
1F
100
AcDbEntity
  8
0
  6
Continuous
 62
     7
370
    15
100
AcDbLine
 10
100.51552593577
 20
161.9839092196269
 30
0.0
 11
102.2276619063625
 21
164.983064070468
 31
0.0
  0
LINE
  5
5F3
330
1F
100
AcDbEntity
  8
0
  6
Continuous
 62
     7
370
    15
100
AcDbLine
 10
102.3418364660749
 20
165.1830646620441
 30
0.0
 11
106.7168639587173
 21
165.1830646620441
 31
0.0
  0
LWPOLYLINE
  5
5F4
330
1F
100
AcDbEntity
  8
0
  6
Continuous
 62
     7
370
    15
100
AcDbPolyline
 90
        9
 70
   128
 43
0.0
 10
102.2276619063625
 20
164.983064070468
 10
102.249935417057
 20
165.0220827610536
 10
102.271353973628
 20
165.059601090972
 10
102.2910942869191
 20
165.0941783041997
 10
102.3083945350652
 20
165.1244854034229
 10
102.3225934790378
 20
165.1493582354236
 10
102.3331453638086
 20
165.1678403319168
 10
102.3396422700887
 20
165.1792210937782
 10
102.3418364660749
 20
165.1830646620441
  0
LINE
  5
5F5
330
1F
100
AcDbEntity
  8
0
  6
Continuous
 62
     7
370
    15
100
AcDbLine
 10
102.3418364660749
 20
165.1830646620441
 30
0.0
 11
98.34183581042385
 21
165.1830646620441
 31
0.0
  0
LINE
  5
5F6
330
1F
100
AcDbEntity
  8
0
  6
Continuous
 62
     7
370
    15
100
AcDbLine
 10
70.95603845882511
 20
164.983064070468
 30
0.0
 11
72.66817349809503
 21
161.9839092196269
 31
0.0
  0
ARC
  5
5F7
330
1F
100
AcDbEntity
  8
0
  6
Continuous
 62
     7
370
    15
100
AcDbCircle
 10
72.84186415243244
 20
162.0830643208072
 30
0.0
 40
0.2000000000000201
100
AcDbArc
 50
209.7208601076866
 51
330.2791398921372
  0
LINE
  5
5F8
330
1F
100
AcDbEntity
  8
0
  6
Continuous
 62
     7
370
    15
100
AcDbLine
 10
73.01555402445842
 20
161.9839092196269
 30
0.0
 11
74.72768999505138
 21
164.983064070468
 31
0.0
  0
LINE
  5
5F9
330
1F
100
AcDbEntity
  8
0
  6
Continuous
 62
     7
370
    15
100
AcDbLine
 10
74.84186455476333
 20
165.1830646620441
 30
0.0
 11
79.21686410772895
 21
165.1830646620441
 31
0.0
  0
LWPOLYLINE
  5
5FA
330
1F
100
AcDbEntity
  8
0
  6
Continuous
 62
     7
370
    15
100
AcDbPolyline
 90
        9
 70
   128
 43
0.0
 10
74.72768999505138
 20
164.983064070468
 10
74.74996443706846
 20
165.0220827610536
 10
74.77138206231689
 20
165.059601090972
 10
74.79112144428587
 20
165.0941783041997
 10
74.80842355507661
 20
165.1244854034229
 10
74.8226224990492
 20
165.1493582354236
 10
74.83317345249748
 20
165.1678403319168
 10
74.839670358778
 20
165.1792210937782
 10
74.84186455476333
 20
165.1830646620441
  0
LINE
  5
5FB
330
1F
100
AcDbEntity
  8
0
  6
Continuous
 62
     7
370
    15
100
AcDbLine
 10
66.46686434614753
 20
165.1830646620441
 30
0.0
 11
70.84186389911224
 21
165.1830646620441
 31
0.0
  0
LWPOLYLINE
  5
5FC
330
1F
100
AcDbEntity
  8
0
  6
Continuous
 62
     7
370
    15
100
AcDbPolyline
 90
        9
 70
   128
 43
0.0
 10
70.84186389911224
 20
165.1830646620441
 10
70.84405809509849
 20
165.1792210937782
 10
70.85055500137901
 20
165.1678403319168
 10
70.8611068861494
 20
165.1493582354236
 10
70.87530583012199
 20
165.1244854034229
 10
70.89260607826805
 20
165.0941783041997
 10
70.9123463915596
 20
165.059601090972
 10
70.9337649481306
 20
165.0220827610536
 10
70.95603845882511
 20
164.983064070468
  0
LINE
  5
5FD
330
1F
100
AcDbEntity
  8
0
  6
Continuous
 62
     7
370
    15
100
AcDbLine
 10
74.84186455476333
 20
165.1830646620441
 30
0.0
 11
70.84186389911224
 21
165.1830646620441
 31
0.0
  0
ELLIPSE
  5
5FE
330
1F
100
AcDbEntity
  8
0
  6
Continuous
 62
     7
370
    15
100
AcDbEllipse
 10
78.38986244044168
 20
171.2080643208072
 30
0.0
 11
0.0
 21
0.5000000000000142
 31
0.0
210
0.0
220
0.0
230
1.0
 40
0.0093749999999912
 41
0.0670572361733748
 42
3.074535417416397
  0
LINE
  5
5FF
330
1F
100
AcDbEntity
  8
0
  6
Continuous
 62
     7
370
    15
100
AcDbLine
 10
78.38954791295623
 20
170.7091872991367
 30
0.0
 11
67.29418054092025
 21
170.7091872991367
 31
0.0
  0
ELLIPSE
  5
600
330
1F
100
AcDbEntity
  8
0
  6
Continuous
 62
     7
370
    15
100
AcDbEllipse
 10
67.2938658644232
 20
171.2080643208072
 30
0.0
 11
0.0
 21
0.5000000000000142
 31
0.0
210
0.0
220
0.0
230
1.0
 40
0.0093750000000125
 41
3.20864988976452
 42
6.216128071007838
  0
LINE
  5
601
330
1F
100
AcDbEntity
  8
0
  6
Continuous
 62
     7
370
    15
100
AcDbLine
 10
78.38954791295623
 20
171.7069411129995
 30
0.0
 11
67.29418054092025
 21
171.7069411129995
 31
0.0
  0
ARC
  5
602
330
1F
100
AcDbEntity
  8
0
  6
Continuous
 62
     7
370
    15
100
AcDbCircle
 10
67.29542128227445
 20
171.1099913348615
 30
0.0
 40
0.4008059561584702
100
AcDbArc
 50
180.2433769751173
 51
269.8226339815733
  0
ELLIPSE
  5
603
330
1F
100
AcDbEntity
  8
0
  6
Continuous
 62
     7
370
    15
100
AcDbEllipse
 10
66.89430459467553
 20
171.2080643208072
 30
0.0
 11
0.0
 21
0.0999999999999943
 31
0.0
210
0.0
220
0.0
230
1.0
 40
0.04687499999996
 41
3.208649889765725
 42
6.21612807100424
  0
ARC
  5
604
330
1F
100
AcDbEntity
  8
0
  6
Continuous
 62
     7
370
    15
100
AcDbCircle
 10
67.29542021296333
 20
171.306138147819
 30
0.0
 40
0.4008048823108913
100
AcDbArc
 50
90.17721363293652
 51
179.7567754104439
  0
ELLIPSE
  5
605
330
1F
100
AcDbEntity
  8
0
  6
Continuous
 62
     7
370
    15
100
AcDbEllipse
 10
78.78942371018888
 20
171.2080643208072
 30
0.0
 11
0.0
 21
0.0999999999999943
 31
0.0
210
0.0
220
0.0
230
1.0
 40
0.0468750000000666
 41
0.0670572361754857
 42
3.074535417414309
  0
ARC
  5
606
330
1F
100
AcDbEntity
  8
0
  6
Continuous
 62
     7
370
    15
100
AcDbCircle
 10
78.38830637132037
 20
171.1099921360654
 30
0.0
 40
0.4008067598366765
100
AcDbArc
 50
270.1774800644823
 51
359.7565089788525
  0
ARC
  5
607
330
1F
100
AcDbEntity
  8
0
  6
Continuous
 62
     7
370
    15
100
AcDbCircle
 10
78.3883074406192
 20
171.3061373466033
 30
0.0
 40
0.4008056859991153
100
AcDbArc
 50
0.243338637877783
 51
89.82267231861165
  0
LINE
  5
608
330
1F
100
AcDbEntity
  8
0
  6
Continuous
 62
     7
370
    15
100
AcDbLine
 10
78.84186427909231
 20
171.3834201396747
 30
0.0
 11
78.78910951185275
 21
171.3078395874544
 31
0.0
  0
LINE
  5
609
330
1F
100
AcDbEntity
  8
0
  6
Continuous
 62
     7
370
    15
100
AcDbLine
 10
78.84186427909231
 20
171.3834201396747
 30
0.0
 11
78.84186427909231
 21
171.3830643744512
 31
0.0
  0
LINE
  5
60A
330
1F
100
AcDbEntity
  8
0
  6
Continuous
 62
     7
370
    15
100
AcDbLine
 10
78.84186427909231
 20
171.3830643744512
 30
0.0
 11
78.84186427909231
 21
171.0327026845265
 31
0.0
  0
LINE
  5
60B
330
1F
100
AcDbEntity
  8
0
  6
Continuous
 62
     7
370
    15
100
AcDbLine
 10
78.78910951185275
 20
171.1082888246818
 30
0.0
 11
78.84186427909231
 21
171.0327026845265
 31
0.0
  0
LINE
  5
60C
330
1F
100
AcDbEntity
  8
0
  6
Continuous
 62
     7
370
    15
100
AcDbLine
 10
66.84186324346114
 20
171.3834201396747
 30
0.0
 11
66.84186324346114
 21
171.3830643744512
 31
0.0
  0
LINE
  5
60D
330
1F
100
AcDbEntity
  8
0
  6
Continuous
 62
     7
370
    15
100
AcDbLine
 10
66.89461894202281
 20
171.3078395874544
 30
0.0
 11
66.84186324346114
 21
171.3834201396747
 31
0.0
  0
LINE
  5
60E
330
1F
100
AcDbEntity
  8
0
  6
Continuous
 62
     7
370
    15
100
AcDbLine
 10
66.84186324346114
 20
171.0327026845265
 30
0.0
 11
66.89461894202281
 21
171.1082888246818
 31
0.0
  0
LINE
  5
60F
330
1F
100
AcDbEntity
  8
0
  6
Continuous
 62
     7
370
    15
100
AcDbLine
 10
66.84186324346114
 20
171.3830643744512
 30
0.0
 11
66.84186324346114
 21
171.0327026845265
 31
0.0
  0
SPLINE
  5
610
330
1F
100
AcDbEntity
  8
0
  6
Continuous
 62
     7
370
    15
100
AcDbSpline
210
0.0
220
0.0
230
1.0
 70
     8
 71
     3
 72
    11
 73
     7
 74
     0
 42
0.000000001
 43
0.0000000001
 40
0.0
 40
0.0
 40
0.0
 40
0.0
 40
0.2016681420701963
 40
0.5107318100163388
 40
0.8197641925207525
 40
1.0
 40
1.0
 40
1.0
 40
1.0
 10
78.84186381343056
 20
171.3834201396747
 30
0.0
 10
78.83995822522797
 20
171.4126979153537
 30
0.0
 10
78.83513225468982
 20
171.4868449333806
 30
0.0
 10
78.7867765161684
 20
171.5975699763056
 30
0.0
 10
78.71156185703398
 20
171.6902251485115
 30
0.0
 10
78.64746344479886
 20
171.7215319597993
 30
0.0
 10
78.62385097760057
 20
171.7330647112174
 30
0.0
  0
ELLIPSE
  5
611
330
1F
100
AcDbEntity
  8
0
  6
Continuous
 62
     7
370
    15
100
AcDbEllipse
 10
78.44142494044104
 20
171.0339653434847
 30
0.0
 11
-0.2297069282019529
 21
0.3291016858353118
 31
0.0
210
0.0
220
0.0
230
1.0
 40
0.9966630509586781
 41
2.533790443090178
 42
4.101437296887114
  0
LINE
  5
612
330
1F
100
AcDbEntity
  8
0
  6
Continuous
 62
     7
370
    15
100
AcDbLine
 10
78.4426817284832
 20
170.6330647171784
 30
0.0
 11
78.38954791295623
 21
170.7091872991367
 31
0.0
  0
LINE
  5
613
330
1F
100
AcDbEntity
  8
0
  6
Continuous
 62
     7
370
    15
100
AcDbLine
 10
67.29418054092025
 20
170.7091872991367
 30
0.0
 11
67.24104672539329
 21
170.6330647171784
 31
0.0
  0
ELLIPSE
  5
614
330
1F
100
AcDbEntity
  8
0
  6
Continuous
 62
     7
370
    15
100
AcDbEllipse
 10
67.24230336442293
 20
171.0339653434847
 30
0.0
 11
-0.2297069282019422
 21
-0.3291016858352691
 31
0.0
210
0.0
220
0.0
230
1.0
 40
0.9966630509587801
 41
5.323340663879934
 42
6.890987517679191
  0
SPLINE
  5
615
330
1F
100
AcDbEntity
  8
0
  6
Continuous
 62
     7
370
    15
100
AcDbSpline
210
0.0
220
0.0
230
1.0
 70
     8
 71
     3
 72
    11
 73
     7
 74
     0
 42
0.000000001
 43
0.0000000001
 40
0.0
 40
0.0
 40
0.0
 40
0.0
 40
0.0650929308937088
 40
0.3766303533575598
 40
0.6883166153904855
 40
1.0
 40
1.0
 40
1.0
 40
1.0
 10
67.05606184768772
 20
171.7330647112174
 30
0.0
 10
67.04729408718254
 20
171.7297302837659
 30
0.0
 10
66.9965634672551
 20
171.7104371505128
 30
0.0
 10
66.92532828171284
 20
171.6358000055351
 30
0.0
 10
66.85499373687367
 20
171.5188912798834
 30
0.0
 10
66.84624130289489
 20
171.4285770474502
 30
0.0
 10
66.84186510610675
 20
171.3834201396747
 30
0.0
  0
LINE
  5
616
330
1F
100
AcDbEntity
  8
0
  6
Continuous
 62
     7
370
    15
100
AcDbLine
 10
78.4426817284832
 20
170.6330647171784
 30
0.0
 11
67.24104672539329
 21
170.6330647171784
 31
0.0
  0
LINE
  5
617
330
1F
100
AcDbEntity
  8
0
  6
Continuous
 62
     7
370
    15
100
AcDbLine
 10
75.59186421203708
 20
166.5330642314001
 30
0.0
 11
74.09186396616792
 21
166.5330642314001
 31
0.0
  0
LINE
  5
618
330
1F
100
AcDbEntity
  8
0
  6
Continuous
 62
     7
370
    15
100
AcDbLine
 10
74.09186396616792
 20
166.5330642314001
 30
0.0
 11
74.09186396616792
 21
168.9330638797331
 31
0.0
  0
LINE
  5
619
330
1F
100
AcDbEntity
  8
0
  6
Continuous
 62
     7
370
    15
100
AcDbLine
 10
71.59186448770856
 20
166.5330642314001
 30
0.0
 11
70.0918642418394
 21
166.5330642314001
 31
0.0
  0
LINE
  5
61A
330
1F
100
AcDbEntity
  8
0
  6
Continuous
 62
     7
370
    15
100
AcDbLine
 10
70.0918642418394
 20
166.5330642314001
 30
0.0
 11
70.87486438322162
 21
165.1830646620441
 31
0.0
  0
LINE
  5
61B
330
1F
100
AcDbEntity
  8
0
  6
Continuous
 62
     7
370
    15
100
AcDbLine
 10
78.84186427909231
 20
171.0327026845265
 30
0.0
 11
78.84186427909231
 21
170.6330647171784
 31
0.0
  0
LINE
  5
61C
330
1F
100
AcDbEntity
  8
0
  6
Continuous
 62
     7
370
    15
100
AcDbLine
 10
74.80886407065487
 20
165.1830646620441
 30
0.0
 11
75.59186421203708
 21
166.5330642314001
 31
0.0
  0
LINE
  5
61D
330
1F
100
AcDbEntity
  8
0
  6
Continuous
 62
     7
370
    15
100
AcDbLine
 10
71.59186448770856
 20
168.9330638797331
 30
0.0
 11
71.59186448770856
 21
166.5330642314001
 31
0.0
  0
LINE
  5
61E
330
1F
100
AcDbEntity
  8
0
  6
Continuous
 62
     7
370
    15
100
AcDbLine
 10
74.09186396616792
 20
168.9330638797331
 30
0.0
 11
71.59186448770856
 21
168.9330638797331
 31
0.0
  0
LINE
  5
61F
330
1F
100
AcDbEntity
  8
0
  6
Continuous
 62
     7
370
    15
100
AcDbLine
 10
66.84186324346114
 20
171.0327026845265
 30
0.0
 11
66.84186324346114
 21
170.6330647171784
 31
0.0
  0
LINE
  5
620
330
1F
100
AcDbEntity
  8
0
  6
Continuous
 62
     7
370
    15
100
AcDbLine
 10
79.21686410772895
 20
170.6330647171784
 30
0.0
 11
78.84186427909231
 21
170.6330647171784
 31
0.0
  0
LINE
  5
621
330
1F
100
AcDbEntity
  8
0
  6
Continuous
 62
     7
370
    15
100
AcDbLine
 10
66.84186324346114
 20
170.6330647171784
 30
0.0
 11
66.46686434614753
 21
170.6330647171784
 31
0.0
  0
ELLIPSE
  5
622
330
1F
100
AcDbEntity
  8
0
  6
Continuous
 62
     7
370
    15
100
AcDbEllipse
 10
94.79386391380671
 20
171.2080643208072
 30
0.0
 11
0.0
 21
0.5000000000000142
 31
0.0
210
0.0
220
0.0
230
1.0
 40
0.0093749999999912
 41
3.208649889762361
 42
6.216128071009949
  0
ARC
  5
623
330
1F
100
AcDbEntity
  8
0
  6
Continuous
 62
     7
370
    15
100
AcDbCircle
 10
94.79542007684017
 20
171.1099921391154
 30
0.0
 40
0.4008067657909759
100
AcDbArc
 50
180.2434914535228
 51
269.8223859545795
  0
ELLIPSE
  5
624
330
1F
100
AcDbEntity
  8
0
  6
Continuous
 62
     7
370
    15
100
AcDbEllipse
 10
94.39430264405904
 20
171.2080643208072
 30
0.0
 11
0.0
 21
0.0999999999999943
 31
0.0
210
0.0
220
0.0
230
1.0
 40
0.0468750000001732
 41
3.208649889765421
 42
6.216128071004543
  0
ARC
  5
625
330
1F
100
AcDbEntity
  8
0
  6
Continuous
 62
     7
370
    15
100
AcDbCircle
 10
94.79541900753771
 20
171.3061373435551
 30
0.0
 40
0.4008056919491783
100
AcDbArc
 50
90.17746166214312
 51
179.7566609299944
  0
ELLIPSE
  5
626
330
1F
100
AcDbEntity
  8
0
  6
Continuous
 62
     7
370
    15
100
AcDbEllipse
 10
105.8898604898247
 20
171.2080643208072
 30
0.0
 11
0.0
 21
0.5000000000000142
 31
0.0
210
0.0
220
0.0
230
1.0
 40
0.0093749999999912
 41
0.0670572361711061
 42
3.074535417418708
  0
LINE
  5
627
330
1F
100
AcDbEntity
  8
0
  6
Continuous
 62
     7
370
    15
100
AcDbLine
 10
105.889545901299
 20
170.7091872991367
 30
0.0
 11
94.79417759794046
 21
170.7091872991367
 31
0.0
  0
LINE
  5
628
330
1F
100
AcDbEntity
  8
0
  6
Continuous
 62
     7
370
    15
100
AcDbLine
 10
105.889545901299
 20
171.7069411129995
 30
0.0
 11
94.79417759794046
 21
171.7069411129995
 31
0.0
  0
ELLIPSE
  5
629
330
1F
100
AcDbEntity
  8
0
  6
Continuous
 62
     7
370
    15
100
AcDbEllipse
 10
106.2894217595724
 20
171.2080643208072
 30
0.0
 11
0.0
 21
0.0999999999999943
 31
0.0
210
0.0
220
0.0
230
1.0
 40
0.04687499999996
 41
0.0670572361756377
 42
3.074535417414157
  0
ARC
  5
62A
330
1F
100
AcDbEntity
  8
0
  6
Continuous
 62
     7
370
    15
100
AcDbCircle
 10
105.8883051599443
 20
171.1099913348615
 30
0.0
 40
0.4008059561584702
100
AcDbArc
 50
270.1773660184787
 51
359.7566230248827
  0
ARC
  5
62B
330
1F
100
AcDbEntity
  8
0
  6
Continuous
 62
     7
370
    15
100
AcDbCircle
 10
105.8883062292554
 20
171.306138147819
 30
0.0
 40
0.4008048823108929
100
AcDbArc
 50
0.2432245895560211
 51
89.82278636698532
  0
LINE
  5
62C
330
1F
100
AcDbEntity
  8
0
  6
Continuous
 62
     7
370
    15
100
AcDbLine
 10
106.3418613361125
 20
171.3834201396747
 30
0.0
 11
106.2891075001964
 21
171.3078395874544
 31
0.0
  0
LINE
  5
62D
330
1F
100
AcDbEntity
  8
0
  6
Continuous
 62
     7
370
    15
100
AcDbLine
 10
106.3418613361125
 20
171.3834201396747
 30
0.0
 11
106.3418613361125
 21
171.3830643744512
 31
0.0
  0
LINE
  5
62E
330
1F
100
AcDbEntity
  8
0
  6
Continuous
 62
     7
370
    15
100
AcDbLine
 10
106.3418613361125
 20
171.3830643744512
 30
0.0
 11
106.3418613361125
 21
171.0327026845265
 31
0.0
  0
LINE
  5
62F
330
1F
100
AcDbEntity
  8
0
  6
Continuous
 62
     7
370
    15
100
AcDbLine
 10
106.2891075001964
 20
171.1082888246818
 30
0.0
 11
106.3418613361125
 21
171.0327026845265
 31
0.0
  0
LINE
  5
630
330
1F
100
AcDbEntity
  8
0
  6
Continuous
 62
     7
370
    15
100
AcDbLine
 10
94.34186216312696
 20
171.3834201396747
 30
0.0
 11
94.34186216312696
 21
171.3830643744512
 31
0.0
  0
LINE
  5
631
330
1F
100
AcDbEntity
  8
0
  6
Continuous
 62
     7
370
    15
100
AcDbLine
 10
94.39461693036651
 20
171.3078395874544
 30
0.0
 11
94.34186216312696
 21
171.3834201396747
 31
0.0
  0
LINE
  5
632
330
1F
100
AcDbEntity
  8
0
  6
Continuous
 62
     7
370
    15
100
AcDbLine
 10
94.34186216312696
 20
171.0327026845265
 30
0.0
 11
94.39461693036651
 21
171.1082888246818
 31
0.0
  0
LINE
  5
633
330
1F
100
AcDbEntity
  8
0
  6
Continuous
 62
     7
370
    15
100
AcDbLine
 10
94.34186216312696
 20
171.3830643744512
 30
0.0
 11
94.34186216312696
 21
171.0327026845265
 31
0.0
  0
SPLINE
  5
634
330
1F
100
AcDbEntity
  8
0
  6
Continuous
 62
     7
370
    15
100
AcDbSpline
210
0.0
220
0.0
230
1.0
 70
     8
 71
     3
 72
    11
 73
     7
 74
     0
 42
0.000000001
 43
0.0000000001
 40
0.0
 40
0.0
 40
0.0
 40
0.0
 40
0.2016678753645464
 40
0.5107303217615797
 40
0.8197644308821898
 40
1.0
 40
1.0
 40
1.0
 40
1.0
 10
106.3418613361125
 20
171.3834201396747
 30
0.0
 10
106.339955690724
 20
171.4126978856655
 30
0.0
 10
106.3351295830409
 20
171.4868447105049
 30
0.0
 10
106.2867753647936
 20
171.5975707414362
 30
0.0
 10
106.2115589922352
 20
171.6902248473924
 30
0.0
 10
106.1474604475568
 20
171.7215319155183
 30
0.0
 10
106.1238480346208
 20
171.7330647112174
 30
0.0
  0
ELLIPSE
  5
635
330
1F
100
AcDbEntity
  8
0
  6
Continuous
 62
     7
370
    15
100
AcDbEllipse
 10
105.941422989825
 20
171.0339653434847
 30
0.0
 11
-0.2297069282019635
 21
0.3291016858353117
 31
0.0
210
0.0
220
0.0
230
1.0
 40
0.9966630509586412
 41
2.533790443090166
 42
4.101437296887109
  0
LINE
  5
636
330
1F
100
AcDbEntity
  8
0
  6
Continuous
 62
     7
370
    15
100
AcDbLine
 10
105.9426797168264
 20
170.6330647171784
 30
0.0
 11
105.889545901299
 21
170.7091872991367
 31
0.0
  0
SPLINE
  5
637
330
1F
100
AcDbEntity
  8
0
  6
Continuous
 62
     7
370
    15
100
AcDbSpline
210
0.0
220
0.0
230
1.0
 70
     8
 71
     3
 72
    11
 73
     7
 74
     0
 42
0.000000001
 43
0.0000000001
 40
0.0
 40
0.0
 40
0.0
 40
0.0
 40
0.0650909699713398
 40
0.3766285747891662
 40
0.6883160683462159
 40
1.0
 40
1.0
 40
1.0
 40
1.0
 10
94.55605983603096
 20
171.7330647112174
 30
0.0
 10
94.54729239554239
 20
171.7297302621376
 30
0.0
 10
94.4965623385608
 20
171.7104365136309
 30
0.0
 10
94.42532723556793
 20
171.6357999204109
 30
0.0
 10
94.35499175037717
 20
171.5188914300482
 30
0.0
 10
94.34623867553886
 20
171.4285770644491
 30
0.0
 10
94.34186216312696
 20
171.3834201396747
 30
0.0
  0
LINE
  5
638
330
1F
100
AcDbEntity
  8
0
  6
Continuous
 62
     7
370
    15
100
AcDbLine
 10
94.79417759794046
 20
170.7091872991367
 30
0.0
 11
94.74104471373607
 21
170.6330647171784
 31
0.0
  0
ELLIPSE
  5
639
330
1F
100
AcDbEntity
  8
0
  6
Continuous
 62
     7
370
    15
100
AcDbEllipse
 10
94.7423014138069
 20
171.0339653434847
 30
0.0
 11
-0.2297069282019422
 21
-0.3291016858352691
 31
0.0
210
0.0
220
0.0
230
1.0
 40
0.9966630509587583
 41
5.323340663879923
 42
6.890987517679228
  0
LINE
  5
63A
330
1F
100
AcDbEntity
  8
0
  6
Continuous
 62
     7
370
    15
100
AcDbLine
 10
105.9426797168264
 20
170.6330647171784
 30
0.0
 11
94.74104471373607
 21
170.6330647171784
 31
0.0
  0
LINE
  5
63B
330
1F
100
AcDbEntity
  8
0
  6
Continuous
 62
     7
370
    15
100
AcDbLine
 10
99.0918624760518
 20
168.9330638797331
 30
0.0
 11
99.0918624760518
 21
166.5330642314001
 31
0.0
  0
LINE
  5
63C
330
1F
100
AcDbEntity
  8
0
  6
Continuous
 62
     7
370
    15
100
AcDbLine
 10
106.3418613361125
 20
171.0327026845265
 30
0.0
 11
106.3418613361125
 21
170.6330647171784
 31
0.0
  0
LINE
  5
63D
330
1F
100
AcDbEntity
  8
0
  6
Continuous
 62
     7
370
    15
100
AcDbLine
 10
102.3088620589981
 20
165.1830646620441
 30
0.0
 11
103.0918622003798
 21
166.5330642314001
 31
0.0
  0
LINE
  5
63E
330
1F
100
AcDbEntity
  8
0
  6
Continuous
 62
     7
370
    15
100
AcDbLine
 10
94.34186216312696
 20
171.0327026845265
 30
0.0
 11
94.34186216312696
 21
170.6330647171784
 31
0.0
  0
LINE
  5
63F
330
1F
100
AcDbEntity
  8
0
  6
Continuous
 62
     7
370
    15
100
AcDbLine
 10
101.5918619545107
 20
168.9330638797331
 30
0.0
 11
99.0918624760518
 21
168.9330638797331
 31
0.0
  0
LINE
  5
640
330
1F
100
AcDbEntity
  8
0
  6
Continuous
 62
     7
370
    15
100
AcDbLine
 10
101.5918619545107
 20
166.5330642314001
 30
0.0
 11
101.5918619545107
 21
168.9330638797331
 31
0.0
  0
LINE
  5
641
330
1F
100
AcDbEntity
  8
0
  6
Continuous
 62
     7
370
    15
100
AcDbLine
 10
99.0918624760518
 20
166.5330642314001
 30
0.0
 11
97.59186223018264
 21
166.5330642314001
 31
0.0
  0
LINE
  5
642
330
1F
100
AcDbEntity
  8
0
  6
Continuous
 62
     7
370
    15
100
AcDbLine
 10
103.0918622003798
 20
166.5330642314001
 30
0.0
 11
101.5918619545107
 21
166.5330642314001
 31
0.0
  0
LINE
  5
643
330
1F
100
AcDbEntity
  8
0
  6
Continuous
 62
     7
370
    15
100
AcDbLine
 10
97.59186223018264
 20
166.5330642314001
 30
0.0
 11
98.3748623715644
 21
165.1830646620441
 31
0.0
  0
LINE
  5
644
330
1F
100
AcDbEntity
  8
0
  6
Continuous
 62
     7
370
    15
100
AcDbLine
 10
94.34186216312696
 20
170.6330647171784
 30
0.0
 11
93.96686419713546
 21
170.6330647171784
 31
0.0
  0
LINE
  5
645
330
1F
100
AcDbEntity
  8
0
  6
Continuous
 62
     7
370
    15
100
AcDbLine
 10
106.7168639587173
 20
170.6330647171784
 30
0.0
 11
106.3418613361125
 21
170.6330647171784
 31
0.0
  0
LINE
  5
646
330
1F
100
AcDbEntity
  8
0
  6
Continuous
 62
     7
370
    15
100
AcDbLine
 10
92.96686403322269
 20
159.0330639333773
 30
0.0
 11
92.96686403322269
 21
168.1330652387186
 31
0.0
  0
LINE
  5
647
330
1F
100
AcDbEntity
  8
0
  6
Continuous
 62
     7
370
    15
100
AcDbLine
 10
93.96686419713546
 20
168.1330652387186
 30
0.0
 11
92.96686403322269
 21
168.1330652387186
 31
0.0
  0
LINE
  5
648
330
1F
100
AcDbEntity
  8
0
  6
Continuous
 62
     7
370
    15
100
AcDbLine
 10
93.96686419713546
 20
168.1330652387186
 30
0.0
 11
93.96686419713546
 21
159.0330639333773
 31
0.0
  0
LINE
  5
649
330
1F
100
AcDbEntity
  8
0
  6
Continuous
 62
     7
370
    15
100
AcDbLine
 10
106.7168639587173
 20
171.6330648810911
 30
0.0
 11
108.4239707874064
 21
171.6330648810911
 31
0.0
  0
LINE
  5
64A
330
1F
100
AcDbEntity
  8
0
  6
Continuous
 62
     7
370
    15
100
AcDbLine
 10
108.4239707874064
 20
171.6330648810911
 30
0.0
 11
107.7168641226301
 21
168.1330652387186
 31
0.0
  0
LINE
  5
64B
330
1F
100
AcDbEntity
  8
0
  6
Continuous
 62
     7
370
    15
100
AcDbLine
 10
107.7168641226301
 20
168.1330652387186
 30
0.0
 11
106.7168639587173
 21
168.1330652387186
 31
0.0
  0
LINE
  5
64C
330
1F
100
AcDbEntity
  8
0
  6
Continuous
 62
     7
370
    15
100
AcDbLine
 10
106.7168639587173
 20
168.1330652387186
 30
0.0
 11
106.7168639587173
 21
171.6330648810911
 31
0.0
  0
LINE
  5
64D
330
1F
100
AcDbEntity
  8
0
  6
Continuous
 62
     7
370
    15
100
AcDbLine
 10
64.75975751745796
 20
171.6330648810911
 30
0.0
 11
66.46686434614753
 21
171.6330648810911
 31
0.0
  0
LINE
  5
64E
330
1F
100
AcDbEntity
  8
0
  6
Continuous
 62
     7
370
    15
100
AcDbLine
 10
66.46686434614753
 20
171.6330648810911
 30
0.0
 11
66.46686434614753
 21
168.1330652387186
 31
0.0
  0
LINE
  5
64F
330
1F
100
AcDbEntity
  8
0
  6
Continuous
 62
     7
370
    15
100
AcDbLine
 10
66.46686434614753
 20
168.1330652387186
 30
0.0
 11
65.46686418223476
 21
168.1330652387186
 31
0.0
  0
LINE
  5
650
330
1F
100
AcDbEntity
  8
0
  6
Continuous
 62
     7
370
    15
100
AcDbLine
 10
65.46686418223476
 20
168.1330652387186
 30
0.0
 11
64.75975751745796
 21
171.6330648810911
 31
0.0
  0
LINE
  5
651
330
1F
100
AcDbEntity
  8
0
  6
Continuous
 62
     7
370
    15
100
AcDbLine
 10
65.46686418223476
 20
159.0330639333773
 30
0.0
 11
65.46686418223476
 21
168.1330652387186
 31
0.0
  0
LINE
  5
652
330
1F
100
AcDbEntity
  8
0
  6
Continuous
 62
     7
370
    15
100
AcDbLine
 10
66.46686434614753
 20
168.1330652387186
 30
0.0
 11
66.46686434614753
 21
159.0330639333773
 31
0.0
  0
ARC
  5
653
330
1F
100
AcDbEntity
  8
0
  6
Continuous
 62
     7
370
    15
100
AcDbCircle
 10
59.3918641524317
 20
170.6330643208074
 30
0.0
 40
0.9999999999999964
100
AcDbArc
 50
90.0
 51
180.0
  0
LINE
  5
654
330
1F
100
AcDbEntity
  8
0
  6
Continuous
 62
     7
370
    15
100
AcDbLine
 10
64.75975751745796
 20
171.6330648810911
 30
0.0
 11
59.39186379182434
 21
171.6330648810911
 31
0.0
  0
LINE
  5
655
330
1F
100
AcDbEntity
  8
0
  6
Continuous
 62
     7
370
    15
100
AcDbLine
 10
80.21686427164173
 20
168.1330652387186
 30
0.0
 11
80.21686427164173
 21
159.0330639333773
 31
0.0
  0
LINE
  5
656
330
1F
100
AcDbEntity
  8
0
  6
Continuous
 62
     7
370
    15
100
AcDbLine
 10
80.92397093641853
 20
171.6330648810911
 30
0.0
 11
80.21686427164173
 21
168.1330652387186
 31
0.0
  0
LINE
  5
657
330
1F
100
AcDbEntity
  8
0
  6
Continuous
 62
     7
370
    15
100
AcDbLine
 10
92.25975736844635
 20
171.6330648810911
 30
0.0
 11
80.92397093641853
 21
171.6330648810911
 31
0.0
  0
LINE
  5
658
330
1F
100
AcDbEntity
  8
0
  6
Continuous
 62
     7
370
    15
100
AcDbLine
 10
92.96686403322269
 20
168.1330652387186
 30
0.0
 11
92.25975736844635
 21
171.6330648810911
 31
0.0
  0
LINE
  5
659
330
1F
100
AcDbEntity
  8
0
  6
Continuous
 62
     7
370
    15
100
AcDbLine
 10
92.96686403322269
 20
159.0330639333773
 30
0.0
 11
107.7168641226301
 21
159.0330639333773
 31
0.0
  0
LINE
  5
65A
330
1F
100
AcDbEntity
  8
0
  6
Continuous
 62
     7
370
    15
100
AcDbLine
 10
107.7168641226301
 20
168.1330652387186
 30
0.0
 11
107.7168641226301
 21
159.0330639333773
 31
0.0
  0
LINE
  5
65B
330
1F
100
AcDbEntity
  8
0
  6
Continuous
 62
     7
370
    15
100
AcDbLine
 10
113.7918645130401
 20
171.6330648810911
 30
0.0
 11
108.4239707874064
 21
171.6330648810911
 31
0.0
  0
LINE
  5
65C
330
1F
100
AcDbEntity
  8
0
  6
Continuous
 62
     7
370
    15
100
AcDbLine
 10
114.7918646769528
 20
150.033064320807
 30
0.0
 11
114.7918646769528
 21
157.0330645368739
 31
0.0
  0
LINE
  5
65D
330
1F
100
AcDbEntity
  8
0
  6
Continuous
 62
     7
370
    15
100
AcDbLine
 10
58.39186362791156
 20
150.033064320807
 30
0.0
 11
114.7918646769528
 21
150.033064320807
 31
0.0
  0
LINE
  5
65E
330
1F
100
AcDbEntity
  8
0
  6
Continuous
 62
     7
370
    15
100
AcDbLine
 10
58.39186362791156
 20
157.0330645368739
 30
0.0
 11
58.39186362791156
 21
150.033064320807
 31
0.0
  0
LINE
  5
65F
330
1F
100
AcDbEntity
  8
0
  6
Continuous
 62
     7
370
    15
100
AcDbLine
 10
65.46686418223476
 20
159.0330639333773
 30
0.0
 11
80.21686427164173
 21
159.0330639333773
 31
0.0
  0
ARC
  5
660
330
1F
100
AcDbEntity
  8
0
  6
Continuous
 62
     7
370
    15
100
AcDbCircle
 10
113.7918641524327
 20
170.6330643208074
 30
0.0
 40
1.000000000000007
100
AcDbArc
 50
0.0
 51
90.0
  0
LINE
  5
661
330
1F
100
AcDbEntity
  8
0
  6
Continuous
 62
     7
370
    15
100
AcDbLine
 10
114.7918646769528
 20
157.0330645368739
 30
0.0
 11
114.7918646769528
 21
170.6330647171784
 31
0.0
  0
LINE
  5
662
330
1F
100
AcDbEntity
  8
0
  6
Continuous
 62
     7
370
    15
100
AcDbLine
 10
58.39186362791156
 20
170.6330647171784
 30
0.0
 11
58.39186362791156
 21
157.0330645368739
 31
0.0
  0
LINE
  5
663
330
1F
100
AcDbEntity
  8
0
  6
Continuous
 62
     7
370
    15
100
AcDbLine
 10
106.7168639587173
 20
159.0330639333773
 30
0.0
 11
106.7168639587173
 21
168.1330652387186
 31
0.0
  0
LINE
  5
664
330
1F
100
AcDbEntity
  8
0
  6
Continuous
 62
     7
370
    15
100
AcDbLine
 10
116.5918634818801
 20
157.0330645368739
 30
0.0
 11
116.5918634818801
 21
150.033064320807
 31
0.0
  0
LINE
  5
665
330
1F
100
AcDbEntity
  8
0
  6
Continuous
 62
     7
370
    15
100
AcDbLine
 10
116.5918634818801
 20
150.033064320807
 30
0.0
 11
114.7918646769528
 21
150.033064320807
 31
0.0
  0
LINE
  5
666
330
1F
100
AcDbEntity
  8
0
  6
Continuous
 62
     7
370
    15
100
AcDbLine
 10
114.7918646769528
 20
157.0330645368739
 30
0.0
 11
116.5918634818801
 21
157.0330645368739
 31
0.0
  0
LINE
  5
667
330
1F
100
AcDbEntity
  8
0
  6
Continuous
 62
     7
370
    15
100
AcDbLine
 10
79.21686410772895
 20
171.6330648810911
 30
0.0
 11
80.92397093641853
 21
171.6330648810911
 31
0.0
  0
LINE
  5
668
330
1F
100
AcDbEntity
  8
0
  6
Continuous
 62
     7
370
    15
100
AcDbLine
 10
80.21686427164173
 20
168.1330652387186
 30
0.0
 11
79.21686410772895
 21
168.1330652387186
 31
0.0
  0
LINE
  5
669
330
1F
100
AcDbEntity
  8
0
  6
Continuous
 62
     7
370
    15
100
AcDbLine
 10
79.21686410772895
 20
168.1330652387186
 30
0.0
 11
79.21686410772895
 21
171.6330648810911
 31
0.0
  0
LINE
  5
66A
330
1F
100
AcDbEntity
  8
0
  6
Continuous
 62
     7
370
    15
100
AcDbLine
 10
79.21686410772895
 20
159.0330639333773
 30
0.0
 11
79.21686410772895
 21
168.1330652387186
 31
0.0
  0
LINE
  5
66B
330
1F
100
AcDbEntity
  8
0
  6
Continuous
 62
     7
370
    15
100
AcDbLine
 10
56.59186482298469
 20
150.033064320807
 30
0.0
 11
56.59186482298469
 21
157.0330645368739
 31
0.0
  0
LINE
  5
66C
330
1F
100
AcDbEntity
  8
0
  6
Continuous
 62
     7
370
    15
100
AcDbLine
 10
58.39186362791156
 20
150.033064320807
 30
0.0
 11
56.59186482298469
 21
150.033064320807
 31
0.0
  0
LINE
  5
66D
330
1F
100
AcDbEntity
  8
0
  6
Continuous
 62
     7
370
    15
100
AcDbLine
 10
56.59186482298469
 20
157.0330645368739
 30
0.0
 11
58.39186362791156
 21
157.0330645368739
 31
0.0
  0
LINE
  5
66E
330
1F
100
AcDbEntity
  8
0
  6
Continuous
 62
     7
370
    15
100
AcDbLine
 10
93.96686419713546
 20
171.6330648810911
 30
0.0
 11
93.96686419713546
 21
168.1330652387186
 31
0.0
  0
LINE
  5
66F
330
1F
100
AcDbEntity
  8
0
  6
Continuous
 62
     7
370
    15
100
AcDbLine
 10
92.25975736844635
 20
171.6330648810911
 30
0.0
 11
93.96686419713546
 21
171.6330648810911
 31
0.0
  0
LINE
  5
670
330
1F
100
AcDbEntity
  8
0
  6
Continuous
 62
     7
370
    15
100
AcDbLine
 10
79.21686410772895
 20
171.6330648810911
 30
0.0
 11
78.74722327905988
 21
171.6330648810911
 31
0.0
  0
LINE
  5
671
330
1F
100
AcDbEntity
  8
0
  6
Continuous
 62
     7
370
    15
100
AcDbLine
 10
66.92965529727985
 20
171.6330648810911
 30
0.0
 11
66.46686434614753
 21
171.6330648810911
 31
0.0
  0
LINE
  5
672
330
1F
100
AcDbEntity
  8
0
  6
Continuous
 62
     7
370
    15
100
AcDbLine
 10
81.46686401087141
 20
171.6330648810911
 30
0.0
 11
81.46686401087141
 21
171.7330647112174
 31
0.0
  0
LINE
  5
673
330
1F
100
AcDbEntity
  8
0
  6
Continuous
 62
     7
370
    15
100
AcDbLine
 10
64.21686351168204
 20
171.7330647112174
 30
0.0
 11
64.21686351168204
 21
171.6330648810911
 31
0.0
  0
LINE
  5
674
330
1F
100
AcDbEntity
  8
0
  6
Continuous
 62
     7
370
    15
100
AcDbLine
 10
106.7168639587173
 20
171.6330648810911
 30
0.0
 11
106.2472221987257
 21
171.6330648810911
 31
0.0
  0
LINE
  5
675
330
1F
100
AcDbEntity
  8
0
  6
Continuous
 62
     7
370
    15
100
AcDbLine
 10
94.42965235430097
 20
171.6330648810911
 30
0.0
 11
93.96686419713546
 21
171.6330648810911
 31
0.0
  0
LINE
  5
676
330
1F
100
AcDbEntity
  8
0
  6
Continuous
 62
     7
370
    15
100
AcDbLine
 10
108.9668647931823
 20
171.6330648810911
 30
0.0
 11
108.9668647931823
 21
171.7330647112174
 31
0.0
  0
LINE
  5
677
330
1F
100
AcDbEntity
  8
0
  6
Continuous
 62
     7
370
    15
100
AcDbLine
 10
91.71686429399347
 20
171.7330647112174
 30
0.0
 11
91.71686429399347
 21
171.6330648810911
 31
0.0
  0
LINE
  5
678
330
1F
100
AcDbEntity
  8
0
  6
Continuous
 62
     7
370
    15
100
AcDbLine
 10
83.59186412635541
 20
171.7330647112174
 30
0.0
 11
83.59186412635541
 21
171.6330648810911
 31
0.0
  0
LINE
  5
679
330
1F
100
AcDbEntity
  8
0
  6
Continuous
 62
     7
370
    15
100
AcDbLine
 10
89.59186417850901
 20
171.7330647112174
 30
0.0
 11
89.59186417850901
 21
171.6330648810911
 31
0.0
  0
SPLINE
  5
67A
330
1F
100
AcDbEntity
  8
0
  6
Continuous
 62
     8
370
    15
100
AcDbSpline
210
0.0
220
0.0
230
1.0
 70
     8
 71
     3
 72
    10
 73
     6
 74
     0
 42
0.000000001
 43
0.0000000001
 40
0.0
 40
0.0
 40
0.0
 40
0.0
 40
0.3223717362841028
 40
0.641414792007177
 40
1.0
 40
1.0
 40
1.0
 40
1.0
 10
58.39186362791156
 20
176.1866175980616
 30
0.0
 10
58.3939668947994
 20
176.2103097295484
 30
0.0
 10
58.39815171108853
 20
176.2574493571259
 30
0.0
 10
58.43537617046172
 20
176.3075035006776
 30
0.0
 10
58.47765464214194
 20
176.314587646353
 30
0.0
 10
58.50002743172741
 20
176.3183364124346
 30
0.0
  0
SPLINE
  5
67B
330
1F
100
AcDbEntity
  8
0
  6
Continuous
 62
     8
370
    15
100
AcDbSpline
210
0.0
220
0.0
230
1.0
 70
     8
 71
     3
 72
    10
 73
     6
 74
     0
 42
0.000000001
 43
0.0000000001
 40
0.0
 40
0.0
 40
0.0
 40
0.0
 40
0.333601251539988
 40
0.6650714572291882
 40
1.0
 40
1.0
 40
1.0
 40
1.0
 10
114.6941708015208
 20
176.3250214458747
 30
0.0
 10
114.7124656379058
 20
176.3179027449649
 30
0.0
 10
114.7489384432021
 20
176.3037108174284
 30
0.0
 10
114.7857808300925
 20
176.2579329240492
 30
0.0
 10
114.7898297239646
 20
176.2104714752298
 30
0.0
 10
114.7918646769528
 20
176.1866175980616
 30
0.0
  0
LINE
  5
67C
330
1F
100
AcDbEntity
  8
0
  6
Continuous
 62
     8
370
    15
100
AcDbLine
 10
58.36906485128498
 20
176.2995758504911
 30
0.0
 11
58.45964528489208
 21
176.3250214458747
 31
0.0
  0
LINE
  5
67D
330
1F
100
AcDbEntity
  8
0
  6
Continuous
 62
     8
370
    15
100
AcDbLine
 10
114.7216261910209
 20
176.3168947250891
 30
0.0
 11
114.8146634535794
 21
176.2995758504911
 31
0.0
  0
SPLINE
  5
67E
330
1F
100
AcDbEntity
  8
0
  6
Continuous
 62
     8
370
    15
100
AcDbSpline
210
0.0
220
0.0
230
1.0
 70
    24
 71
     3
 72
    10
 73
     6
 74
     0
 42
0.000000001
 43
0.0000000001
 40
0.0
 40
0.0
 40
0.0
 40
0.0
 40
0.1799788555603315
 40
0.7023098073194457
 40
1.0
 40
1.0
 40
1.0
 40
1.0
 10
76.79186403620292
 20
176.8795215935755
 30
0.0
 10
76.79186403620292
 20
176.8802995091854
 30
0.0
 10
76.79186403620292
 20
176.8833350755602
 30
0.0
 10
76.79186403620292
 20
176.8675490000931
 30
0.0
 10
76.79186403620292
 20
176.8422483345833
 30
0.0
 10
76.79186403620292
 20
176.8330634982634
 30
0.0
  0
SPLINE
  5
67F
330
1F
100
AcDbEntity
  8
0
  6
Continuous
 62
     8
370
    15
100
AcDbSpline
210
0.0
220
0.0
230
1.0
 70
    24
 71
     3
 72
    10
 73
     6
 74
     0
 42
0.000000001
 43
0.0000000001
 40
0.0
 40
0.0
 40
0.0
 40
0.0
 40
0.2303229032254709
 40
0.752908079500768
 40
1.0
 40
1.0
 40
1.0
 40
1.0
 10
96.3918642686615
 20
176.8330634982634
 30
0.0
 10
96.3918642686615
 20
176.8405118534473
 30
0.0
 10
96.3918642686615
 20
176.8648599609008
 30
0.0
 10
96.3918642686615
 20
176.8817490243485
 30
0.0
 10
96.3918642686615
 20
176.8798274280819
 30
0.0
 10
96.3918642686615
 20
176.8792105318351
 30
0.0
  0
LINE
  5
680
330
1F
100
AcDbEntity
  8
0
  6
Continuous
 62
     8
370
    15
100
AcDbLine
 10
87.60436417869573
 20
150.033064320807
 30
0.0
 11
87.60436417869573
 21
149.9830643220701
 31
0.0
  0
LINE
  5
681
330
1F
100
AcDbEntity
  8
0
  6
Continuous
 62
     8
370
    15
100
AcDbLine
 10
113.0793636279111
 20
149.9830643220701
 30
0.0
 11
113.0793636279111
 21
150.033064320807
 31
0.0
  0
LINE
  5
682
330
1F
100
AcDbEntity
  8
0
  6
Continuous
 62
     8
370
    15
100
AcDbLine
 10
95.04186376798248
 20
150.033064320807
 30
0.0
 11
95.04186376798248
 21
149.9830643220701
 31
0.0
  0
LINE
  5
683
330
1F
100
AcDbEntity
  8
0
  6
Continuous
 62
     8
370
    15
100
AcDbLine
 10
105.6418643878707
 20
150.033064320807
 30
0.0
 11
105.6418643878707
 21
149.9830643220701
 31
0.0
  0
LINE
  5
684
330
1F
100
AcDbEntity
  8
0
  6
Continuous
 62
     8
370
    15
100
AcDbLine
 10
85.57936412616914
 20
149.9830643220701
 30
0.0
 11
85.57936412616914
 21
150.033064320807
 31
0.0
  0
LINE
  5
685
330
1F
100
AcDbEntity
  8
0
  6
Continuous
 62
     8
370
    15
100
AcDbLine
 10
60.10436467695331
 20
150.033064320807
 30
0.0
 11
60.10436467695331
 21
149.9830643220701
 31
0.0
  0
LINE
  5
686
330
1F
100
AcDbEntity
  8
0
  6
Continuous
 62
     8
370
    15
100
AcDbLine
 10
78.14186453688193
 20
150.033064320807
 30
0.0
 11
78.14186453688193
 21
149.9830643220701
 31
0.0
  0
LINE
  5
687
330
1F
100
AcDbEntity
  8
0
  6
Continuous
 62
     8
370
    15
100
AcDbLine
 10
67.54186391699363
 20
150.033064320807
 30
0.0
 11
67.54186391699363
 21
149.9830643220701
 31
0.0
  0
LINE
  5
688
330
1F
100
AcDbEntity
  8
0
  6
Continuous
 62
     8
370
    15
100
AcDbLine
 10
98.4560103701358
 20
164.983064070468
 30
0.0
 11
93.96686419713546
 21
164.983064070468
 31
0.0
  0
LINE
  5
689
330
1F
100
AcDbEntity
  8
0
  6
Continuous
 62
     8
370
    15
100
AcDbLine
 10
106.7168639587173
 20
164.983064070468
 30
0.0
 11
102.2276619063625
 21
164.983064070468
 31
0.0
  0
LINE
  5
68A
330
1F
100
AcDbEntity
  8
0
  6
Continuous
 62
     8
370
    15
100
AcDbLine
 10
70.95603845882511
 20
164.983064070468
 30
0.0
 11
66.46686434614753
 21
164.983064070468
 31
0.0
  0
LINE
  5
68B
330
1F
100
AcDbEntity
  8
0
  6
Continuous
 62
     8
370
    15
100
AcDbLine
 10
79.21686410772895
 20
164.983064070468
 30
0.0
 11
74.72768999505138
 21
164.983064070468
 31
0.0
  0
LINE
  5
68C
330
1F
100
AcDbEntity
  8
0
  6
Continuous
 62
     8
370
    15
100
AcDbLine
 10
78.38954791295623
 20
171.7069411129995
 30
0.0
 11
78.41350991147852
 21
171.7412696631003
 31
0.0
  0
LINE
  5
68D
330
1F
100
AcDbEntity
  8
0
  6
Continuous
 62
     8
370
    15
100
AcDbLine
 10
67.27021761107494
 20
171.7412696631003
 30
0.0
 11
67.29418054092025
 21
171.7069411129995
 31
0.0
  0
LINE
  5
68E
330
1F
100
AcDbEntity
  8
0
  6
Continuous
 62
     8
370
    15
100
AcDbLine
 10
105.889545901299
 20
171.7069411129995
 30
0.0
 11
105.9135088311443
 21
171.7412696631003
 31
0.0
  0
LINE
  5
68F
330
1F
100
AcDbEntity
  8
0
  6
Continuous
 62
     8
370
    15
100
AcDbLine
 10
94.77021653074075
 20
171.7412696631003
 30
0.0
 11
94.79417759794046
 21
171.7069411129995
 31
0.0
  0
SPLINE
  5
690
330
1F
100
AcDbEntity
  8
0
  6
Continuous
 62
     7
370
    15
100
AcDbSpline
210
0.0
220
0.0
230
1.0
 70
     8
 71
     3
 72
     9
 73
     5
 74
     0
 42
0.000000001
 43
0.0000000001
 40
0.0
 40
0.0
 40
0.0
 40
0.0
 40
0.4891089822978157
 40
1.0
 40
1.0
 40
1.0
 40
1.0
 10
142.5904653024233
 20
176.3330643476291
 30
0.0
 10
142.5777663999636
 20
176.3328490640537
 30
0.0
 10
142.5518030606688
 20
176.3324089094393
 30
0.0
 10
142.5203350722529
 20
176.327886812723
 30
0.0
 10
142.5042583596266
 20
176.3255765141292
 30
0.0
  0
SPLINE
  5
691
330
1F
100
AcDbEntity
  8
0
  6
Continuous
 62
     7
370
    15
100
AcDbSpline
210
0.0
220
0.0
230
1.0
 70
     8
 71
     3
 72
    13
 73
     9
 74
     0
 42
0.000000001
 43
0.0000000001
 40
0.0
 40
0.0
 40
0.0
 40
0.0
 40
0.2257241907240821
 40
0.4770551086878005
 40
0.6129835199078111
 40
0.7553898278903865
 40
0.9042745293098423
 40
1.0
 40
1.0
 40
1.0
 40
1.0
 10
220.8333595644983
 20
168.747641280417
 30
0.0
 10
221.0346757069117
 20
168.7305120909412
 30
0.0
 10
221.4601458077957
 20
168.6943105330982
 30
0.0
 10
221.9429783645844
 20
168.6386589926099
 30
0.0
 10
222.268601107636
 20
168.5881481338036
 30
0.0
 10
222.4686516111126
 20
168.5455557652229
 30
0.0
 10
222.5871275515844
 20
168.5056366355578
 30
0.0
 10
222.6153120824263
 20
168.4796720561488
 30
0.0
 10
222.6263417851485
 20
168.4695111067343
 30
0.0
  0
LINE
  5
692
330
1F
100
AcDbEntity
  8
0
  6
Continuous
 62
     7
370
    15
100
AcDbLine
 10
222.6333602320708
 20
168.4502401800199
 30
0.0
 11
222.6263417851485
 21
168.4695111067343
 31
0.0
  0
LINE
  5
693
330
1F
100
AcDbEntity
  8
0
  6
Continuous
 62
     7
370
    15
100
AcDbLine
 10
222.6333602320708
 20
168.4502401800199
 30
0.0
 11
222.6333602320708
 21
157.533064153169
 31
0.0
  0
LINE
  5
694
330
1F
100
AcDbEntity
  8
0
  6
Continuous
 62
     7
370
    15
100
AcDbLine
 10
222.6333602320708
 20
157.533064153169
 30
0.0
 11
220.8333595644983
 21
157.533064153169
 31
0.0
  0
LINE
  5
695
330
1F
100
AcDbEntity
  8
0
  6
Continuous
 62
     7
370
    15
100
AcDbLine
 10
220.8333595644983
 20
157.533064153169
 30
0.0
 11
220.8333595644983
 21
168.5381663442893
 31
0.0
  0
LINE
  5
696
330
1F
100
AcDbEntity
  8
0
  6
Continuous
 62
     7
370
    15
100
AcDbLine
 10
220.8333595644983
 20
168.5381663442893
 30
0.0
 11
220.8333595644983
 21
168.747641280417
 31
0.0
  0
LINE
  5
697
330
1F
100
AcDbEntity
  8
0
  6
Continuous
 62
     7
370
    15
100
AcDbLine
 10
220.267819518999
 20
169.3109070361896
 30
0.0
 11
220.4799226474317
 21
169.2059320808692
 31
0.0
  0
SPLINE
  5
698
330
1F
100
AcDbEntity
  8
0
  6
Continuous
 62
     7
370
    15
100
AcDbSpline
210
0.0
220
0.0
230
1.0
 70
     8
 71
     3
 72
     9
 73
     5
 74
     0
 42
0.000000001
 43
0.0000000001
 40
0.0
 40
0.0
 40
0.0
 40
0.0
 40
0.5069780013488302
 40
1.0
 40
1.0
 40
1.0
 40
1.0
 10
220.4799226474317
 20
169.2059320808692
 30
0.0
 10
220.5586431619452
 20
169.1433811199789
 30
0.0
 10
220.7139171862707
 20
169.0200010902257
 30
0.0
 10
220.7860529373208
 20
168.8353947671347
 30
0.0
 10
220.821617449478
 20
168.7443797887607
 30
0.0
  0
LINE
  5
699
330
1F
100
AcDbEntity
  8
0
  6
Continuous
 62
     7
370
    15
100
AcDbLine
 10
220.8333595644983
 20
157.533064153169
 30
0.0
 11
142.4333586346663
 21
157.533064153169
 31
0.0
  0
LINE
  5
69A
330
1F
100
AcDbEntity
  8
0
  6
Continuous
 62
     7
370
    15
100
AcDbLine
 10
142.4333586346663
 20
174.1688513608022
 30
0.0
 11
142.4333586346663
 21
157.533064153169
 31
0.0
  0
LINE
  5
69B
330
1F
100
AcDbEntity
  8
0
  6
Continuous
 62
     7
370
    15
100
AcDbLine
 10
197.5282060902871
 20
174.1688513608022
 30
0.0
 11
142.4333586346663
 21
174.1688513608022
 31
0.0
  0
ARC
  5
69C
330
1F
100
AcDbEntity
  8
0
  6
Continuous
 62
     7
370
    15
100
AcDbCircle
 10
188.5159157275045
 20
76.33306432080724
 30
0.0
 40
98.25000000000001
100
AcDbArc
 50
71.14498925226105
 51
84.73696564247148
  0
SPLINE
  5
69D
330
1F
100
AcDbEntity
  8
0
  6
Continuous
 62
     7
370
    15
100
AcDbSpline
210
0.0
220
0.0
230
1.0
 70
     8
 71
     3
 72
    11
 73
     7
 74
     0
 42
0.000000001
 43
0.0000000001
 40
0.0
 40
0.0
 40
0.0
 40
0.0
 40
0.25783598802347
 40
0.5259449517493239
 40
0.9964464958066658
 40
1.0
 40
1.0
 40
1.0
 40
1.0
 10
220.2712505113638
 20
171.0001585484791
 30
0.0
 10
220.2710902924225
 20
170.855247560003
 30
0.0
 10
220.2707634709266
 20
170.5596518853025
 30
0.0
 10
220.2692639986706
 20
169.9996136890353
 30
0.0
 10
220.2710589231758
 20
169.5818577643689
 30
0.0
 10
220.2687310384328
 20
169.3155648805722
 30
0.0
 10
220.2687135886706
 20
169.3135687561083
 30
0.0
  0
LINE
  5
69E
330
1F
100
AcDbEntity
  8
0
  6
Continuous
 62
     7
370
    15
100
AcDbLine
 10
220.7828893315348
 20
170.8505397142215
 30
0.0
 11
220.2712505113638
 21
171.0001585484791
 31
0.0
  0
SPLINE
  5
69F
330
1F
100
AcDbEntity
  8
0
  6
Continuous
 62
     7
370
    15
100
AcDbSpline
210
0.0
220
0.0
230
1.0
 70
     8
 71
     3
 72
     9
 73
     5
 74
     0
 42
0.000000001
 43
0.0000000001
 40
0.0
 40
0.0
 40
0.0
 40
0.0
 40
0.0013878747177884
 40
1.0
 40
1.0
 40
1.0
 40
1.0
 10
220.8258307528056
 20
170.8370355368901
 30
0.0
 10
220.8258108845887
 20
170.8370417456798
 30
0.0
 10
220.8114953153447
 20
170.8415153413833
 30
0.0
 10
220.7971823911669
 20
170.8460306611513
 30
0.0
 10
220.7828893315348
 20
170.8505397142215
 30
0.0
  0
SPLINE
  5
6A0
330
1F
100
AcDbEntity
  8
0
  6
Continuous
 62
     7
370
    15
100
AcDbSpline
210
0.0
220
0.0
230
1.0
 70
     8
 71
     3
 72
    11
 73
     7
 74
     0
 42
0.000000001
 43
0.0000000001
 40
0.0
 40
0.0
 40
0.0
 40
0.0
 40
0.3863195239244504
 40
0.7636011595390875
 40
0.9999748005368395
 40
1.0
 40
1.0
 40
1.0
 40
1.0
 10
222.4799788546118
 20
169.322993740563
 30
0.0
 10
222.3439948621883
 20
169.591213779361
 30
0.0
 10
222.0752082027982
 20
170.1213788886915
 30
0.0
 10
221.4372762068685
 20
170.597652893481
 30
0.0
 10
221.0005863307017
 20
170.7846096294364
 30
0.0
 10
220.8258493792812
 20
170.8370299490287
 30
0.0
 10
220.8258307528056
 20
170.8370355368901
 30
0.0
  0
SPLINE
  5
6A1
330
1F
100
AcDbEntity
  8
0
  6
Continuous
 62
     7
370
    15
100
AcDbSpline
210
0.0
220
0.0
230
1.0
 70
     8
 71
     3
 72
    13
 73
     9
 74
     0
 42
0.000000001
 43
0.0000000001
 40
0.0
 40
0.0
 40
0.0
 40
0.0
 40
0.0616259458514445
 40
0.3707139039066777
 40
0.4834079042869048
 40
0.596719709718704
 40
0.7807012766049811
 40
1.0
 40
1.0
 40
1.0
 40
1.0
 10
222.6333602320708
 20
168.4502401800199
 30
0.0
 10
222.6332299899516
 20
168.468919396383
 30
0.0
 10
222.6324465120913
 20
168.5812851398071
 30
0.0
 10
222.6217363559256
 20
168.7143629100577
 30
0.0
 10
222.5974922464027
 20
168.8737482660443
 30
0.0
 10
222.5737448158755
 20
168.9964345535671
 30
0.0
 10
222.5426679976856
 20
169.1432372987468
 30
0.0
 10
222.5020606285632
 20
169.259675900825
 30
0.0
 10
222.4799788546118
 20
169.322993740563
 30
0.0
  0
ARC
  5
6A2
330
1F
100
AcDbEntity
  8
0
  6
Continuous
 62
     7
370
    15
100
AcDbCircle
 10
188.5159157275045
 20
76.33306432080724
 30
0.0
 40
99.85355339059328
100
AcDbArc
 50
71.45658986596614
 51
90.0
  0
LINE
  5
6A3
330
1F
100
AcDbEntity
  8
0
  6
Continuous
 62
     7
370
    15
100
AcDbLine
 10
220.2712505113638
 20
171.0001585484791
 30
0.0
 11
220.2716491174253
 21
171.0025185198827
 31
0.0
  0
SPLINE
  5
6A4
330
1F
100
AcDbEntity
  8
0
  6
Continuous
 62
     7
370
    15
100
AcDbSpline
210
0.0
220
0.0
230
1.0
 70
     8
 71
     3
 72
    10
 73
     6
 74
     0
 42
0.000000001
 43
0.0000000001
 40
0.0
 40
0.0
 40
0.0
 40
0.0
 40
0.0082538615274088
 40
0.7788924007063893
 40
1.0
 40
1.0
 40
1.0
 40
1.0
 10
188.5159158137001
 20
174.875958025579
 30
0.0
 10
188.5407142681927
 20
174.8744694643955
 30
0.0
 10
190.880870774313
 20
174.7339983660625
 30
0.0
 10
193.8862611523962
 20
174.50031803732
 30
0.0
 10
196.8642664272413
 20
174.2292789282895
 30
0.0
 10
197.5282060902871
 20
174.1688513608022
 30
0.0
  0
LINE
  5
6A5
330
1F
100
AcDbEntity
  8
0
  6
Continuous
 62
     7
370
    15
100
AcDbLine
 10
188.5159158137001
 20
174.875958025579
 30
0.0
 11
188.5159158137001
 21
176.1866175980616
 31
0.0
  0
LINE
  5
6A6
330
1F
100
AcDbEntity
  8
0
  6
Continuous
 62
     7
370
    15
100
AcDbLine
 10
142.4333586346663
 20
174.875958025579
 30
0.0
 11
142.4333586346663
 21
174.1688513608022
 31
0.0
  0
LINE
  5
6A7
330
1F
100
AcDbEntity
  8
0
  6
Continuous
 62
     7
370
    15
100
AcDbLine
 10
142.4333586346663
 20
174.875958025579
 30
0.0
 11
188.5159158137001
 21
174.875958025579
 31
0.0
  0
LINE
  5
6A8
330
1F
100
AcDbEntity
  8
0
  6
Continuous
 62
     7
370
    15
100
AcDbLine
 10
140.6340545963801
 20
170.7330645473047
 30
0.0
 11
140.6340545963801
 21
157.533064153169
 31
0.0
  0
LINE
  5
6A9
330
1F
100
AcDbEntity
  8
0
  6
Continuous
 62
     7
370
    15
100
AcDbLine
 10
140.6333616923846
 20
171.0453146548319
 30
0.0
 11
140.6340545963801
 21
170.7330645473047
 31
0.0
  0
LINE
  5
6AA
330
1F
100
AcDbEntity
  8
0
  6
Continuous
 62
     7
370
    15
100
AcDbLine
 10
140.6333616923846
 20
171.0453146548319
 30
0.0
 11
140.6333616923846
 21
174.1688513608022
 31
0.0
  0
LINE
  5
6AB
330
1F
100
AcDbEntity
  8
0
  6
Continuous
 62
     7
370
    15
100
AcDbLine
 10
142.4333586346663
 20
174.1688513608022
 30
0.0
 11
140.6333616923846
 21
174.1688513608022
 31
0.0
  0
LINE
  5
6AC
330
1F
100
AcDbEntity
  8
0
  6
Continuous
 62
     7
370
    15
100
AcDbLine
 10
142.4333586346663
 20
157.533064153169
 30
0.0
 11
140.6340545963801
 21
157.533064153169
 31
0.0
  0
LINE
  5
6AD
330
1F
100
AcDbEntity
  8
0
  6
Continuous
 62
     7
370
    15
100
AcDbLine
 10
140.9262514662298
 20
174.875958025579
 30
0.0
 11
142.4333586346663
 21
174.875958025579
 31
0.0
  0
ARC
  5
6AE
330
1F
100
AcDbEntity
  8
0
  6
Continuous
 62
     7
370
    15
100
AcDbCircle
 10
141.6333599459683
 20
174.1688507584343
 30
0.0
 40
1.000000000000028
100
AcDbArc
 50
135.0000000000089
 51
180.0
  0
LINE
  5
6AF
330
1F
100
AcDbEntity
  8
0
  6
Continuous
 62
     7
370
    15
100
AcDbLine
 10
188.5159158137001
 20
176.1866175980616
 30
0.0
 11
142.4333586346663
 21
176.1866175980616
 31
0.0
  0
LINE
  5
6B0
330
1F
100
AcDbEntity
  8
0
  6
Continuous
 62
     7
370
    15
100
AcDbLine
 10
142.4333586346663
 20
174.875958025579
 30
0.0
 11
142.4333586346663
 21
176.1866175980616
 31
0.0
  0
SPLINE
  5
6B1
330
1F
100
AcDbEntity
  8
0
  6
Continuous
 62
     7
370
    15
100
AcDbSpline
210
0.0
220
0.0
230
1.0
 70
     8
 71
     3
 72
    11
 73
     7
 74
     0
 42
0.000000001
 43
0.0000000001
 40
0.0
 40
0.0
 40
0.0
 40
0.0
 40
0.2599668540426312
 40
0.4999951981447952
 40
0.740004198989666
 40
1.0
 40
1.0
 40
1.0
 40
1.0
 10
142.4333586346663
 20
176.1866175980616
 30
0.0
 10
142.412669127106
 20
176.1961837054922
 30
0.0
 10
142.3728769217871
 20
176.2145822347892
 30
0.0
 10
142.3167244898215
 20
176.2230766435308
 30
0.0
 10
142.2701973720498
 20
176.2145859757018
 30
0.0
 10
142.2482995010334
 20
176.1961855651397
 30
0.0
 10
142.236912901357
 20
176.1866175980616
 30
0.0
  0
LINE
  5
6B2
330
1F
100
AcDbEntity
  8
0
  6
Continuous
 62
     7
370
    15
100
AcDbLine
 10
140.9262514662298
 20
174.875958025579
 30
0.0
 11
142.236912901357
 21
176.1866175980616
 31
0.0
  0
LINE
  5
6B3
330
1F
100
AcDbEntity
  8
0
  6
Continuous
 62
     7
370
    15
100
AcDbLine
 10
220.8333595644983
 20
157.533064153169
 30
0.0
 11
220.8333595644983
 21
157.0330645368739
 31
0.0
  0
LINE
  5
6B4
330
1F
100
AcDbEntity
  8
0
  6
Continuous
 62
     7
370
    15
100
AcDbLine
 10
222.1333592187914
 20
157.533064153169
 30
0.0
 11
222.1333592187914
 21
157.0330645368739
 31
0.0
  0
LINE
  5
6B5
330
1F
100
AcDbEntity
  8
0
  6
Continuous
 62
     7
370
    15
100
AcDbLine
 10
142.4333586346663
 20
157.533064153169
 30
0.0
 11
142.4333586346663
 21
157.0330645368739
 31
0.0
  0
LINE
  5
6B6
330
1F
100
AcDbEntity
  8
0
  6
Continuous
 62
     7
370
    15
100
AcDbLine
 10
161.7833602231296
 20
157.0330645368739
 30
0.0
 11
167.7833602752841
 21
157.0330645368739
 31
0.0
  0
LINE
  5
6B7
330
1F
100
AcDbEntity
  8
0
  6
Continuous
 62
     7
370
    15
100
AcDbLine
 10
141.1343201052702
 20
157.533064153169
 30
0.0
 11
141.1343201052702
 21
157.0330645368739
 31
0.0
  0
ARC
  5
6B8
330
1F
100
AcDbEntity
  8
0
  6
Continuous
 62
     7
370
    15
100
AcDbCircle
 10
221.3386755460858
 20
170.678858842701
 30
0.0
 40
0.5816980642316154
100
AcDbArc
 50
150.3069013160603
 51
162.8342215634225
  0
SPLINE
  5
6B9
330
1F
100
AcDbEntity
  8
0
  6
Continuous
 62
     7
370
    15
100
AcDbSpline
210
0.0
220
0.0
230
1.0
 70
     8
 71
     3
 72
    11
 73
     7
 74
     0
 42
0.000000001
 43
0.0000000001
 40
0.0
 40
0.0
 40
0.0
 40
0.0
 40
0.2604026123493584
 40
0.6309798629240295
 40
0.9243634285884624
 40
1.0
 40
1.0
 40
1.0
 40
1.0
 10
220.8333595644983
 20
170.9670053274679
 30
0.0
 10
221.0270758819231
 20
170.8853981437131
 30
0.0
 10
221.4964686207756
 20
170.6876563117311
 30
0.0
 10
222.0531229422261
 20
170.1681870873193
 30
0.0
 10
222.3630309471448
 20
169.6552093307995
 30
0.0
 10
222.4659630523781
 20
169.3771450582206
 30
0.0
 10
222.4870606314696
 20
169.3201513440657
 30
0.0
  0
ARC
  5
6BA
330
1F
100
AcDbEntity
  8
0
  6
Continuous
 62
     7
370
    15
100
AcDbCircle
 10
222.4810033623433
 20
169.3153030276288
 30
0.0
 40
0.0077586520434914
100
AcDbArc
 50
38.67423112298256
 51
97.58790415770382
  0
SPLINE
  5
6BB
330
1F
100
AcDbEntity
  8
0
  6
Continuous
 62
     7
370
    15
100
AcDbSpline
210
0.0
220
0.0
230
1.0
 70
     8
 71
     3
 72
    14
 73
    10
 74
     0
 42
0.000000001
 43
0.0000000001
 40
0.0
 40
0.0
 40
0.0
 40
0.0
 40
0.266390671167809
 40
0.3911382378994419
 40
0.5269583201370533
 40
0.6119686584810883
 40
0.9228043284518713
 40
0.9724919474561312
 40
1.0
 40
1.0
 40
1.0
 40
1.0
 10
222.4870606314696
 20
169.3201513440657
 30
0.0
 10
222.5114851441592
 20
169.243318320863
 30
0.0
 10
222.5473473641593
 20
169.1305053113982
 30
0.0
 10
222.5805662144464
 20
168.9810303320195
 30
0.0
 10
222.5985605645167
 20
168.8829943294448
 30
0.0
 10
222.6214141728813
 20
168.7242410583125
 30
0.0
 10
222.6311531739491
 20
168.596998829951
 30
0.0
 10
222.6332709874848
 20
168.4815342858713
 30
0.0
 10
222.6333367854852
 20
168.4584618542302
 30
0.0
 10
222.6333602320708
 20
168.4502401800199
 30
0.0
  0
LINE
  5
6BC
330
1F
100
AcDbEntity
  8
0
  6
Continuous
 62
     7
370
    15
100
AcDbLine
 10
142.5904653024233
 20
176.3330643476291
 30
0.0
 11
188.5159158137001
 21
176.3330643476291
 31
0.0
  0
LINE
  5
6BD
330
1F
100
AcDbEntity
  8
0
  6
Continuous
 62
     7
370
    15
100
AcDbLine
 10
188.5159158137001
 20
176.3330643476291
 30
0.0
 11
188.5159158137001
 21
176.1866175980616
 31
0.0
  0
LINE
  5
6BE
330
1F
100
AcDbEntity
  8
0
  6
Continuous
 62
     7
370
    15
100
AcDbLine
 10
142.5904653024233
 20
176.3330643476291
 30
0.0
 11
142.5415224384817
 21
176.3183364124346
 31
0.0
  0
SPLINE
  5
6BF
330
1F
100
AcDbEntity
  8
0
  6
Continuous
 62
     7
370
    15
100
AcDbSpline
210
0.0
220
0.0
230
1.0
 70
     8
 71
     3
 72
    11
 73
     7
 74
     0
 42
0.000000001
 43
0.0000000001
 40
0.0
 40
0.0
 40
0.0
 40
0.0
 40
0.0591366153738636
 40
0.1413957753638817
 40
0.5706973209984289
 40
1.0
 40
1.0
 40
1.0
 40
1.0
 10
220.324537063793
 20
171.1392441244169
 30
0.0
 10
220.3243667333516
 20
171.1391907390037
 30
0.0
 10
220.3239594728973
 20
171.139063094365
 30
0.0
 10
220.3206969440878
 20
171.133733495053
 30
0.0
 10
220.3082330332056
 20
171.1038186100166
 30
0.0
 10
220.2838437667499
 20
171.0362852463094
 30
0.0
 10
220.2716491174253
 20
171.0025185198827
 30
0.0
  0
LINE
  5
6C0
330
1F
100
AcDbEntity
  8
0
  6
Continuous
 62
     7
370
    15
100
AcDbLine
 10
220.324537063793
 20
171.1392441244169
 30
0.0
 11
220.8333595644983
 21
170.9670053274679
 31
0.0
  0
SPLINE
  5
6C1
330
1F
100
AcDbEntity
  8
0
  6
Continuous
 62
     7
370
    15
100
AcDbSpline
210
0.0
220
0.0
230
1.0
 70
     8
 71
     3
 72
    11
 73
     7
 74
     0
 42
0.000000001
 43
0.0000000001
 40
0.0
 40
0.0
 40
0.0
 40
0.0
 40
0.2503977917348795
 40
0.5004660265692625
 40
0.7489368247279807
 40
1.0
 40
1.0
 40
1.0
 40
1.0
 10
142.5904653024233
 20
176.3330643476291
 30
0.0
 10
142.5607666501048
 20
176.3315755252873
 30
0.0
 10
142.5014084328579
 20
176.3285998400914
 30
0.0
 10
142.4112108232227
 20
176.302766721213
 30
0.0
 10
142.3181925945234
 20
176.2581711855808
 30
0.0
 10
142.264099705739
 20
176.2105511700391
 30
0.0
 10
142.236912901357
 20
176.1866175980616
 30
0.0
  0
ARC
  5
6C2
330
1F
100
AcDbEntity
  8
0
  6
Continuous
 62
     7
370
    15
100
AcDbCircle
 10
188.5159157275045
 20
76.33306432080724
 30
0.0
 40
100.0
100
AcDbArc
 50
71.4527736431947
 51
90.0
  0
LINE
  5
6C3
330
1F
100
AcDbEntity
  8
0
  6
Continuous
 62
     7
370
    15
100
AcDbLine
 10
188.5159158137001
 20
176.3330643476291
 30
0.0
 11
188.5159158137001
 21
176.8330634982634
 31
0.0
  0
ARC
  5
6C4
330
1F
100
AcDbEntity
  8
0
  6
Continuous
 62
     7
370
    15
100
AcDbCircle
 10
188.5159157275045
 20
76.33306432080724
 30
0.0
 40
100.5
100
AcDbArc
 50
76.83419860945662
 51
90.0
  0
SPLINE
  5
6C5
330
1F
100
AcDbEntity
  8
0
  6
Continuous
 62
     7
370
    15
100
AcDbSpline
210
0.0
220
0.0
230
1.0
 70
     8
 71
     3
 72
    12
 73
     8
 74
     0
 42
0.000000001
 43
0.0000000001
 40
0.0
 40
0.0
 40
0.0
 40
0.0
 40
0.0062988741158417
 40
0.0900298554325268
 40
0.4442456241000839
 40
0.8002707873084485
 40
1.0
 40
1.0
 40
1.0
 40
1.0
 10
211.4067732345618
 20
174.1914247573657
 30
0.0
 10
211.4271460082116
 20
174.1866502009969
 30
0.0
 10
211.7183342162573
 20
174.1184074306637
 30
0.0
 10
213.1520850732365
 20
173.7684523557362
 30
0.0
 10
215.6865107860656
 20
173.0289963118019
 30
0.0
 10
218.5319201826558
 20
171.9875067325109
 30
0.0
 10
220.2249218926097
 20
171.2367980076236
 30
0.0
 10
220.8333595644983
 20
170.9670053274679
 30
0.0
  0
LINE
  5
6C6
330
1F
100
AcDbEntity
  8
0
  6
Continuous
 62
     7
370
    15
100
AcDbLine
 10
146.6941296112093
 20
176.3330643476291
 30
0.0
 11
146.6941296112093
 21
176.8330634982634
 31
0.0
  0
LINE
  5
6C7
330
1F
100
AcDbEntity
  8
0
  6
Continuous
 62
     7
370
    15
100
AcDbLine
 10
146.6941296112093
 20
176.8330634982634
 30
0.0
 11
188.5159158137001
 21
176.8330634982634
 31
0.0
  0
ARC
  5
6C8
330
1F
100
AcDbEntity
  8
0
  6
Continuous
 62
     7
370
    15
100
AcDbCircle
 10
146.5601557249263
 20
175.8330643208072
 30
0.0
 40
1.000000000000029
100
AcDbArc
 50
90.0
 51
149.9999999999907
  0
LINE
  5
6C9
330
1F
100
AcDbEntity
  8
0
  6
Continuous
 62
     7
370
    15
100
AcDbLine
 10
146.5601569962061
 20
176.8330634982634
 30
0.0
 11
146.6941296112093
 21
176.8330634982634
 31
0.0
  0
LINE
  5
6CA
330
1F
100
AcDbEntity
  8
0
  6
Continuous
 62
     7
370
    15
100
AcDbLine
 10
157.417254800752
 20
176.8830643446493
 30
0.0
 11
157.417254800752
 21
176.8330634982634
 31
0.0
  0
LINE
  5
6CB
330
1F
100
AcDbEntity
  8
0
  6
Continuous
 62
     7
370
    15
100
AcDbLine
 10
158.233359734372
 20
176.8830643446493
 30
0.0
 11
158.233359734372
 21
176.8330634982634
 31
0.0
  0
LINE
  5
6CC
330
1F
100
AcDbEntity
  8
0
  6
Continuous
 62
     7
370
    15
100
AcDbLine
 10
156.6648504685911
 20
176.8830643446493
 30
0.0
 11
156.6648504685911
 21
176.8330634982634
 31
0.0
  0
LINE
  5
6CD
330
1F
100
AcDbEntity
  8
0
  6
Continuous
 62
     7
370
    15
100
AcDbLine
 10
155.2333592426337
 20
176.8830643446493
 30
0.0
 11
155.2333592426337
 21
176.8330634982634
 31
0.0
  0
LINE
  5
6CE
330
1F
100
AcDbEntity
  8
0
  6
Continuous
 62
     7
370
    15
100
AcDbLine
 10
155.8102837752856
 20
176.8830643446493
 30
0.0
 11
155.8102837752856
 21
176.8330634982634
 31
0.0
  0
LINE
  5
6CF
330
1F
100
AcDbEntity
  8
0
  6
Continuous
 62
     7
370
    15
100
AcDbLine
 10
155.8102837752856
 20
176.8830643446493
 30
0.0
 11
155.2333592426337
 21
176.8830643446493
 31
0.0
  0
LINE
  5
6D0
330
1F
100
AcDbEntity
  8
0
  6
Continuous
 62
     7
370
    15
100
AcDbLine
 10
194.8950116511739
 20
176.6304077060266
 30
0.0
 11
194.8950116511739
 21
176.650095865254
 31
0.0
  0
SPLINE
  5
6D1
330
1F
100
AcDbEntity
  8
0
  6
Continuous
 62
     7
370
    15
100
AcDbSpline
210
0.0
220
0.0
230
1.0
 70
    24
 71
     3
 72
    11
 73
     7
 74
     0
 42
0.000000001
 43
0.0000000001
 40
0.0
 40
0.0
 40
0.0
 40
0.0
 40
0.2500011524253618
 40
0.4999991711911793
 40
0.7499988475746383
 40
1.0
 40
1.0
 40
1.0
 40
1.0
 10
194.8950116511739
 20
176.650095865254
 30
0.0
 10
194.9212191715226
 20
176.650095865254
 30
0.0
 10
194.9736338837204
 20
176.650095865254
 30
0.0
 10
195.0397428736112
 20
176.650095865254
 30
0.0
 10
195.0859932105748
 20
176.650095865254
 30
0.0
 10
195.0920058927747
 20
176.650095865254
 30
0.0
 10
195.09501224275
 20
176.650095865254
 30
0.0
  0
LINE
  5
6D2
330
1F
100
AcDbEntity
  8
0
  6
Continuous
 62
     7
370
    15
100
AcDbLine
 10
195.09501224275
 20
176.650095865254
 30
0.0
 11
195.09501224275
 21
176.6174865366268
 31
0.0
  0
LINE
  5
6D3
330
1F
100
AcDbEntity
  8
0
  6
Continuous
 62
     7
370
    15
100
AcDbLine
 10
194.8302670371092
 20
176.6520665438219
 30
0.0
 11
194.8292006727608
 21
176.6345725805803
 31
0.0
  0
SPLINE
  5
6D4
330
1F
100
AcDbEntity
  8
0
  6
Continuous
 62
     7
370
    15
100
AcDbSpline
210
0.0
220
0.0
230
1.0
 70
     8
 71
     3
 72
    17
 73
    13
 74
     0
 42
0.000000001
 43
0.0000000001
 40
0.0
 40
0.0
 40
0.0
 40
0.0
 40
0.1094983323161661
 40
0.2190020068713402
 40
0.3285018123812737
 40
0.4380064080411322
 40
0.5475082608241994
 40
0.6570132893524422
 40
0.7665200958726333
 40
0.876019071710519
 40
0.9855151328141273
 40
1.0
 40
1.0
 40
1.0
 40
1.0
 10
194.8950116511739
 20
176.650095865254
 30
0.0
 10
194.8946535168281
 20
176.6537393901138
 30
0.0
 10
194.8939372306652
 20
176.6610266175947
 30
0.0
 10
194.8883510784783
 20
176.6707245804454
 30
0.0
 10
194.8801263011517
 20
176.6780980026786
 30
0.0
 10
194.8698557060249
 20
176.6823143413879
 30
0.0
 10
194.8587863494929
 20
176.6828966310098
 30
0.0
 10
194.8481444491983
 20
176.6797820919045
 30
0.0
 10
194.839129914091
 20
176.6733184044855
 30
0.0
 10
194.8327796454575
 20
176.6642464278751
 30
0.0
 10
194.8306101471196
 20
176.6566390356946
 30
0.0
 10
194.8303029297492
 20
176.6525448708866
 30
0.0
 10
194.8302670371092
 20
176.6520665438219
 30
0.0
  0
SPLINE
  5
6D5
330
1F
100
AcDbEntity
  8
0
  6
Continuous
 62
     7
370
    15
100
AcDbSpline
210
0.0
220
0.0
230
1.0
 70
     8
 71
     3
 72
    11
 73
     7
 74
     0
 42
0.000000001
 43
0.0000000001
 40
0.0
 40
0.0
 40
0.0
 40
0.0
 40
0.2500016927642685
 40
0.4999995860584372
 40
0.7499994573168896
 40
1.0
 40
1.0
 40
1.0
 40
1.0
 10
194.8302670371092
 20
176.6520665438219
 30
0.0
 10
194.8041079844317
 20
176.6536611174059
 30
0.0
 10
194.7517902766378
 20
176.6568502403396
 30
0.0
 10
194.685803709586
 20
176.6608712894793
 30
0.0
 10
194.6396385775399
 20
176.663685257581
 30
0.0
 10
194.6336376031447
 20
176.6640506469883
 30
0.0
 10
194.6306371119178
 20
176.6642333419366
 30
0.0
  0
SPLINE
  5
6D6
330
1F
100
AcDbEntity
  8
0
  6
Continuous
 62
     7
370
    15
100
AcDbSpline
210
0.0
220
0.0
230
1.0
 70
     8
 71
     3
 72
    18
 73
    14
 74
     0
 42
0.000000001
 43
0.0000000001
 40
0.0
 40
0.0
 40
0.0
 40
0.0
 40
0.0000838039914699
 40
0.109586528413772
 40
0.2190900341913405
 40
0.3285915934137085
 40
0.4380938162468354
 40
0.5475953256584607
 40
0.6570972248208009
 40
0.7665993893896694
 40
0.8761030099630026
 40
0.9856050531134554
 40
1.0
 40
1.0
 40
1.0
 40
1.0
 10
194.6306371119178
 20
176.6642333419366
 30
0.0
 10
194.6306383528229
 20
176.6642532101631
 30
0.0
 10
194.632261026639
 20
176.6902339527959
 30
0.0
 10
194.6443024066454
 20
176.7420602136479
 30
0.0
 10
194.6870453063941
 20
176.8090642831756
 30
0.0
 10
194.7495628619761
 20
176.8582348820067
 30
0.0
 10
194.8248294431621
 20
176.8839163991291
 30
0.0
 10
194.9043562975055
 20
176.8832401198109
 30
0.0
 10
194.9791689292512
 20
176.8562851138639
 30
0.0
 10
195.0408719550958
 20
176.8060613607416
 30
0.0
 10
195.082357556407
 20
176.7383308734287
 30
0.0
 10
195.0945493564479
 20
176.6829389214657
 30
0.0
 10
195.0949640604483
 20
176.6535145320275
 30
0.0
 10
195.09501224275
 20
176.650095865254
 30
0.0
  0
LINE
  5
6D7
330
1F
100
AcDbEntity
  8
0
  6
Continuous
 62
     7
370
    15
100
AcDbLine
 10
194.6295828547629
 20
176.6469368190809
 30
0.0
 11
194.6306371119178
 21
176.6642333419366
 31
0.0
  0
ARC
  5
6D8
330
1F
100
AcDbEntity
  8
0
  6
Continuous
 62
     7
370
    15
100
AcDbCircle
 10
142.5904667271545
 20
175.8330643208072
 30
0.0
 40
0.5000000000000148
100
AcDbArc
 50
105.8107715442038
 51
135.0000000000089
  0
LINE
  5
6D9
330
1F
100
AcDbEntity
  8
0
  6
Continuous
 62
     7
370
    15
100
AcDbLine
 10
142.695861215547
 20
149.9830643220701
 30
0.0
 11
148.6708617758306
 21
149.9830643220701
 31
0.0
  0
LINE
  5
6DA
330
1F
100
AcDbEntity
  8
0
  6
Continuous
 62
     7
370
    15
100
AcDbLine
 10
149.233358259157
 20
150.033064320807
 30
0.0
 11
149.233358259157
 21
149.9830643220701
 31
0.0
  0
LINE
  5
6DB
330
1F
100
AcDbEntity
  8
0
  6
Continuous
 62
     7
370
    15
100
AcDbLine
 10
149.233358259157
 20
149.9830643220701
 30
0.0
 11
148.6708617758306
 21
149.9830643220701
 31
0.0
  0
LINE
  5
6DC
330
1F
100
AcDbEntity
  8
0
  6
Continuous
 62
     7
370
    15
100
AcDbLine
 10
142.1333610069312
 20
149.9830643220701
 30
0.0
 11
142.1333610069312
 21
150.033064320807
 31
0.0
  0
LINE
  5
6DD
330
1F
100
AcDbEntity
  8
0
  6
Continuous
 62
     7
370
    15
100
AcDbLine
 10
142.695861215547
 20
149.9830643220701
 30
0.0
 11
142.1333610069312
 21
149.9830643220701
 31
0.0
  0
LINE
  5
6DE
330
1F
100
AcDbEntity
  8
0
  6
Continuous
 62
     7
370
    15
100
AcDbLine
 10
222.6833610784567
 20
157.0330645368739
 30
0.0
 11
222.6833610784567
 21
150.033064320807
 31
0.0
  0
LINE
  5
6DF
330
1F
100
AcDbEntity
  8
0
  6
Continuous
 62
     7
370
    15
100
AcDbLine
 10
220.8833604108843
 20
150.033064320807
 30
0.0
 11
220.8833604108843
 21
157.0330645368739
 31
0.0
  0
LINE
  5
6E0
330
1F
100
AcDbEntity
  8
0
  6
Continuous
 62
     7
370
    15
100
AcDbLine
 10
220.8833604108843
 20
157.0330645368739
 30
0.0
 11
222.6833610784567
 21
157.0330645368739
 31
0.0
  0
LINE
  5
6E1
330
1F
100
AcDbEntity
  8
0
  6
Continuous
 62
     7
370
    15
100
AcDbLine
 10
222.6833610784567
 20
150.033064320807
 30
0.0
 11
220.8833604108843
 21
150.033064320807
 31
0.0
  0
LINE
  5
6E2
330
1F
100
AcDbEntity
  8
0
  6
Continuous
 62
     7
370
    15
100
AcDbLine
 10
142.4833594810523
 20
157.0330645368739
 30
0.0
 11
142.4833594810523
 21
150.033064320807
 31
0.0
  0
LINE
  5
6E3
330
1F
100
AcDbEntity
  8
0
  6
Continuous
 62
     7
370
    15
100
AcDbLine
 10
161.7833602231296
 20
155.0330642090483
 30
0.0
 11
161.7833602231296
 21
157.0330645368739
 31
0.0
  0
LINE
  5
6E4
330
1F
100
AcDbEntity
  8
0
  6
Continuous
 62
     7
370
    15
100
AcDbLine
 10
161.7833602231296
 20
155.0330642090483
 30
0.0
 11
167.7833602752841
 21
155.0330642090483
 31
0.0
  0
LINE
  5
6E5
330
1F
100
AcDbEntity
  8
0
  6
Continuous
 62
     7
370
    15
100
AcDbLine
 10
167.7833602752841
 20
155.0330642090483
 30
0.0
 11
167.7833602752841
 21
157.0330645368739
 31
0.0
  0
LINE
  5
6E6
330
1F
100
AcDbEntity
  8
0
  6
Continuous
 62
     7
370
    15
100
AcDbLine
 10
142.4833594810523
 20
157.0330645368739
 30
0.0
 11
161.7833602231296
 21
157.0330645368739
 31
0.0
  0
LINE
  5
6E7
330
1F
100
AcDbEntity
  8
0
  6
Continuous
 62
     7
370
    15
100
AcDbLine
 10
167.7833602752841
 20
157.0330645368739
 30
0.0
 11
220.8833604108843
 21
157.0330645368739
 31
0.0
  0
LINE
  5
6E8
330
1F
100
AcDbEntity
  8
0
  6
Continuous
 62
     7
370
    15
100
AcDbLine
 10
142.4833594810523
 20
150.033064320807
 30
0.0
 11
220.8833604108843
 21
150.033064320807
 31
0.0
  0
LINE
  5
6E9
330
1F
100
AcDbEntity
  8
0
  6
Continuous
 62
     7
370
    15
100
AcDbLine
 10
140.6833588134802
 20
150.033064320807
 30
0.0
 11
140.6833588134802
 21
157.0330645368739
 31
0.0
  0
LINE
  5
6EA
330
1F
100
AcDbEntity
  8
0
  6
Continuous
 62
     7
370
    15
100
AcDbLine
 10
140.6833588134802
 20
157.0330645368739
 30
0.0
 11
142.4833594810523
 21
157.0330645368739
 31
0.0
  0
LINE
  5
6EB
330
1F
100
AcDbEntity
  8
0
  6
Continuous
 62
     7
370
    15
100
AcDbLine
 10
142.4833594810523
 20
150.033064320807
 30
0.0
 11
140.6833588134802
 21
150.033064320807
 31
0.0
  0
LINE
  5
6EC
330
1F
100
AcDbEntity
  8
0
  6
Continuous
 62
     7
370
    15
100
AcDbLine
 10
167.7833602752841
 20
156.2330644988759
 30
0.0
 11
161.7833602231296
 21
156.2330644988759
 31
0.0
  0
LINE
  5
6ED
330
1F
100
AcDbEntity
  8
0
  6
Continuous
 62
     7
370
    15
100
AcDbLine
 10
140.6833588134802
 20
157.0330645368739
 30
0.0
 11
140.6833588134802
 21
157.533064153169
 31
0.0
  0
SPLINE
  5
6EE
330
1F
100
AcDbEntity
  8
0
  6
Continuous
 62
     8
370
    15
100
AcDbSpline
210
0.0
220
0.0
230
1.0
 70
     8
 71
     3
 72
    10
 73
     6
 74
     0
 42
0.000000001
 43
0.0000000001
 40
0.0
 40
0.0
 40
0.0
 40
0.0
 40
0.3585850695971335
 40
0.6776327001899736
 40
0.9999999999999998
 40
0.9999999999999998
 40
0.9999999999999998
 40
0.9999999999999998
 10
142.5415224384817
 20
176.3183364124346
 30
0.0
 10
142.5191495956303
 20
176.3145875129111
 30
0.0
 10
142.4768707301739
 20
176.3075030659491
 30
0.0
 10
142.4396471245134
 20
176.2574503661179
 30
0.0
 10
142.4354620180118
 20
176.2103098466426
 30
0.0
 10
142.4333586346663
 20
176.1866175980616
 30
0.0
  0
LINE
  5
6EF
330
1F
100
AcDbEntity
  8
0
  6
Continuous
 62
     8
370
    15
100
AcDbLine
 10
142.695861215547
 20
150.033064320807
 30
0.0
 11
142.695861215547
 21
149.9830643220701
 31
0.0
  0
LINE
  5
6F0
330
1F
100
AcDbEntity
  8
0
  6
Continuous
 62
     8
370
    15
100
AcDbLine
 10
148.6708617758306
 20
149.9830643220701
 30
0.0
 11
148.6708617758306
 21
150.033064320807
 31
0.0
  0
SPLINE
  5
6F1
330
1F
100
AcDbEntity
  8
0
  6
Continuous
 62
     7
370
    15
100
AcDbSpline
210
0.0
220
0.0
230
1.0
 70
     8
 71
     3
 72
     9
 73
     5
 74
     0
 42
0.000000001
 43
0.0000000001
 40
0.0
 40
0.0
 40
0.0
 40
0.0
 40
0.4648757174388961
 40
1.0
 40
1.0
 40
1.0
 40
1.0
 10
58.38241629171402
 20
291.025444403186
 30
0.0
 10
58.32062448768696
 20
291.0296437396163
 30
0.0
 10
58.18770336122501
 20
291.0386769850028
 30
0.0
 10
58.08550606189378
 20
291.024339796796
 30
0.0
 10
58.03081780540973
 20
291.0166676192433
 30
0.0
  0
SPLINE
  5
6F2
330
1F
100
AcDbEntity
  8
0
  6
Continuous
 62
     7
370
    15
100
AcDbSpline
210
0.0
220
0.0
230
1.0
 70
     8
 71
     3
 72
     9
 73
     5
 74
     0
 42
0.000000001
 43
0.0000000001
 40
0.0
 40
0.0
 40
0.0
 40
0.0
 40
0.6997569988255924
 40
1.0
 40
1.0
 40
1.0
 40
1.0
 10
115.1430328922274
 20
291.0183700769092
 30
0.0
 10
115.090333599042
 20
291.0256870422649
 30
0.0
 10
115.0150227507415
 20
291.03614347981
 30
0.0
 10
114.9218605123938
 20
291.029654057906
 30
0.0
 10
114.8938892023566
 20
291.0277056543972
 30
0.0
  0
ARC
  5
6F3
330
1F
100
AcDbEntity
  8
0
  6
Continuous
 62
     7
370
    15
100
AcDbCircle
 10
67.29855336442281
 20
210.4779516606476
 30
0.0
 40
0.4000000000000127
100
AcDbArc
 50
182.6837751594445
 51
269.8010978497674
  0
LINE
  5
6F4
330
1F
100
AcDbEntity
  8
0
  6
Continuous
 62
     7
370
    15
100
AcDbLine
 10
67.29855403172999
 20
210.0779521315243
 30
0.0
 11
78.38517535346776
 21
210.0779521315243
 31
0.0
  0
ARC
  5
6F5
330
1F
100
AcDbEntity
  8
0
  6
Continuous
 62
     7
370
    15
100
AcDbCircle
 10
78.38517494044075
 20
210.4779516606476
 30
0.0
 40
0.4000000000000194
100
AcDbArc
 50
270.1142361548688
 51
357.3162248405554
  0
LINE
  5
6F6
330
1F
100
AcDbEntity
  8
0
  6
Continuous
 62
     7
370
    15
100
AcDbLine
 10
94.79855108875065
 20
210.0779521315243
 30
0.0
 11
105.8851724104884
 21
210.0779521315243
 31
0.0
  0
ARC
  5
6F7
330
1F
100
AcDbEntity
  8
0
  6
Continuous
 62
     7
370
    15
100
AcDbCircle
 10
105.8851729898238
 20
210.4779516606476
 30
0.0
 40
0.4000000000000194
100
AcDbArc
 50
270.1142361548688
 51
357.3162248405554
  0
ARC
  5
6F8
330
1F
100
AcDbEntity
  8
0
  6
Continuous
 62
     7
370
    15
100
AcDbCircle
 10
94.79855141380587
 20
210.4779516606476
 30
0.0
 40
0.400000000000019
100
AcDbArc
 50
182.6837751594445
 51
269.8010978497674
  0
SPLINE
  5
6F9
330
1F
100
AcDbEntity
  8
0
  6
Continuous
 62
     7
370
    15
100
AcDbSpline
210
0.0
220
0.0
230
1.0
 70
    24
 71
     3
 72
    18
 73
    14
 74
     0
 42
0.000000001
 43
0.0000000001
 40
0.0
 40
0.0
 40
0.0
 40
0.0
 40
0.0000838039914699
 40
0.109586528413772
 40
0.2190900341913405
 40
0.3285915934137085
 40
0.4380938162468354
 40
0.5475953256584607
 40
0.6570972248208009
 40
0.7665993893896694
 40
0.8761030099630026
 40
0.9856050531134554
 40
1.0
 40
1.0
 40
1.0
 40
1.0
 10
96.39186426866084
 20
263.0502288265969
 30
0.0
 10
96.39186426866084
 20
263.0502300675029
 30
0.0
 10
96.39186426866084
 20
263.0518527413186
 30
0.0
 10
96.39186426866084
 20
263.063894121325
 30
0.0
 10
96.39186426866084
 20
263.1066370210736
 30
0.0
 10
96.39186426866084
 20
263.1691545766561
 30
0.0
 10
96.39186426866084
 20
263.2444211578421
 30
0.0
 10
96.39186426866084
 20
263.3239480121855
 30
0.0
 10
96.39186426866084
 20
263.3987606439313
 30
0.0
 10
96.39186426866084
 20
263.4604636697753
 30
0.0
 10
96.39186426866084
 20
263.501949271087
 30
0.0
 10
96.39186426866084
 20
263.514141071128
 30
0.0
 10
96.39186426866084
 20
263.5145557751283
 30
0.0
 10
96.39186426866084
 20
263.5146039574296
 30
0.0
  0
LINE
  5
6FA
330
1F
100
AcDbEntity
  8
0
  6
Continuous
 62
     7
370
    15
100
AcDbLine
 10
96.39186426866084
 20
263.0502288265969
 30
0.0
 11
76.79186403620272
 21
263.0502288265969
 31
0.0
  0
SPLINE
  5
6FB
330
1F
100
AcDbEntity
  8
0
  6
Continuous
 62
     7
370
    15
100
AcDbSpline
210
0.0
220
0.0
230
1.0
 70
    24
 71
     3
 72
    18
 73
    14
 74
     0
 42
0.000000001
 43
0.0000000001
 40
0.0
 40
0.0
 40
0.0
 40
0.0
 40
0.0000836409071975
 40
0.1095863786455107
 40
0.2190885172232002
 40
0.3285911228513541
 40
0.438093743304865
 40
0.5475965146711932
 40
0.6570973856953272
 40
0.7666009890631888
 40
0.8761034947507589
 40
0.9856034395262701
 40
1.0
 40
1.0
 40
1.0
 40
1.0
 10
76.79186403620272
 20
263.5146039574296
 30
0.0
 10
76.79186403620272
 20
263.5146039582963
 30
0.0
 10
76.79186403620363
 20
263.5146050942229
 30
0.0
 10
76.79186403620272
 20
263.505681033006
 30
0.0
 10
76.79186403620272
 20
263.4671150280868
 30
0.0
 10
76.79186403620272
 20
263.4076991757487
 30
0.0
 10
76.79186403620272
 20
263.3341352874989
 30
0.0
 10
76.79186403620272
 20
263.2547141053709
 30
0.0
 10
76.79186403620272
 20
263.1784000832567
 30
0.0
 10
76.79186403620272
 20
263.1137567124882
 30
0.0
 10
76.79186403620272
 20
263.0682277120212
 30
0.0
 10
76.79186403620272
 20
263.052690227354
 30
0.0
 10
76.79186403620272
 20
263.0504850629071
 30
0.0
 10
76.79186403620272
 20
263.0502288265969
 30
0.0
  0
LINE
  5
6FC
330
1F
100
AcDbEntity
  8
0
  6
Continuous
 62
     7
370
    15
100
AcDbLine
 10
76.79186403620272
 20
263.5146039574296
 30
0.0
 11
96.39186426866084
 21
263.5146039574296
 31
0.0
  0
SPLINE
  5
6FD
330
1F
100
AcDbEntity
  8
0
  6
Continuous
 62
     7
370
    15
100
AcDbSpline
210
0.0
220
0.0
230
1.0
 70
    24
 71
     3
 72
    17
 73
    13
 74
     0
 42
0.000000001
 43
0.0000000001
 40
0.0
 40
0.0
 40
0.0
 40
0.0
 40
0.1095024665447038
 40
0.2190151512555113
 40
0.3285128309161206
 40
0.4380124334593578
 40
0.5475149000040617
 40
0.6570131561719366
 40
0.7665107636184782
 40
0.8760243601034421
 40
0.9855241323465707
 40
1.0
 40
1.0
 40
1.0
 40
1.0
 10
76.5918643759492
 20
263.2498587517888
 30
0.0
 10
76.5918643759492
 20
263.2504379753722
 30
0.0
 10
76.5918643759492
 20
263.2515964765888
 30
0.0
 10
76.5918643759492
 20
263.2577611637151
 30
0.0
 10
76.5918643759492
 20
263.2664206912413
 30
0.0
 10
76.5918643759492
 20
263.2769285335129
 30
0.0
 10
76.5918643759492
 20
263.288012752825
 30
0.0
 10
76.5918643759492
 20
263.2984448277183
 30
0.0
 10
76.5918643759492
 20
263.3070503500666
 30
0.0
 10
76.5918643759492
 20
263.3128360943518
 30
0.0
 10
76.5918643759492
 20
263.314539224977
 30
0.0
 10
76.5918643759492
 20
263.3145966595711
 30
0.0
 10
76.5918643759492
 20
263.3146033658535
 30
0.0
  0
SPLINE
  5
6FE
330
1F
100
AcDbEntity
  8
0
  6
Continuous
 62
     7
370
    15
100
AcDbSpline
210
0.0
220
0.0
230
1.0
 70
     8
 71
     3
 72
    11
 73
     7
 74
     0
 42
0.000000001
 43
0.0000000001
 40
0.0
 40
0.0
 40
0.0
 40
0.0
 40
0.2500011524253618
 40
0.4999991711911793
 40
0.7499988475746383
 40
1.0
 40
1.0
 40
1.0
 40
1.0
 10
76.5918643759492
 20
263.3146033658535
 30
0.0
 10
76.59487077757742
 20
263.3408108862021
 30
0.0
 10
76.60088354315078
 20
263.3932255983999
 30
0.0
 10
76.64713298189193
 20
263.4593345882912
 30
0.0
 10
76.71324155478536
 20
263.5055849252548
 30
0.0
 10
76.76565649081888
 20
263.5115976074543
 30
0.0
 10
76.79186403620272
 20
263.5146039574296
 30
0.0
  0
SPLINE
  5
6FF
330
1F
100
AcDbEntity
  8
0
  6
Continuous
 62
     7
370
    15
100
AcDbSpline
210
0.0
220
0.0
230
1.0
 70
     8
 71
     3
 72
    11
 73
     7
 74
     0
 42
0.000000001
 43
0.0000000001
 40
0.0
 40
0.0
 40
0.0
 40
0.0
 40
0.2500016927642685
 40
0.4999995860584372
 40
0.7499994573168896
 40
1.0
 40
1.0
 40
1.0
 40
1.0
 10
76.5918643759492
 20
263.2498587517888
 30
0.0
 10
76.594870762277
 20
263.2236996991117
 30
0.0
 10
76.60088348924322
 20
263.1713819913174
 30
0.0
 10
76.64713304554382
 20
263.1053954242651
 30
0.0
 10
76.71324141006929
 20
263.0592302922199
 30
0.0
 10
76.76565647069631
 20
263.0532293178243
 30
0.0
 10
76.79186403620272
 20
263.0502288265969
 30
0.0
  0
SPLINE
  5
700
330
1F
100
AcDbEntity
  8
0
  6
Continuous
 62
     7
370
    15
100
AcDbSpline
210
0.0
220
0.0
230
1.0
 70
    24
 71
     3
 72
    17
 73
    13
 74
     0
 42
0.000000001
 43
0.0000000001
 40
0.0
 40
0.0
 40
0.0
 40
0.0
 40
0.1094983323161661
 40
0.2190020068713402
 40
0.3285018123812737
 40
0.4380064080411322
 40
0.5475082608241994
 40
0.6570132893524422
 40
0.7665200958726333
 40
0.876019071710519
 40
0.9855151328141273
 40
1.0
 40
1.0
 40
1.0
 40
1.0
 10
96.59186392891436
 20
263.3146033658535
 30
0.0
 10
96.59186392891436
 20
263.3142452315082
 30
0.0
 10
96.59186392891436
 20
263.3135289453452
 30
0.0
 10
96.59186392891436
 20
263.3079427931579
 30
0.0
 10
96.59186392891436
 20
263.2997180158317
 30
0.0
 10
96.59186392891436
 20
263.2894474207049
 30
0.0
 10
96.59186392891436
 20
263.2783780641729
 30
0.0
 10
96.59186392891436
 20
263.2677361638779
 30
0.0
 10
96.59186392891436
 20
263.258721628771
 30
0.0
 10
96.59186392891436
 20
263.2523713601376
 30
0.0
 10
96.59186392891436
 20
263.2502018617987
 30
0.0
 10
96.59186392891436
 20
263.2498946444283
 30
0.0
 10
96.59186392891436
 20
263.2498587517888
 30
0.0
  0
SPLINE
  5
701
330
1F
100
AcDbEntity
  8
0
  6
Continuous
 62
     7
370
    15
100
AcDbSpline
210
0.0
220
0.0
230
1.0
 70
     8
 71
     3
 72
    11
 73
     7
 74
     0
 42
0.000000001
 43
0.0000000001
 40
0.0
 40
0.0
 40
0.0
 40
0.0
 40
0.2500016927642685
 40
0.4999995860584372
 40
0.7499994573168896
 40
1.0
 40
1.0
 40
1.0
 40
1.0
 10
96.59186392891436
 20
263.2498587517888
 30
0.0
 10
96.58885754258657
 20
263.2236996991117
 30
0.0
 10
96.58284481562034
 20
263.1713819913174
 30
0.0
 10
96.53659525931974
 20
263.1053954242651
 30
0.0
 10
96.47048689479428
 20
263.0592302922199
 30
0.0
 10
96.41807183416725
 20
263.0532293178243
 30
0.0
 10
96.39186426866084
 20
263.0502288265969
 30
0.0
  0
SPLINE
  5
702
330
1F
100
AcDbEntity
  8
0
  6
Continuous
 62
     7
370
    15
100
AcDbSpline
210
0.0
220
0.0
230
1.0
 70
     8
 71
     3
 72
    11
 73
     7
 74
     0
 42
0.000000001
 43
0.0000000001
 40
0.0
 40
0.0
 40
0.0
 40
0.0
 40
0.2500011524253618
 40
0.4999991711911793
 40
0.7499988475746383
 40
1.0
 40
1.0
 40
1.0
 40
1.0
 10
96.59186392891436
 20
263.3146033658535
 30
0.0
 10
96.58885752728615
 20
263.3408108862021
 30
0.0
 10
96.58284476171369
 20
263.3932255983999
 30
0.0
 10
96.53659532297163
 20
263.4593345882912
 30
0.0
 10
96.47048675007821
 20
263.5055849252548
 30
0.0
 10
96.41807181404468
 20
263.5115976074543
 30
0.0
 10
96.39186426866084
 20
263.5146039574296
 30
0.0
  0
LINE
  5
703
330
1F
100
AcDbEntity
  8
0
  6
Continuous
 62
     7
370
    15
100
AcDbLine
 10
101.3034024821523
 20
224.2298754899652
 30
0.0
 11
101.3034024821523
 21
223.6529509573128
 31
0.0
  0
LINE
  5
704
330
1F
100
AcDbEntity
  8
0
  6
Continuous
 62
     7
370
    15
100
AcDbLine
 10
101.3034024821523
 20
223.6529509573128
 30
0.0
 11
99.3418639140132
 21
223.6529509573128
 31
0.0
  0
SPLINE
  5
705
330
1F
100
AcDbEntity
  8
0
  6
Continuous
 62
     7
370
    15
100
AcDbSpline
210
0.0
220
0.0
230
1.0
 70
     8
 71
     3
 72
    10
 73
     6
 74
     0
 42
0.000000001
 43
0.0000000001
 40
0.0
 40
0.0
 40
0.0
 40
0.0
 40
0.2795778757053547
 40
0.5593381738433654
 40
1.0
 40
1.0
 40
1.0
 40
1.0
 10
99.3418639140132
 20
223.6529509573128
 30
0.0
 10
99.36986895089061
 20
223.7956002674249
 30
0.0
 10
99.42589729771729
 20
224.0809919652364
 30
0.0
 10
99.72505866820895
 20
224.5123577781968
 30
0.0
 10
99.9906857331803
 20
224.7703722074665
 30
0.0
 10
100.1531622918251
 20
224.9281923322822
 30
0.0
  0
SPLINE
  5
706
330
1F
100
AcDbEntity
  8
0
  6
Continuous
 62
     7
370
    15
100
AcDbSpline
210
0.0
220
0.0
230
1.0
 70
     8
 71
     3
 72
     9
 73
     5
 74
     0
 42
0.000000001
 43
0.0000000001
 40
0.0
 40
0.0
 40
0.0
 40
0.0
 40
0.5602359526534987
 40
1.0
 40
1.0
 40
1.0
 40
1.0
 10
100.1531622918251
 20
224.9281923322822
 30
0.0
 10
100.243921407417
 20
225.0139345818751
 30
0.0
 10
100.4059229982863
 20
225.1669812565605
 30
0.0
 10
100.5492616742481
 20
225.3375552886713
 30
0.0
 10
100.6122968705299
 20
225.4125676154048
 30
0.0
  0
SPLINE
  5
707
330
1F
100
AcDbEntity
  8
0
  6
Continuous
 62
     7
370
    15
100
AcDbSpline
210
0.0
220
0.0
230
1.0
 70
     8
 71
     3
 72
     9
 73
     5
 74
     0
 42
0.000000001
 43
0.0000000001
 40
0.0
 40
0.0
 40
0.0
 40
0.0
 40
0.560061486777782
 40
1.0
 40
1.0
 40
1.0
 40
1.0
 10
100.6122968705299
 20
225.4125676154048
 30
0.0
 10
100.6476921485896
 20
225.4729459546983
 30
0.0
 10
100.7108910631637
 20
225.5807525807903
 30
0.0
 10
100.7217170455501
 20
225.7047639738083
 30
0.0
 10
100.7264798121455
 20
225.7593213616759
 30
0.0
  0
SPLINE
  5
708
330
1F
100
AcDbEntity
  8
0
  6
Continuous
 62
     7
370
    15
100
AcDbSpline
210
0.0
220
0.0
230
1.0
 70
     8
 71
     3
 72
    11
 73
     7
 74
     0
 42
0.000000001
 43
0.0000000001
 40
0.0
 40
0.0
 40
0.0
 40
0.0
 40
0.2806210280043914
 40
0.5594945304083732
 40
0.7793811262652739
 40
0.9999999999999998
 40
0.9999999999999998
 40
0.9999999999999998
 40
0.9999999999999998
 10
100.7264798121455
 20
225.7593213616759
 30
0.0
 10
100.7234162132313
 20
225.8158388216178
 30
0.0
 10
100.7173080935086
 20
225.9285217874488
 30
0.0
 10
100.6321522681078
 20
226.0682062942314
 30
0.0
 10
100.5038380017318
 20
226.1443210791616
 30
0.0
 10
100.4151351072583
 20
226.1500720386142
 30
0.0
 10
100.3707099320295
 20
226.1529522984178
 30
0.0
  0
SPLINE
  5
709
330
1F
100
AcDbEntity
  8
0
  6
Continuous
 62
     7
370
    15
100
AcDbSpline
210
0.0
220
0.0
230
1.0
 70
     8
 71
     3
 72
    11
 73
     7
 74
     0
 42
0.000000001
 43
0.0000000001
 40
0.0
 40
0.0
 40
0.0
 40
0.0
 40
0.187236081874114
 40
0.3740841181255627
 40
0.5606949286699101
 40
1.0
 40
1.0
 40
1.0
 40
1.0
 10
100.3707099320295
 20
226.1529522984178
 30
0.0
 10
100.3287691032542
 20
226.150175993875
 30
0.0
 10
100.2449743678112
 20
226.1446291386636
 30
0.0
 10
100.1321325966324
 20
226.0816147652016
 30
0.0
 10
100.0197650091791
 20
225.9336135453858
 30
0.0
 10
100.0056305260718
 20
225.7912983389086
 30
0.0
 10
99.99571010339289
 20
225.6914130448248
 30
0.0
  0
LINE
  5
70A
330
1F
100
AcDbEntity
  8
0
  6
Continuous
 62
     7
370
    15
100
AcDbLine
 10
99.99571010339289
 20
225.6914130448248
 30
0.0
 11
99.41878743338614
 21
225.7479033469107
 31
0.0
  0
SPLINE
  5
70B
330
1F
100
AcDbEntity
  8
0
  6
Continuous
 62
     7
370
    15
100
AcDbSpline
210
0.0
220
0.0
230
1.0
 70
     8
 71
     3
 72
    11
 73
     7
 74
     0
 42
0.000000001
 43
0.0000000001
 40
0.0
 40
0.0
 40
0.0
 40
0.0
 40
0.2807517137271293
 40
0.5589701621640568
 40
0.7792747085921961
 40
1.0
 40
1.0
 40
1.0
 40
1.0
 10
99.41878743338614
 20
225.7479033469107
 30
0.0
 10
99.43938705039684
 20
225.8857138008378
 30
0.0
 10
99.48040041094785
 20
226.1600912240664
 30
0.0
 10
99.72809601021758
 20
226.4781881230618
 30
0.0
 10
100.056893735547
 20
226.6313715956211
 30
0.0
 10
100.2740485769814
 20
226.645753591073
 30
0.0
 10
100.3827295811775
 20
226.6529514490511
 30
0.0
  0
SPLINE
  5
70C
330
1F
100
AcDbEntity
  8
0
  6
Continuous
 62
     7
370
    15
100
AcDbSpline
210
0.0
220
0.0
230
1.0
 70
     8
 71
     3
 72
    11
 73
     7
 74
     0
 42
0.000000001
 43
0.0000000001
 40
0.0
 40
0.0
 40
0.0
 40
0.0
 40
0.2805721506147802
 40
0.559720394594598
 40
0.7797527717533067
 40
0.9999999999999998
 40
0.9999999999999998
 40
0.9999999999999998
 40
0.9999999999999998
 10
100.3827295811775
 20
226.6529514490511
 30
0.0
 10
100.5126927013894
 20
226.644531419567
 30
0.0
 10
100.7719593776033
 20
226.6277340923378
 30
0.0
 10
101.0849278525443
 20
226.4254142523663
 30
0.0
 10
101.2752534797842
 20
226.1423788333076
 30
0.0
 10
101.2940164293318
 20
225.9387237484578
 30
0.0
 10
101.3034024821523
 20
225.8368465154316
 30
0.0
  0
SPLINE
  5
70D
330
1F
100
AcDbEntity
  8
0
  6
Continuous
 62
     7
370
    15
100
AcDbSpline
210
0.0
220
0.0
230
1.0
 70
     8
 71
     3
 72
     9
 73
     5
 74
     0
 42
0.000000001
 43
0.0000000001
 40
0.0
 40
0.0
 40
0.0
 40
0.0
 40
0.5585196136608865
 40
0.9999999999999998
 40
0.9999999999999998
 40
0.9999999999999998
 40
0.9999999999999998
 10
101.3034024821523
 20
225.8368465154316
 30
0.0
 10
101.2838225614064
 20
225.6825951498003
 30
0.0
 10
101.2487657428687
 20
225.4064161905334
 30
0.0
 10
101.0848867601758
 20
225.183052757833
 30
0.0
 10
101.0125374035838
 20
225.0844421832706
 30
0.0
  0
SPLINE
  5
70E
330
1F
100
AcDbEntity
  8
0
  6
Continuous
 62
     7
370
    15
100
AcDbSpline
210
0.0
220
0.0
230
1.0
 70
     8
 71
     3
 72
     9
 73
     5
 74
     0
 42
0.000000001
 43
0.0000000001
 40
0.0
 40
0.0
 40
0.0
 40
0.0
 40
0.5607874696423459
 40
0.9999999999999998
 40
0.9999999999999998
 40
0.9999999999999998
 40
0.9999999999999998
 10
101.0125374035838
 20
225.0844421832706
 30
0.0
 10
100.8521723678964
 20
224.930780710651
 30
0.0
 10
100.5662083541315
 20
224.6567705357847
 30
0.0
 10
100.3038498263927
 20
224.3601534366316
 30
0.0
 10
100.1886186735633
 20
224.2298754899652
 30
0.0
  0
LINE
  5
70F
330
1F
100
AcDbEntity
  8
0
  6
Continuous
 62
     7
370
    15
100
AcDbLine
 10
100.1886186735633
 20
224.2298754899652
 30
0.0
 11
101.3034024821523
 21
224.2298754899652
 31
0.0
  0
LINE
  5
710
330
1F
100
AcDbEntity
  8
0
  6
Continuous
 62
     7
370
    15
100
AcDbLine
 10
73.3034025492075
 20
223.6529509573128
 30
0.0
 11
72.72647987920075
 21
223.6529509573128
 31
0.0
  0
LINE
  5
711
330
1F
100
AcDbEntity
  8
0
  6
Continuous
 62
     7
370
    15
100
AcDbLine
 10
72.72647987920075
 20
223.6529509573128
 30
0.0
 11
72.72647987920075
 21
225.7887697814853
 31
0.0
  0
SPLINE
  5
712
330
1F
100
AcDbEntity
  8
0
  6
Continuous
 62
     7
370
    15
100
AcDbSpline
210
0.0
220
0.0
230
1.0
 70
     8
 71
     3
 72
     9
 73
     5
 74
     0
 42
0.000000001
 43
0.0000000001
 40
0.0
 40
0.0
 40
0.0
 40
0.0
 40
0.5597478923240834
 40
1.0
 40
1.0
 40
1.0
 40
1.0
 10
72.72647987920075
 20
225.7887697814853
 30
0.0
 10
72.60470694540666
 20
225.6760672938902
 30
0.0
 10
72.38715733876555
 20
225.4747222077534
 30
0.0
 10
72.11536661113453
 20
225.3581281085307
 30
0.0
 10
71.99571017044812
 20
225.3067973106052
 30
0.0
  0
LINE
  5
713
330
1F
100
AcDbEntity
  8
0
  6
Continuous
 62
     7
370
    15
100
AcDbLine
 10
71.99571017044812
 20
225.3067973106052
 30
0.0
 11
71.99571017044812
 21
225.8837199806125
 31
0.0
  0
LINE
  5
714
330
1F
100
AcDbEntity
  8
0
  6
Continuous
 62
     7
370
    15
100
AcDbLine
 10
72.84066188949376
 20
226.6529514490511
 30
0.0
 11
73.3034025492075
 21
226.6529514490511
 31
0.0
  0
LINE
  5
715
330
1F
100
AcDbEntity
  8
0
  6
Continuous
 62
     7
370
    15
100
AcDbLine
 10
73.3034025492075
 20
226.6529514490511
 30
0.0
 11
73.3034025492075
 21
223.6529509573128
 31
0.0
  0
SPLINE
  5
716
330
1F
100
AcDbEntity
  8
0
  6
Continuous
 62
     7
370
    15
100
AcDbSpline
210
0.0
220
0.0
230
1.0
 70
     8
 71
     3
 72
     9
 73
     5
 74
     0
 42
0.000000001
 43
0.0000000001
 40
0.0
 40
0.0
 40
0.0
 40
0.0
 40
0.5609942293538747
 40
1.0
 40
1.0
 40
1.0
 40
1.0
 10
71.99571017044812
 20
225.8837199806125
 30
0.0
 10
72.19915196384639
 20
225.9801938360091
 30
0.0
 10
72.56179703709816
 20
226.1521632616271
 30
0.0
 10
72.755586984355
 20
226.5001731151246
 30
0.0
 10
72.84066188949376
 20
226.6529514490511
 30
0.0
  0
LINE
  5
717
330
1F
100
AcDbEntity
  8
0
  6
Continuous
 62
     7
370
    15
100
AcDbLine
 10
112.8918641792538
 20
256.9355075283791
 30
0.0
 11
112.8918641792538
 21
289.2529512791778
 31
0.0
  0
LINE
  5
718
330
1F
100
AcDbEntity
  8
0
  6
Continuous
 62
     7
370
    15
100
AcDbLine
 10
112.8918641792538
 20
256.9355075283791
 30
0.0
 11
112.0258384929898
 21
256.9355075283791
 31
0.0
  0
LINE
  5
719
330
1F
100
AcDbEntity
  8
0
  6
Continuous
 62
     7
370
    15
100
AcDbLine
 10
112.0258384929898
 20
256.9355075283791
 30
0.0
 11
112.0258384929898
 21
279.8263649492409
 31
0.0
  0
SPLINE
  5
71A
330
1F
100
AcDbEntity
  8
0
  6
Continuous
 62
     7
370
    15
100
AcDbSpline
210
0.0
220
0.0
230
1.0
 70
     8
 71
     3
 72
    12
 73
     8
 74
     0
 42
0.000000001
 43
0.0000000001
 40
0.0
 40
0.0
 40
0.0
 40
0.0
 40
0.0062988741158417
 40
0.0900298554325268
 40
0.4442456241000839
 40
0.8002707873084485
 40
1.0
 40
1.0
 40
1.0
 40
1.0
 10
112.0258384929898
 20
279.8263649492409
 30
0.0
 10
112.0279364518542
 20
279.8467377228911
 30
0.0
 10
112.0579225937868
 20
280.1379259309373
 30
0.0
 10
112.2058883579707
 20
281.5716767879166
 30
0.0
 10
112.465317093302
 20
284.1061025007451
 30
0.0
 10
112.7318217917668
 20
286.9515118973349
 30
0.0
 10
112.8495533461232
 20
288.6445136072893
 30
0.0
 10
112.8918641792538
 20
289.2529512791778
 30
0.0
  0
LINE
  5
71B
330
1F
100
AcDbEntity
  8
0
  6
Continuous
 62
     7
370
    15
100
AcDbLine
 10
60.2918641256097
 20
256.9355075283791
 30
0.0
 11
60.2918641256097
 21
289.2529512791778
 31
0.0
  0
SPLINE
  5
71C
330
1F
100
AcDbEntity
  8
0
  6
Continuous
 62
     7
370
    15
100
AcDbSpline
210
0.0
220
0.0
230
1.0
 70
     8
 71
     3
 72
    12
 73
     8
 74
     0
 42
0.000000001
 43
0.0000000001
 40
0.0
 40
0.0
 40
0.0
 40
0.0
 40
0.1997292028801907
 40
0.5539270376625547
 40
0.9099701489900382
 40
0.9937011261935801
 40
1.0
 40
1.0
 40
1.0
 40
1.0
 10
60.2918641256097
 20
289.2529512791778
 30
0.0
 10
60.33417373812748
 20
288.6445141093044
 30
0.0
 10
60.45151480787858
 20
286.9570803527403
 30
0.0
 10
60.71781778736617
 20
284.1118952519963
 30
0.0
 10
60.97723165187612
 20
281.5775736534878
 30
0.0
 10
61.12580570927597
 20
280.1379259346994
 30
0.0
 10
61.15579185289202
 20
279.8467377231376
 30
0.0
 10
61.15788981187374
 20
279.8263649492409
 30
0.0
  0
LINE
  5
71D
330
1F
100
AcDbEntity
  8
0
  6
Continuous
 62
     7
370
    15
100
AcDbLine
 10
61.15788981187374
 20
279.8263649492409
 30
0.0
 11
61.15788981187374
 21
256.9355075283791
 31
0.0
  0
LINE
  5
71E
330
1F
100
AcDbEntity
  8
0
  6
Continuous
 62
     7
370
    15
100
AcDbLine
 10
60.2918641256097
 20
256.9355075283791
 30
0.0
 11
61.15788981187374
 21
256.9355075283791
 31
0.0
  0
LINE
  5
71F
330
1F
100
AcDbEntity
  8
0
  6
Continuous
 62
     7
370
    15
100
AcDbLine
 10
112.0258384929898
 20
256.9355075283791
 30
0.0
 11
61.15788981187374
 21
256.9355075283791
 31
0.0
  0
LINE
  5
720
330
1F
100
AcDbEntity
  8
0
  6
Continuous
 62
     7
370
    15
100
AcDbLine
 10
112.0258384929898
 20
279.8263649492409
 30
0.0
 11
61.15788981187374
 21
279.8263649492409
 31
0.0
  0
SPLINE
  5
721
330
1F
100
AcDbEntity
  8
0
  6
Continuous
 62
     7
370
    15
100
AcDbSpline
210
0.0
220
0.0
230
1.0
 70
     8
 71
     3
 72
    12
 73
     8
 74
     0
 42
0.000000001
 43
0.0000000001
 40
0.0
 40
0.0
 40
0.0
 40
0.0
 40
0.2146937738458303
 40
0.4293881784758348
 40
0.644081617727815
 40
0.8587746997363842
 40
1.0
 40
1.0
 40
1.0
 40
1.0
 10
76.79186403620272
 20
263.0491745694425
 30
0.0
 10
76.76937921349739
 20
263.0513813085857
 30
0.0
 10
76.72440950202375
 20
263.0557947933557
 30
0.0
 10
76.66447461066539
 20
263.0902127868866
 30
0.0
 10
76.61924407443578
 20
263.1408663630613
 30
0.0
 10
76.595278459919
 20
263.1969928344901
 30
0.0
 10
76.59283422641832
 20
263.2340775118909
 30
0.0
 10
76.5918643759492
 20
263.2487923874404
 30
0.0
  0
LINE
  5
722
330
1F
100
AcDbEntity
  8
0
  6
Continuous
 62
     7
370
    15
100
AcDbLine
 10
76.79186403620272
 20
263.0491745694425
 30
0.0
 11
96.39186426866084
 21
263.0491745694425
 31
0.0
  0
LINE
  5
723
330
1F
100
AcDbEntity
  8
0
  6
Continuous
 62
     7
370
    15
100
AcDbLine
 10
75.94186454880267
 20
218.2529526798875
 30
0.0
 11
75.94186454880267
 21
220.0529514848139
 31
0.0
  0
LINE
  5
724
330
1F
100
AcDbEntity
  8
0
  6
Continuous
 62
     7
370
    15
100
AcDbLine
 10
75.94186454880267
 20
220.0529514848139
 30
0.0
 11
69.7418639050725
 21
220.0529514848139
 31
0.0
  0
LINE
  5
725
330
1F
100
AcDbEntity
  8
0
  6
Continuous
 62
     7
370
    15
100
AcDbLine
 10
69.7418639050725
 20
220.0529514848139
 30
0.0
 11
69.7418639050725
 21
218.2529526798875
 31
0.0
  0
LINE
  5
726
330
1F
100
AcDbEntity
  8
0
  6
Continuous
 62
     7
370
    15
100
AcDbLine
 10
69.7418639050725
 20
218.2529526798875
 30
0.0
 11
75.94186454880267
 21
218.2529526798875
 31
0.0
  0
LINE
  5
727
330
1F
100
AcDbEntity
  8
0
  6
Continuous
 62
     7
370
    15
100
AcDbLine
 10
97.24186375606089
 20
218.2529526798875
 30
0.0
 11
103.441864399791
 21
218.2529526798875
 31
0.0
  0
LINE
  5
728
330
1F
100
AcDbEntity
  8
0
  6
Continuous
 62
     7
370
    15
100
AcDbLine
 10
103.441864399791
 20
218.2529526798875
 30
0.0
 11
103.441864399791
 21
220.0529514848139
 31
0.0
  0
LINE
  5
729
330
1F
100
AcDbEntity
  8
0
  6
Continuous
 62
     7
370
    15
100
AcDbLine
 10
103.441864399791
 20
220.0529514848139
 30
0.0
 11
97.24186375606089
 21
220.0529514848139
 31
0.0
  0
LINE
  5
72A
330
1F
100
AcDbEntity
  8
0
  6
Continuous
 62
     7
370
    15
100
AcDbLine
 10
97.24186375606089
 20
220.0529514848139
 30
0.0
 11
97.24186375606089
 21
218.2529526798875
 31
0.0
  0
LINE
  5
72B
330
1F
100
AcDbEntity
  8
0
  6
Continuous
 62
     7
370
    15
100
AcDbLine
 10
112.0258384929898
 20
215.1137213258888
 30
0.0
 11
112.0258384929898
 21
256.9355075283791
 31
0.0
  0
ARC
  5
72C
330
1F
100
AcDbEntity
  8
0
  6
Continuous
 62
     7
370
    15
100
AcDbCircle
 10
111.8918641524319
 20
215.1137220358218
 30
0.0
 40
0.1339745962155945
100
AcDbArc
 50
270.0
 51
0.0
  0
LINE
  5
72D
330
1F
100
AcDbEntity
  8
0
  6
Continuous
 62
     7
370
    15
100
AcDbLine
 10
61.29186428952247
 20
214.9797487108852
 30
0.0
 11
111.8918640153411
 21
214.9797487108852
 31
0.0
  0
ARC
  5
72E
330
1F
100
AcDbEntity
  8
0
  6
Continuous
 62
     7
370
    15
100
AcDbCircle
 10
61.29186415243161
 20
215.1137220358218
 30
0.0
 40
0.1339745962155945
100
AcDbArc
 50
180.0
 51
270.0
  0
LINE
  5
72F
330
1F
100
AcDbEntity
  8
0
  6
Continuous
 62
     7
370
    15
100
AcDbLine
 10
61.15788981187374
 20
256.9355075283791
 30
0.0
 11
61.15788981187374
 21
215.1137213258888
 31
0.0
  0
LINE
  5
730
330
1F
100
AcDbEntity
  8
0
  6
Continuous
 62
     7
370
    15
100
AcDbLine
 10
112.8918641792538
 20
215.1137213258888
 30
0.0
 11
112.8918641792538
 21
256.9355075283791
 31
0.0
  0
LINE
  5
731
330
1F
100
AcDbEntity
  8
0
  6
Continuous
 62
     7
370
    15
100
AcDbLine
 10
112.8918641792538
 20
215.1137213258888
 30
0.0
 11
112.0258384929898
 21
215.1137213258888
 31
0.0
  0
LINE
  5
732
330
1F
100
AcDbEntity
  8
0
  6
Continuous
 62
     7
370
    15
100
AcDbLine
 10
60.2918641256097
 20
256.9355075283791
 30
0.0
 11
60.2918641256097
 21
215.1137213258888
 31
0.0
  0
LINE
  5
733
330
1F
100
AcDbEntity
  8
0
  6
Continuous
 62
     7
370
    15
100
AcDbLine
 10
60.2918641256097
 20
215.1137213258888
 30
0.0
 11
61.15788981187374
 21
215.1137213258888
 31
0.0
  0
ARC
  5
734
330
1F
100
AcDbEntity
  8
0
  6
Continuous
 62
     7
370
    15
100
AcDbCircle
 10
111.8918641524319
 20
215.1137220358218
 30
0.0
 40
1.000000000000007
100
AcDbArc
 50
270.0
 51
0.0
  0
LINE
  5
735
330
1F
100
AcDbEntity
  8
0
  6
Continuous
 62
     7
370
    15
100
AcDbLine
 10
111.8918640153411
 20
214.1137230246217
 30
0.0
 11
111.8918640153411
 21
214.9797487108852
 31
0.0
  0
LINE
  5
736
330
1F
100
AcDbEntity
  8
0
  6
Continuous
 62
     7
370
    15
100
AcDbLine
 10
104.4682712839845
 20
214.1137230246217
 30
0.0
 11
111.8918640153411
 21
214.1137230246217
 31
0.0
  0
LINE
  5
737
330
1F
100
AcDbEntity
  8
0
  6
Continuous
 62
     7
370
    15
100
AcDbLine
 10
96.21545687186747
 20
214.1137230246217
 30
0.0
 11
104.4682712839845
 21
214.1137230246217
 31
0.0
  0
LINE
  5
738
330
1F
100
AcDbEntity
  8
0
  6
Continuous
 62
     7
370
    15
100
AcDbLine
 10
76.96827143299609
 20
214.1137230246217
 30
0.0
 11
96.21545687186747
 21
214.1137230246217
 31
0.0
  0
LINE
  5
739
330
1F
100
AcDbEntity
  8
0
  6
Continuous
 62
     7
370
    15
100
AcDbLine
 10
68.71545702087908
 20
214.1137230246217
 30
0.0
 11
76.96827143299609
 21
214.1137230246217
 31
0.0
  0
LINE
  5
73A
330
1F
100
AcDbEntity
  8
0
  6
Continuous
 62
     7
370
    15
100
AcDbLine
 10
61.29186428952247
 20
214.1137230246217
 30
0.0
 11
68.71545702087908
 21
214.1137230246217
 31
0.0
  0
LINE
  5
73B
330
1F
100
AcDbEntity
  8
0
  6
Continuous
 62
     7
370
    15
100
AcDbLine
 10
61.29186428952247
 20
214.1137230246217
 30
0.0
 11
61.29186428952247
 21
214.9797487108852
 31
0.0
  0
ARC
  5
73C
330
1F
100
AcDbEntity
  8
0
  6
Continuous
 62
     7
370
    15
100
AcDbCircle
 10
61.29186415243161
 20
215.1137220358218
 30
0.0
 40
1.000000000000007
100
AcDbArc
 50
180.0
 51
270.0
  0
LINE
  5
73D
330
1F
100
AcDbEntity
  8
0
  6
Continuous
 62
     7
370
    15
100
AcDbLine
 10
76.79186403620272
 20
263.0502288265969
 30
0.0
 11
76.79186403620272
 21
263.0491745694425
 31
0.0
  0
LINE
  5
73E
330
1F
100
AcDbEntity
  8
0
  6
Continuous
 62
     7
370
    15
100
AcDbLine
 10
96.39186426866084
 20
263.0491745694425
 30
0.0
 11
96.39186426866084
 21
263.0502288265969
 31
0.0
  0
LINE
  5
73F
330
1F
100
AcDbEntity
  8
0
  6
Continuous
 62
     7
370
    15
100
AcDbLine
 10
58.19541789460212
 20
210.8529503493459
 30
0.0
 11
58.19541789460212
 21
256.9355075283791
 31
0.0
  0
LINE
  5
740
330
1F
100
AcDbEntity
  8
0
  6
Continuous
 62
     7
370
    15
100
AcDbLine
 10
58.19541789460212
 20
256.9355075283791
 30
0.0
 11
58.54897029566795
 21
256.9355075283791
 31
0.0
  0
LINE
  5
741
330
1F
100
AcDbEntity
  8
0
  6
Continuous
 62
     7
370
    15
100
AcDbLine
 10
58.54897029566795
 20
256.9355075283791
 30
0.0
 11
58.54897029566795
 21
211.0100570171024
 31
0.0
  0
SPLINE
  5
742
330
1F
100
AcDbEntity
  8
0
  6
Continuous
 62
     7
370
    15
100
AcDbSpline
210
0.0
220
0.0
230
1.0
 70
     8
 71
     3
 72
    11
 73
     7
 74
     0
 42
0.000000001
 43
0.0000000001
 40
0.0
 40
0.0
 40
0.0
 40
0.0
 40
0.2510598171587151
 40
0.4995342742415624
 40
0.7496046024018749
 40
1.0
 40
1.0
 40
1.0
 40
1.0
 10
58.19541789460212
 20
210.8529503493459
 30
0.0
 10
58.22260393944047
 20
210.8549588536224
 30
0.0
 10
58.27669607306738
 20
210.8589551790295
 30
0.0
 10
58.36971621209117
 20
210.8961910144675
 30
0.0
 10
58.45991234026818
 20
210.9494786950234
 30
0.0
 10
58.51927145861604
 20
210.9898555010417
 30
0.0
 10
58.54897029566795
 20
211.0100570171024
 30
0.0
  0
LINE
  5
743
330
1F
100
AcDbEntity
  8
0
  6
Continuous
 62
     7
370
    15
100
AcDbLine
 10
107.5719354288581
 20
211.0100570171024
 30
0.0
 11
104.4682712839845
 21
214.1137230246217
 31
0.0
  0
LINE
  5
744
330
1F
100
AcDbEntity
  8
0
  6
Continuous
 62
     7
370
    15
100
AcDbLine
 10
112.8918641792538
 20
256.9355075283791
 30
0.0
 11
114.6347580091956
 21
256.9355075283791
 31
0.0
  0
LINE
  5
745
330
1F
100
AcDbEntity
  8
0
  6
Continuous
 62
     7
370
    15
100
AcDbLine
 10
114.6347580091956
 20
211.0100570171024
 30
0.0
 11
114.6347580091956
 21
256.9355075283791
 31
0.0
  0
LINE
  5
746
330
1F
100
AcDbEntity
  8
0
  6
Continuous
 62
     7
370
    15
100
AcDbLine
 10
107.5719354288581
 20
211.0100570171024
 30
0.0
 11
114.6347580091956
 21
211.0100570171024
 31
0.0
  0
LINE
  5
747
330
1F
100
AcDbEntity
  8
0
  6
Continuous
 62
     7
370
    15
100
AcDbLine
 10
114.6347580091956
 20
256.9355075283791
 30
0.0
 11
114.9883104102614
 21
256.9355075283791
 31
0.0
  0
LINE
  5
748
330
1F
100
AcDbEntity
  8
0
  6
Continuous
 62
     7
370
    15
100
AcDbLine
 10
114.9883104102614
 20
256.9355075283791
 30
0.0
 11
114.9883104102614
 21
210.8529503493459
 31
0.0
  0
SPLINE
  5
749
330
1F
100
AcDbEntity
  8
0
  6
Continuous
 62
     7
370
    15
100
AcDbSpline
210
0.0
220
0.0
230
1.0
 70
     8
 71
     3
 72
    10
 73
     6
 74
     0
 42
0.000000001
 43
0.0000000001
 40
0.0
 40
0.0
 40
0.0
 40
0.0
 40
0.4994853038645857
 40
0.748447434787545
 40
1.0
 40
1.0
 40
1.0
 40
1.0
 10
114.6347580091956
 20
211.0100570171024
 30
0.0
 10
114.6941995652801
 20
210.9694422731444
 30
0.0
 10
114.783269013024
 20
210.9085836238613
 30
0.0
 10
114.9070168982976
 20
210.8589459447534
 30
0.0
 10
114.9611192366515
 20
210.8549557649275
 30
0.0
 10
114.9883104102614
 20
210.8529503493459
 30
0.0
  0
LINE
  5
74A
330
1F
100
AcDbEntity
  8
0
  6
Continuous
 62
     7
370
    15
100
AcDbLine
 10
58.54897029566795
 20
256.9355075283791
 30
0.0
 11
60.2918641256097
 21
256.9355075283791
 31
0.0
  0
LINE
  5
74B
330
1F
100
AcDbEntity
  8
0
  6
Continuous
 62
     7
370
    15
100
AcDbLine
 10
68.71545702087908
 20
214.1137230246217
 30
0.0
 11
65.61179287600547
 21
211.0100570171024
 31
0.0
  0
LINE
  5
74C
330
1F
100
AcDbEntity
  8
0
  6
Continuous
 62
     7
370
    15
100
AcDbLine
 10
58.54897029566795
 20
211.0100570171024
 30
0.0
 11
65.61179287600547
 21
211.0100570171024
 31
0.0
  0
SPLINE
  5
74D
330
1F
100
AcDbEntity
  8
0
  6
Continuous
 62
     7
370
    15
100
AcDbSpline
210
0.0
220
0.0
230
1.0
 70
     8
 71
     3
 72
    11
 73
     7
 74
     0
 42
0.000000001
 43
0.0000000001
 40
0.0
 40
0.0
 40
0.0
 40
0.0
 40
0.2503977917348795
 40
0.5004660265692625
 40
0.7489368247279807
 40
1.0
 40
1.0
 40
1.0
 40
1.0
 10
114.6347580091956
 20
211.0100570171024
 30
0.0
 10
114.6549604446323
 20
210.9803583647848
 30
0.0
 10
114.6953387264043
 20
210.9210001475375
 30
0.0
 10
114.7486231190819
 20
210.8308025379018
 30
0.0
 10
114.7858604084299
 20
210.7377843092026
 30
0.0
 10
114.7898563416916
 20
210.6836914204186
 30
0.0
 10
114.7918646769526
 20
210.6565046160366
 30
0.0
  0
LINE
  5
74E
330
1F
100
AcDbEntity
  8
0
  6
Continuous
 62
     7
370
    15
100
AcDbLine
 10
114.7918646769526
 20
210.6565046160366
 30
0.0
 11
107.8905297057631
 21
210.6565046160366
 31
0.0
  0
ELLIPSE
  5
74F
330
1F
100
AcDbEntity
  8
0
  6
Continuous
 62
     7
370
    15
100
AcDbEllipse
 10
107.4525790880266
 20
211.0100584418341
 30
0.0
 11
0.5107202007371753
 21
-0.4963761366427804
 31
0.0
210
0.0
220
0.0
230
1.0
 40
0.1176561219537393
 41
0.6649282617743415
 42
1.450326425171934
  0
ELLIPSE
  5
750
330
1F
100
AcDbEntity
  8
0
  6
Continuous
 62
     7
370
    15
100
AcDbEllipse
 10
65.73114921683694
 20
211.0100584418341
 30
0.0
 11
0.5107202007371869
 21
0.4963761366428663
 31
0.0
210
0.0
220
0.0
230
1.0
 40
0.1176561219537282
 41
1.691266228417829
 42
2.47666439181488
  0
LINE
  5
751
330
1F
100
AcDbEntity
  8
0
  6
Continuous
 62
     7
370
    15
100
AcDbLine
 10
65.29319859910041
 20
210.6565046160366
 30
0.0
 11
58.39186362791092
 21
210.6565046160366
 31
0.0
  0
SPLINE
  5
752
330
1F
100
AcDbEntity
  8
0
  6
Continuous
 62
     7
370
    15
100
AcDbSpline
210
0.0
220
0.0
230
1.0
 70
     8
 71
     3
 72
    10
 73
     6
 74
     0
 42
0.000000001
 43
0.0000000001
 40
0.0
 40
0.0
 40
0.0
 40
0.0
 40
0.2515560057946173
 40
0.5005145457066779
 40
0.9999999999999998
 40
0.9999999999999998
 40
0.9999999999999998
 40
0.9999999999999998
 10
58.39186362791092
 20
210.6565046160366
 30
0.0
 10
58.39386892869747
 20
210.6836965135207
 30
0.0
 10
58.39785882434311
 20
210.7377995359196
 30
0.0
 10
58.44749750974146
 20
210.8615459435986
 30
0.0
 10
58.50835567547577
 20
210.9506152585117
 30
0.0
 10
58.54897029566795
 20
211.0100570171024
 30
0.0
  0
SPLINE
  5
753
330
1F
100
AcDbEntity
  8
0
  6
Continuous
 62
     7
370
    15
100
AcDbSpline
210
0.0
220
0.0
230
1.0
 70
     8
 71
     3
 72
    11
 73
     7
 74
     0
 42
0.000000001
 43
0.0000000001
 40
0.0
 40
0.0
 40
0.0
 40
0.0
 40
0.2599753439233966
 40
0.5000039215028701
 40
0.7400091049384149
 40
1.0
 40
1.0
 40
1.0
 40
1.0
 10
58.39186362791092
 20
210.6565046160366
 30
0.0
 10
58.37117354212618
 20
210.6678900881533
 30
0.0
 10
58.33138082996951
 20
210.6897874751138
 30
0.0
 10
58.27522747132347
 20
210.7363127432967
 30
0.0
 10
58.22870305701102
 20
210.7924695211094
 30
0.0
 10
58.2068047202561
 20
210.8322599096217
 30
0.0
 10
58.19541789460212
 20
210.8529503493459
 30
0.0
  0
SPLINE
  5
754
330
1F
100
AcDbEntity
  8
0
  6
Continuous
 62
     7
370
    15
100
AcDbSpline
210
0.0
220
0.0
230
1.0
 70
     8
 71
     3
 72
    11
 73
     7
 74
     0
 42
0.000000001
 43
0.0000000001
 40
0.0
 40
0.0
 40
0.0
 40
0.0
 40
0.2599668540426312
 40
0.4999951981447952
 40
0.740004198989666
 40
1.0
 40
1.0
 40
1.0
 40
1.0
 10
114.9883104102614
 20
210.8529503493459
 30
0.0
 10
114.9769256192308
 20
210.8322608417856
 30
0.0
 10
114.9550292091367
 20
210.7924686364667
 30
0.0
 10
114.908503465203
 20
210.7363162045011
 30
0.0
 10
114.8523477936192
 20
210.6897890867293
 30
0.0
 10
114.8125559189152
 20
210.6678912157134
 30
0.0
 10
114.7918646769526
 20
210.6565046160366
 30
0.0
  0
LINE
  5
755
330
1F
100
AcDbEntity
  8
0
  6
Continuous
 62
     7
370
    15
100
AcDbLine
 10
58.54897029566795
 20
288.7514862268121
 30
0.0
 11
58.54897029566795
 21
256.9355075283791
 31
0.0
  0
LINE
  5
756
330
1F
100
AcDbEntity
  8
0
  6
Continuous
 62
     7
370
    15
100
AcDbLine
 10
58.5287568705085
 20
289.2529512791778
 30
0.0
 11
58.54867227244407
 21
288.7514862268121
 31
0.0
  0
LINE
  5
757
330
1F
100
AcDbEntity
  8
0
  6
Continuous
 62
     7
370
    15
100
AcDbLine
 10
60.2918641256097
 20
289.2529512791778
 30
0.0
 11
58.5287568705085
 21
289.2529512791778
 31
0.0
  0
LINE
  5
758
330
1F
100
AcDbEntity
  8
0
  6
Continuous
 62
     7
370
    15
100
AcDbLine
 10
58.19541789460212
 20
256.9355075283791
 30
0.0
 11
58.19541789460212
 21
288.6873963325168
 31
0.0
  0
SPLINE
  5
759
330
1F
100
AcDbEntity
  8
0
  6
Continuous
 62
     7
370
    15
100
AcDbSpline
210
0.0
220
0.0
230
1.0
 70
     8
 71
     3
 72
    11
 73
     7
 74
     0
 42
0.000000001
 43
0.0000000001
 40
0.0
 40
0.0
 40
0.0
 40
0.0
 40
0.2499989035184405
 40
0.5000025061437932
 40
0.7499982165163544
 40
1.0
 40
1.0
 40
1.0
 40
1.0
 10
58.19291822481186
 20
288.6906708626892
 30
0.0
 10
58.21743078254943
 20
288.698845408723
 30
0.0
 10
58.26645635877643
 20
288.7151946544444
 30
0.0
 10
58.35475501713567
 20
288.7332583023243
 30
0.0
 10
58.44964797857986
 20
288.746314707122
 30
0.0
 10
58.51566390720703
 20
288.7497623729563
 30
0.0
 10
58.54867227244407
 20
288.7514862268121
 30
0.0
  0
LINE
  5
75A
330
1F
100
AcDbEntity
  8
0
  6
Continuous
 62
     7
370
    15
100
AcDbLine
 10
114.6347580091956
 20
256.9355075283791
 30
0.0
 11
114.6347580091956
 21
288.7441287784721
 31
0.0
  0
SPLINE
  5
75B
330
1F
100
AcDbEntity
  8
0
  6
Continuous
 62
     7
370
    15
100
AcDbSpline
210
0.0
220
0.0
230
1.0
 70
     8
 71
     3
 72
    11
 73
     7
 74
     0
 42
0.000000001
 43
0.0000000001
 40
0.0
 40
0.0
 40
0.0
 40
0.0
 40
0.0591366153738636
 40
0.1413957753638817
 40
0.5706973209984289
 40
1.0
 40
1.0
 40
1.0
 40
1.0
 10
114.6347580091956
 20
288.7441287784721
 30
0.0
 10
114.6424697655389
 20
288.7439584480306
 30
0.0
 10
114.6609085916493
 20
288.7435511875768
 30
0.0
 10
114.7350018998864
 20
288.7402886587678
 30
0.0
 10
114.8574711160868
 20
288.7278247478856
 30
0.0
 10
114.9446972738237
 20
288.7034354814299
 30
0.0
 10
114.9883104102614
 20
288.6912408321049
 30
0.0
  0
LINE
  5
75C
330
1F
100
AcDbEntity
  8
0
  6
Continuous
 62
     7
370
    15
100
AcDbLine
 10
114.9883104102614
 20
288.6912408321049
 30
0.0
 11
114.9883104102614
 21
256.9355075283791
 31
0.0
  0
LINE
  5
75D
330
1F
100
AcDbEntity
  8
0
  6
Continuous
 62
     7
370
    15
100
AcDbLine
 10
114.6538817869428
 20
289.2529512791778
 30
0.0
 11
112.8918641792538
 21
289.2529512791778
 31
0.0
  0
LINE
  5
75E
330
1F
100
AcDbEntity
  8
0
  6
Continuous
 62
     7
370
    15
100
AcDbLine
 10
114.6347580091956
 20
288.7441287784721
 30
0.0
 11
114.6538817869428
 21
289.2529512791778
 31
0.0
  0
LINE
  5
75F
330
1F
100
AcDbEntity
  8
0
  6
Continuous
 62
     7
370
    15
100
AcDbLine
 10
106.1121115075353
 20
212.2429306655075
 30
0.0
 11
94.57161664831668
 21
212.2429306655075
 31
0.0
  0
LINE
  5
760
330
1F
100
AcDbEntity
  8
0
  6
Continuous
 62
     7
370
    15
100
AcDbLine
 10
94.57161664831668
 20
212.2429306655075
 30
0.0
 11
96.21545687186747
 21
214.1137230246217
 31
0.0
  0
LINE
  5
761
330
1F
100
AcDbEntity
  8
0
  6
Continuous
 62
     7
370
    15
100
AcDbLine
 10
104.4682712839845
 20
214.1137230246217
 30
0.0
 11
106.1121115075353
 21
212.2429306655075
 31
0.0
  0
LINE
  5
762
330
1F
100
AcDbEntity
  8
0
  6
Continuous
 62
     7
370
    15
100
AcDbLine
 10
106.4309665547612
 20
211.0529500095989
 30
0.0
 11
108.4309650199416
 21
209.0529534070642
 31
0.0
  0
LINE
  5
763
330
1F
100
AcDbEntity
  8
0
  6
Continuous
 62
     7
370
    15
100
AcDbLine
 10
106.4309665547612
 20
211.0529500095989
 30
0.0
 11
106.1121115075353
 21
212.2429306655075
 31
0.0
  0
LINE
  5
764
330
1F
100
AcDbEntity
  8
0
  6
Continuous
 62
     7
370
    15
100
AcDbLine
 10
108.8883189098838
 20
209.3458431809093
 30
0.0
 11
107.8905297057631
 21
210.6565046160366
 31
0.0
  0
ELLIPSE
  5
765
330
1F
100
AcDbEntity
  8
0
  6
Continuous
 62
     7
370
    15
100
AcDbEllipse
 10
108.0124177553294
 20
210.0529516606479
 30
0.0
 11
1.021440401474372
 21
-0.9927522732856465
 31
0.0
210
0.0
220
0.0
230
1.0
 40
0.1176561219537221
 41
6.162715405556916
 42
6.948113568954075
  0
LINE
  5
766
330
1F
100
AcDbEntity
  8
0
  6
Continuous
 62
     7
370
    15
100
AcDbLine
 10
109.0124176429513
 20
209.0529534070642
 30
0.0
 11
108.4309650199416
 21
209.0529534070642
 31
0.0
  0
LINE
  5
767
330
1F
100
AcDbEntity
  8
0
  6
Continuous
 62
     7
370
    15
100
AcDbLine
 10
96.21545687186747
 20
214.1137230246217
 30
0.0
 11
93.11179319265514
 21
211.0100570171024
 31
0.0
  0
LINE
  5
768
330
1F
100
AcDbEntity
  8
0
  6
Continuous
 62
     7
370
    15
100
AcDbLine
 10
80.07193511220842
 20
211.0100570171024
 30
0.0
 11
93.11179319265514
 21
211.0100570171024
 31
0.0
  0
LINE
  5
769
330
1F
100
AcDbEntity
  8
0
  6
Continuous
 62
     7
370
    15
100
AcDbLine
 10
80.07193511220842
 20
211.0100570171024
 30
0.0
 11
76.96827143299609
 21
214.1137230246217
 31
0.0
  0
ELLIPSE
  5
76A
330
1F
100
AcDbEntity
  8
0
  6
Continuous
 62
     7
370
    15
100
AcDbEllipse
 10
93.23114921683695
 20
211.0100584418341
 30
0.0
 11
0.5107202007371754
 21
0.496376136642865
 31
0.0
210
0.0
220
0.0
230
1.0
 40
0.1176561219537503
 41
1.691266228417849
 42
2.476664391814914
  0
LINE
  5
76B
330
1F
100
AcDbEntity
  8
0
  6
Continuous
 62
     7
370
    15
100
AcDbLine
 10
94.2527625324133
 20
211.0529500095989
 30
0.0
 11
94.57161664831668
 21
212.2429306655075
 31
0.0
  0
LINE
  5
76C
330
1F
100
AcDbEntity
  8
0
  6
Continuous
 62
     7
370
    15
100
AcDbLine
 10
92.25276267024904
 20
209.0529534070642
 30
0.0
 11
94.2527625324133
 21
211.0529500095989
 31
0.0
  0
LINE
  5
76D
330
1F
100
AcDbEntity
  8
0
  6
Continuous
 62
     7
370
    15
100
AcDbLine
 10
91.67131051290065
 20
209.0529534070642
 30
0.0
 11
92.25276267024904
 21
209.0529534070642
 31
0.0
  0
ELLIPSE
  5
76E
330
1F
100
AcDbEntity
  8
0
  6
Continuous
 62
     7
370
    15
100
AcDbEllipse
 10
92.67131054953418
 20
210.0529516606479
 30
0.0
 11
1.021440401474394
 21
0.9927522732856044
 31
0.0
210
0.0
220
0.0
230
1.0
 40
0.1176561219537232
 41
2.476664391815474
 42
3.262062555212875
  0
LINE
  5
76F
330
1F
100
AcDbEntity
  8
0
  6
Continuous
 62
     7
370
    15
100
AcDbLine
 10
92.79319845008879
 20
210.6565046160366
 30
0.0
 11
91.79540878030687
 21
209.3458431809093
 31
0.0
  0
LINE
  5
770
330
1F
100
AcDbEntity
  8
0
  6
Continuous
 62
     7
370
    15
100
AcDbLine
 10
78.93096577245026
 20
211.0529500095989
 30
0.0
 11
80.93096563461452
 21
209.0529534070642
 31
0.0
  0
LINE
  5
771
330
1F
100
AcDbEntity
  8
0
  6
Continuous
 62
     7
370
    15
100
AcDbLine
 10
78.93096577245026
 20
211.0529500095989
 30
0.0
 11
78.61211165654689
 21
212.2429306655075
 31
0.0
  0
LINE
  5
772
330
1F
100
AcDbEntity
  8
0
  6
Continuous
 62
     7
370
    15
100
AcDbLine
 10
76.96827143299609
 20
214.1137230246217
 30
0.0
 11
78.61211165654689
 21
212.2429306655075
 31
0.0
  0
ELLIPSE
  5
773
330
1F
100
AcDbEntity
  8
0
  6
Continuous
 62
     7
370
    15
100
AcDbEllipse
 10
79.95257908802662
 20
211.0100584418341
 30
0.0
 11
0.5107202007371753
 21
-0.4963761366427804
 31
0.0
210
0.0
220
0.0
230
1.0
 40
0.1176561219537393
 41
0.6649282617744047
 42
1.450326425171934
  0
LINE
  5
774
330
1F
100
AcDbEntity
  8
0
  6
Continuous
 62
     7
370
    15
100
AcDbLine
 10
81.38831952455669
 20
209.3458431809093
 30
0.0
 11
80.39052985477477
 21
210.6565046160366
 31
0.0
  0
ELLIPSE
  5
775
330
1F
100
AcDbEntity
  8
0
  6
Continuous
 62
     7
370
    15
100
AcDbEllipse
 10
80.51241775532938
 20
210.0529516606479
 30
0.0
 11
1.021440401474382
 21
-0.9927522732856463
 31
0.0
210
0.0
220
0.0
230
1.0
 40
0.1176561219537162
 41
6.162715405556866
 42
6.948113568954103
  0
LINE
  5
776
330
1F
100
AcDbEntity
  8
0
  6
Continuous
 62
     7
370
    15
100
AcDbLine
 10
81.51241779196292
 20
209.0529534070642
 30
0.0
 11
80.93096563461452
 21
209.0529534070642
 31
0.0
  0
LINE
  5
777
330
1F
100
AcDbEntity
  8
0
  6
Continuous
 62
     7
370
    15
100
AcDbLine
 10
67.07161679732829
 20
212.2429306655075
 30
0.0
 11
68.71545702087908
 21
214.1137230246217
 31
0.0
  0
LINE
  5
778
330
1F
100
AcDbEntity
  8
0
  6
Continuous
 62
     7
370
    15
100
AcDbLine
 10
66.75276175010234
 20
211.0529500095989
 30
0.0
 11
67.07161679732829
 21
212.2429306655075
 31
0.0
  0
LINE
  5
779
330
1F
100
AcDbEntity
  8
0
  6
Continuous
 62
     7
370
    15
100
AcDbLine
 10
64.75276328492194
 20
209.0529534070642
 30
0.0
 11
66.75276175010234
 21
211.0529500095989
 31
0.0
  0
LINE
  5
77A
330
1F
100
AcDbEntity
  8
0
  6
Continuous
 62
     7
370
    15
100
AcDbLine
 10
64.17131066191226
 20
209.0529534070642
 30
0.0
 11
64.75276328492194
 21
209.0529534070642
 31
0.0
  0
ELLIPSE
  5
77B
330
1F
100
AcDbEntity
  8
0
  6
Continuous
 62
     7
370
    15
100
AcDbEllipse
 10
65.17131054953418
 20
210.0529516606479
 30
0.0
 11
1.021440401474372
 21
0.9927522732856031
 31
0.0
210
0.0
220
0.0
230
1.0
 40
0.1176561219537193
 41
2.476664391815404
 42
3.262062555212927
  0
LINE
  5
77C
330
1F
100
AcDbEntity
  8
0
  6
Continuous
 62
     7
370
    15
100
AcDbLine
 10
65.29319859910041
 20
210.6565046160366
 30
0.0
 11
64.29540939497977
 21
209.3458431809093
 31
0.0
  0
LINE
  5
77D
330
1F
100
AcDbEntity
  8
0
  6
Continuous
 62
     7
370
    15
100
AcDbLine
 10
78.61211165654689
 20
212.2429306655075
 30
0.0
 11
67.07161679732829
 21
212.2429306655075
 31
0.0
  0
LINE
  5
77E
330
1F
100
AcDbEntity
  8
0
  6
Continuous
 62
     7
370
    15
100
AcDbLine
 10
92.79319845008879
 20
210.6565046160366
 30
0.0
 11
80.39052985477477
 21
210.6565046160366
 31
0.0
  0
LINE
  5
77F
330
1F
100
AcDbEntity
  8
0
  6
Continuous
 62
     7
370
    15
100
AcDbLine
 10
116.2989718453887
 20
210.8529503493459
 30
0.0
 11
114.9883104102614
 21
210.8529503493459
 31
0.0
  0
ARC
  5
780
330
1F
100
AcDbEntity
  8
0
  6
Continuous
 62
     7
370
    15
100
AcDbCircle
 10
114.7918641524316
 20
210.8529516606476
 30
0.0
 40
1.507106781186536
100
AcDbArc
 50
270.0
 51
0.0
  0
LINE
  5
781
330
1F
100
AcDbEntity
  8
0
  6
Continuous
 62
     7
370
    15
100
AcDbLine
 10
114.7918646769526
 20
209.3458431809093
 30
0.0
 11
114.7918646769526
 21
210.6565046160366
 31
0.0
  0
LINE
  5
782
330
1F
100
AcDbEntity
  8
0
  6
Continuous
 62
     7
370
    15
100
AcDbLine
 10
58.39186362791092
 20
209.3458431809093
 30
0.0
 11
58.39186362791092
 21
210.6565046160366
 31
0.0
  0
ARC
  5
783
330
1F
100
AcDbEntity
  8
0
  6
Continuous
 62
     7
370
    15
100
AcDbCircle
 10
58.39186415243197
 20
210.8529516606476
 30
0.0
 40
1.507106781186546
100
AcDbArc
 50
180.0
 51
270.0
  0
LINE
  5
784
330
1F
100
AcDbEntity
  8
0
  6
Continuous
 62
     7
370
    15
100
AcDbLine
 10
56.88475645947487
 20
210.8529503493459
 30
0.0
 11
58.19541789460212
 21
210.8529503493459
 31
0.0
  0
LINE
  5
785
330
1F
100
AcDbEntity
  8
0
  6
Continuous
 62
     7
370
    15
100
AcDbLine
 10
116.2989718453887
 20
256.9355075283791
 30
0.0
 11
114.9883104102614
 21
256.9355075283791
 31
0.0
  0
LINE
  5
786
330
1F
100
AcDbEntity
  8
0
  6
Continuous
 62
     7
370
    15
100
AcDbLine
 10
116.2989718453887
 20
210.8529503493459
 30
0.0
 11
116.2989718453887
 21
256.9355075283791
 31
0.0
  0
LINE
  5
787
330
1F
100
AcDbEntity
  8
0
  6
Continuous
 62
     7
370
    15
100
AcDbLine
 10
56.88475645947487
 20
256.9355075283791
 30
0.0
 11
56.88475645947487
 21
210.8529503493459
 31
0.0
  0
LINE
  5
788
330
1F
100
AcDbEntity
  8
0
  6
Continuous
 62
     7
370
    15
100
AcDbLine
 10
56.88475645947487
 20
256.9355075283791
 30
0.0
 11
58.19541789460212
 21
256.9355075283791
 31
0.0
  0
LINE
  5
789
330
1F
100
AcDbEntity
  8
0
  6
Continuous
 62
     7
370
    15
100
AcDbLine
 10
58.39186362791092
 20
209.3458431809093
 30
0.0
 11
64.29540939497977
 21
209.3458431809093
 31
0.0
  0
LINE
  5
78A
330
1F
100
AcDbEntity
  8
0
  6
Continuous
 62
     7
370
    15
100
AcDbLine
 10
108.8883189098838
 20
209.3458431809093
 30
0.0
 11
114.7918646769526
 21
209.3458431809093
 31
0.0
  0
LINE
  5
78B
330
1F
100
AcDbEntity
  8
0
  6
Continuous
 62
     7
370
    15
100
AcDbLine
 10
58.1938886629346
 20
288.6873963325168
 30
0.0
 11
56.59186482298404
 21
288.6873963325168
 31
0.0
  0
SPLINE
  5
78C
330
1F
100
AcDbEntity
  8
0
  6
Continuous
 62
     7
370
    15
100
AcDbSpline
210
0.0
220
0.0
230
1.0
 70
     8
 71
     3
 72
    10
 73
     6
 74
     0
 42
0.000000001
 43
0.0000000001
 40
0.0
 40
0.0
 40
0.0
 40
0.0
 40
0.2211075992936108
 40
0.991746138472591
 40
1.0
 40
1.0
 40
1.0
 40
1.0
 10
56.59186482298404
 20
265.9477978049666
 30
0.0
 10
56.59535050976096
 20
265.2838581419209
 30
0.0
 10
56.61098505335989
 20
262.3058528670762
 30
0.0
 10
56.74346516579093
 20
259.3004624889926
 30
0.0
 10
56.88327490664463
 20
256.9603059828727
 30
0.0
 10
56.88475645947487
 20
256.9355075283791
 30
0.0
  0
LINE
  5
78D
330
1F
100
AcDbEntity
  8
0
  6
Continuous
 62
     7
370
    15
100
AcDbLine
 10
56.59186482298404
 20
265.9477978049666
 30
0.0
 11
56.59186482298404
 21
288.6873963325168
 31
0.0
  0
LINE
  5
78E
330
1F
100
AcDbEntity
  8
0
  6
Continuous
 62
     7
370
    15
100
AcDbLine
 10
114.9906741069558
 20
288.6908422260429
 30
0.0
 11
114.9883104102614
 21
288.6912408321049
 31
0.0
  0
SPLINE
  5
78F
330
1F
100
AcDbEntity
  8
0
  6
Continuous
 62
     7
370
    15
100
AcDbSpline
210
0.0
220
0.0
230
1.0
 70
     8
 71
     3
 72
    11
 73
     7
 74
     0
 42
0.000000001
 43
0.0000000001
 40
0.0
 40
0.0
 40
0.0
 40
0.0
 40
0.25783598802347
 40
0.5259449517493239
 40
0.9964464958066658
 40
1.0
 40
1.0
 40
1.0
 40
1.0
 10
114.9906741069558
 20
288.6908422260429
 30
0.0
 10
115.128093742353
 20
288.6906820071016
 30
0.0
 10
115.4084082324366
 20
288.6903551856061
 30
0.0
 10
115.9394754034979
 20
288.6888557133501
 30
0.0
 10
116.3343669634319
 20
288.6906506378553
 30
0.0
 10
116.5871615341753
 20
288.6883227531129
 30
0.0
 10
116.5890564756396
 20
288.6883053033497
 30
0.0
  0
LINE
  5
790
330
1F
100
AcDbEntity
  8
0
  6
Continuous
 62
     7
370
    15
100
AcDbLine
 10
116.5918634818795
 20
288.6873963325168
 30
0.0
 11
116.5918634818795
 21
265.9477978049666
 31
0.0
  0
SPLINE
  5
791
330
1F
100
AcDbEntity
  8
0
  6
Continuous
 62
     7
370
    15
100
AcDbSpline
210
0.0
220
0.0
230
1.0
 70
     8
 71
     3
 72
    10
 73
     6
 74
     0
 42
0.000000001
 43
0.0000000001
 40
0.0
 40
0.0
 40
0.0
 40
0.0
 40
0.0082538615274088
 40
0.7788924007063893
 40
1.0
 40
1.0
 40
1.0
 40
1.0
 10
116.2989718453887
 20
256.9355075283791
 30
0.0
 10
116.3004533982198
 20
256.9603059828727
 30
0.0
 10
116.4402631390717
 20
259.3004624889926
 30
0.0
 10
116.5727432515037
 20
262.3058528670762
 30
0.0
 10
116.5883777951026
 20
265.2838581419209
 30
0.0
 10
116.5918634818795
 20
265.9477978049666
 30
0.0
  0
LINE
  5
792
330
1F
100
AcDbEntity
  8
0
  6
Continuous
 62
     7
370
    15
100
AcDbLine
 10
81.38831952455669
 20
209.3458431809093
 30
0.0
 11
91.79540878030687
 21
209.3458431809093
 31
0.0
  0
LINE
  5
793
330
1F
100
AcDbEntity
  8
0
  6
Continuous
 62
     7
370
    15
100
AcDbLine
 10
106.4309665547612
 20
211.0529500095989
 30
0.0
 11
105.9930847572091
 21
211.0529500095989
 31
0.0
  0
LINE
  5
794
330
1F
100
AcDbEntity
  8
0
  6
Continuous
 62
     7
370
    15
100
AcDbLine
 10
94.69064060467511
 20
211.0529500095989
 30
0.0
 11
94.2527625324133
 21
211.0529500095989
 31
0.0
  0
LINE
  5
795
330
1F
100
AcDbEntity
  8
0
  6
Continuous
 62
     7
370
    15
100
AcDbLine
 10
66.75276175010234
 20
211.0529500095989
 30
0.0
 11
67.1906416850093
 21
211.0529500095989
 31
0.0
  0
LINE
  5
796
330
1F
100
AcDbEntity
  8
0
  6
Continuous
 62
     7
370
    15
100
AcDbLine
 10
78.4930858375433
 20
211.0529500095989
 30
0.0
 11
78.93096577245026
 21
211.0529500095989
 31
0.0
  0
LINE
  5
797
330
1F
100
AcDbEntity
  8
0
  6
Continuous
 62
     7
370
    15
100
AcDbLine
 10
56.59186482298404
 20
210.8529503493459
 30
0.0
 11
56.59186482298404
 21
265.9477978049666
 31
0.0
  0
LINE
  5
798
330
1F
100
AcDbEntity
  8
0
  6
Continuous
 62
     7
370
    15
100
AcDbLine
 10
56.59186482298404
 20
210.8529503493459
 30
0.0
 11
56.88475645947487
 21
210.8529503493459
 31
0.0
  0
LINE
  5
799
330
1F
100
AcDbEntity
  8
0
  6
Continuous
 62
     7
370
    15
100
AcDbLine
 10
116.5918634818795
 20
265.9477978049666
 30
0.0
 11
116.5918634818795
 21
210.8529503493459
 31
0.0
  0
LINE
  5
79A
330
1F
100
AcDbEntity
  8
0
  6
Continuous
 62
     7
370
    15
100
AcDbLine
 10
116.2989718453887
 20
210.8529503493459
 30
0.0
 11
116.5918634818795
 21
210.8529503493459
 31
0.0
  0
LINE
  5
79B
330
1F
100
AcDbEntity
  8
0
  6
Continuous
 62
     7
370
    15
100
AcDbLine
 10
114.7918646769526
 20
209.3458431809093
 30
0.0
 11
114.7918646769526
 21
209.0529534070642
 31
0.0
  0
LINE
  5
79C
330
1F
100
AcDbEntity
  8
0
  6
Continuous
 62
     7
370
    15
100
AcDbLine
 10
114.7918646769526
 20
209.0529534070642
 30
0.0
 11
109.0124176429513
 21
209.0529534070642
 31
0.0
  0
LINE
  5
79D
330
1F
100
AcDbEntity
  8
0
  6
Continuous
 62
     7
370
    15
100
AcDbLine
 10
64.17131066191226
 20
209.0529534070642
 30
0.0
 11
58.39186362791092
 21
209.0529534070642
 31
0.0
  0
LINE
  5
79E
330
1F
100
AcDbEntity
  8
0
  6
Continuous
 62
     7
370
    15
100
AcDbLine
 10
58.39186362791092
 20
209.0529534070642
 30
0.0
 11
58.39186362791092
 21
209.3458431809093
 31
0.0
  0
LINE
  5
79F
330
1F
100
AcDbEntity
  8
0
  6
Continuous
 62
     7
370
    15
100
AcDbLine
 10
91.67131051290065
 20
209.0529534070642
 30
0.0
 11
81.51241779196292
 21
209.0529534070642
 31
0.0
  0
ARC
  5
7A0
330
1F
100
AcDbEntity
  8
0
  6
Continuous
 62
     7
370
    15
100
AcDbCircle
 10
58.39186415243197
 20
210.8529516606476
 30
0.0
 40
1.799999999999993
100
AcDbArc
 50
180.0
 51
270.0
  0
ARC
  5
7A1
330
1F
100
AcDbEntity
  8
0
  6
Continuous
 62
     7
370
    15
100
AcDbCircle
 10
114.7918641524316
 20
210.8529516606476
 30
0.0
 40
1.799999999999982
100
AcDbArc
 50
270.0
 51
0.0
  0
LINE
  5
7A2
330
1F
100
AcDbEntity
  8
0
  6
Continuous
 62
     7
370
    15
100
AcDbLine
 10
112.8918641792538
 20
289.2529512791778
 30
0.0
 11
60.2918641256097
 21
289.2529512791778
 31
0.0
  0
SPLINE
  5
7A3
330
1F
100
AcDbEntity
  8
0
  6
Continuous
 62
     7
370
    15
100
AcDbSpline
210
0.0
220
0.0
230
1.0
 70
     8
 71
     3
 72
     9
 73
     5
 74
     0
 42
0.000000001
 43
0.0000000001
 40
0.0
 40
0.0
 40
0.0
 40
0.0
 40
0.9986966307724637
 40
1.0
 40
1.0
 40
1.0
 40
1.0
 10
58.19743327665359
 20
289.2022202758939
 30
0.0
 10
58.19762801730806
 20
289.216632969148
 30
0.0
 10
58.19782301211357
 20
289.2310644719786
 30
0.0
 10
58.19734635359377
 20
289.2453554123389
 30
0.0
 10
58.19734573233158
 20
289.2453740387108
 30
0.0
  0
LINE
  5
7A4
330
1F
100
AcDbEntity
  8
0
  6
Continuous
 62
     7
370
    15
100
AcDbLine
 10
58.19290891158611
 20
288.6906745879795
 30
0.0
 11
58.19743327665359
 21
289.2022202758939
 31
0.0
  0
SPLINE
  5
7A5
330
1F
100
AcDbEntity
  8
0
  6
Continuous
 62
     7
370
    15
100
AcDbSpline
210
0.0
220
0.0
230
1.0
 70
     8
 71
     3
 72
    13
 73
     9
 74
     0
 42
0.000000001
 43
0.0000000001
 40
0.0
 40
0.0
 40
0.0
 40
0.0
 40
0.1186043292547978
 40
0.2640575780332959
 40
0.4030848082265488
 40
0.5356859939177751
 40
0.7805456169681568
 40
1.0
 40
1.0
 40
1.0
 40
1.0
 10
58.30084733533889
 20
291.0506497173454
 30
0.0
 10
58.19350114503644
 20
291.0395300644422
 30
0.0
 10
57.95450839325035
 20
291.0147735599147
 30
0.0
 10
57.6069377725485
 20
290.8874238018474
 30
0.0
 10
57.28233092064105
 20
290.686907932325
 30
0.0
 10
56.94247907999537
 20
290.3607956309651
 30
0.0
 10
56.65290121524007
 20
289.8783320259416
 30
0.0
 10
56.6114543565432
 20
289.4536662407439
 30
0.0
 10
56.59186482298404
 20
289.2529512791778
 30
0.0
  0
SPLINE
  5
7A6
330
1F
100
AcDbEntity
  8
0
  6
Continuous
 62
     7
370
    15
100
AcDbSpline
210
0.0
220
0.0
230
1.0
 70
     8
 71
     3
 72
    16
 73
    12
 74
     0
 42
0.000000001
 43
0.0000000001
 40
0.0
 40
0.0
 40
0.0
 40
0.0
 40
0.2093314457384634
 40
0.3969924231635566
 40
0.556663606408804
 40
0.6341424990516451
 40
0.7086691339865724
 40
0.8006716558125205
 40
0.9067423782143425
 40
0.9659575234724108
 40
0.9999999999999998
 40
0.9999999999999998
 40
0.9999999999999998
 40
0.9999999999999998
 10
58.3022890226844
 20
290.9000213294174
 30
0.0
 10
58.30876227698404
 20
290.9203971282585
 30
0.0
 10
58.32103865954517
 20
290.9590393768098
 30
0.0
 10
58.33770867955494
 20
290.9978976148522
 30
0.0
 10
58.36827987235805
 20
291.0212937516984
 30
0.0
 10
58.33542227473348
 20
291.0327032242816
 30
0.0
 10
58.31983546910628
 20
291.0409557364245
 30
0.0
 10
58.34522395982052
 20
291.0477962466242
 30
0.0
 10
58.36970126472764
 20
291.0514878746311
 30
0.0
 10
58.38634722995042
 20
291.052815656007
 30
0.0
 10
58.39038843778466
 20
291.0529155000034
 30
0.0
 10
58.39186362791092
 20
291.0529519467499
 30
0.0
  0
SPLINE
  5
7A7
330
1F
100
AcDbEntity
  8
0
  6
Continuous
 62
     7
370
    15
100
AcDbSpline
210
0.0
220
0.0
230
1.0
 70
     8
 71
     3
 72
    11
 73
     7
 74
     0
 42
0.000000001
 43
0.0000000001
 40
0.0
 40
0.0
 40
0.0
 40
0.0
 40
0.00002541106912
 40
0.3450304543220564
 40
0.7229899739301809
 40
1.0
 40
1.0
 40
1.0
 40
1.0
 10
58.19734573233158
 20
289.2453740387108
 30
0.0
 10
58.19734573232157
 20
289.2453926651768
 30
0.0
 10
58.19734559846123
 20
289.4983020528156
 30
0.0
 10
58.20877008027359
 20
290.0117661951489
 30
0.0
 10
58.24594392380235
 20
290.5945268096833
 30
0.0
 10
58.28554170570127
 20
290.8092199347938
 30
0.0
 10
58.3022890226844
 20
290.9000213294174
 30
0.0
  0
SPLINE
  5
7A8
330
1F
100
AcDbEntity
  8
0
  6
Continuous
 62
     7
370
    15
100
AcDbSpline
210
0.0
220
0.0
230
1.0
 70
    24
 71
     3
 72
    10
 73
     6
 74
     0
 42
0.000000001
 43
0.0000000001
 40
0.0
 40
0.0
 40
0.0
 40
0.0
 40
0.2834931839796155
 40
0.5628308647385243
 40
1.0
 40
1.0
 40
1.0
 40
1.0
 10
56.59186482298404
 20
288.6874484865815
 30
0.0
 10
56.59186482298404
 20
288.7588151679332
 30
0.0
 10
56.59186482298404
 20
288.9005024226843
 30
0.0
 10
56.59186482298404
 20
289.1139173494934
 30
0.0
 10
56.59186482298404
 20
289.1931171827518
 30
0.0
 10
56.59186482298404
 20
289.2414401321556
 30
0.0
  0
SPLINE
  5
7A9
330
1F
100
AcDbEntity
  8
0
  6
Continuous
 62
     7
370
    15
100
AcDbSpline
210
0.0
220
0.0
230
1.0
 70
     8
 71
     3
 72
    13
 73
     9
 74
     0
 42
0.000000001
 43
0.0000000001
 40
0.0
 40
0.0
 40
0.0
 40
0.0
 40
0.2408465012159953
 40
0.5090152430986875
 40
0.6540501290503059
 40
0.8059968961144331
 40
0.9648560742399013
 40
1.0
 40
1.0
 40
1.0
 40
1.0
 10
116.5918634818795
 20
289.2529512791778
 30
0.0
 10
116.5721624125522
 20
289.4542865436523
 30
0.0
 10
116.5305253344027
 20
289.8797970579157
 30
0.0
 10
116.2398893122122
 20
290.3623522997385
 30
0.0
 10
115.8997499043967
 20
290.6886121312267
 30
0.0
 10
115.5748753476105
 20
290.886528085416
 30
0.0
 10
115.303444806897
 20
290.9920003215378
 30
0.0
 10
115.1441239121646
 20
291.0153161280472
 30
0.0
 10
115.1152627156976
 20
291.0195398180634
 30
0.0
  0
LINE
  5
7AA
330
1F
100
AcDbEntity
  8
0
  6
Continuous
 62
     7
370
    15
100
AcDbLine
 10
114.986170230985
 20
289.2024810462143
 30
0.0
 11
114.9906741069558
 21
288.6908422260429
 31
0.0
  0
SPLINE
  5
7AB
330
1F
100
AcDbEntity
  8
0
  6
Continuous
 62
     7
370
    15
100
AcDbSpline
210
0.0
220
0.0
230
1.0
 70
     8
 71
     3
 72
     9
 73
     5
 74
     0
 42
0.000000001
 43
0.0000000001
 40
0.0
 40
0.0
 40
0.0
 40
0.0
 40
0.0013878747177884
 40
1.0
 40
1.0
 40
1.0
 40
1.0
 10
114.9862652258876
 20
289.2454224674846
 30
0.0
 10
114.9862646046054
 20
289.2454025992682
 30
0.0
 10
114.9858169542354
 20
289.2310870300242
 30
0.0
 10
114.985993715271
 20
289.2167741058464
 30
0.0
 10
114.986170230985
 20
289.2024810462143
 30
0.0
  0
SPLINE
  5
7AC
330
1F
100
AcDbEntity
  8
0
  6
Continuous
 62
     7
370
    15
100
AcDbSpline
210
0.0
220
0.0
230
1.0
 70
     8
 71
     3
 72
    11
 73
     7
 74
     0
 42
0.000000001
 43
0.0000000001
 40
0.0
 40
0.0
 40
0.0
 40
0.0
 40
0.3863195239244504
 40
0.7636011595390875
 40
0.9999748005368395
 40
1.0
 40
1.0
 40
1.0
 40
1.0
 10
114.8828250901702
 20
290.8995705692913
 30
0.0
 10
114.9063571769707
 20
290.7635865768683
 30
0.0
 10
114.9528708208723
 20
290.4947999174773
 30
0.0
 10
114.9777491758027
 20
289.8568679215476
 30
0.0
 10
114.9862653424712
 20
289.4201780453817
 30
0.0
 10
114.9862652258994
 20
289.2454410939612
 30
0.0
 10
114.9862652258876
 20
289.2454224674846
 30
0.0
  0
SPLINE
  5
7AD
330
1F
100
AcDbEntity
  8
0
  6
Continuous
 62
     7
370
    15
100
AcDbSpline
210
0.0
220
0.0
230
1.0
 70
     8
 71
     3
 72
    13
 73
     9
 74
     0
 42
0.000000001
 43
0.0000000001
 40
0.0
 40
0.0
 40
0.0
 40
0.0
 40
0.0616259458514445
 40
0.3707139039066777
 40
0.4834079042869048
 40
0.596719709718704
 40
0.7807012766049811
 40
1.0
 40
1.0
 40
1.0
 40
1.0
 10
114.7918646769526
 20
291.0529519467499
 30
0.0
 10
114.7946326711913
 20
291.0528217046316
 30
0.0
 10
114.8112836764763
 20
291.0520382267709
 30
0.0
 10
114.8788620726832
 20
291.0413280706056
 30
0.0
 10
114.9211863706382
 20
291.0170839610822
 30
0.0
 10
114.8961863410682
 20
290.9933365305554
 30
0.0
 10
114.8331422226688
 20
290.9622597123652
 30
0.0
 10
114.8653246778881
 20
290.9216523432427
 30
0.0
 10
114.8828250901702
 20
290.8995705692913
 30
0.0
  0
LINE
  5
7AE
330
1F
100
AcDbEntity
  8
0
  6
Continuous
 62
     7
370
    15
100
AcDbLine
 10
116.5918634818795
 20
288.687411233678
 30
0.0
 11
116.5918634818795
 21
288.8995143621113
 31
0.0
  0
SPLINE
  5
7AF
330
1F
100
AcDbEntity
  8
0
  6
Continuous
 62
     7
370
    15
100
AcDbSpline
210
0.0
220
0.0
230
1.0
 70
    24
 71
     3
 72
     9
 73
     5
 74
     0
 42
0.000000001
 43
0.0000000001
 40
0.0
 40
0.0
 40
0.0
 40
0.0
 40
0.5069780013488302
 40
1.0
 40
1.0
 40
1.0
 40
1.0
 10
116.5918634818795
 20
288.8995143621113
 30
0.0
 10
116.5918634818795
 20
288.9782348766252
 30
0.0
 10
116.5918634818795
 20
289.1335089009502
 30
0.0
 10
116.5918634818795
 20
289.2056446520004
 30
0.0
 10
116.5918634818795
 20
289.2412091641571
 30
0.0
  0
ARC
  5
7B0
330
1F
100
AcDbEntity
  8
0
  6
Continuous
 62
     7
370
    15
100
AcDbCircle
 10
114.6326815920343
 20
287.9942686205294
 30
0.0
 40
1.258861185137806
100
AcDbArc
 50
73.69202316915324
 51
89.03504919280548
  0
ARC
  5
7B1
330
1F
100
AcDbEntity
  8
0
  6
Continuous
 62
     7
370
    15
100
AcDbCircle
 10
58.55231789604889
 20
287.9917737194168
 30
0.0
 40
1.261397621358915
100
AcDbArc
 50
91.07026191454075
 51
106.3403389792531
  0
SPLINE
  5
7B2
330
1F
100
AcDbEntity
  8
0
  6
Continuous
 62
     7
370
    15
100
AcDbSpline
210
0.0
220
0.0
230
1.0
 70
     8
 71
     3
 72
    11
 73
     7
 74
     0
 42
0.000000001
 43
0.0000000001
 40
0.0
 40
0.0
 40
0.0
 40
0.0
 40
0.2604026123493584
 40
0.6309798629240295
 40
0.9243634285884624
 40
1.0
 40
1.0
 40
1.0
 40
1.0
 10
114.6538817869428
 20
289.2529512791778
 30
0.0
 10
114.6633562272004
 20
289.4466675966031
 30
0.0
 10
114.6863136812804
 20
289.9160603354552
 30
0.0
 10
114.7356519618565
 20
290.4727146569056
 30
0.0
 10
114.787070201111
 20
290.7826226618248
 30
0.0
 10
114.8038515073235
 20
290.8855547670581
 30
0.0
 10
114.8072911040786
 20
290.9066523461492
 30
0.0
  0
ARC
  5
7B3
330
1F
100
AcDbEntity
  8
0
  6
Continuous
 62
     7
370
    15
100
AcDbCircle
 10
114.7958368037348
 20
290.3781188513211
 30
0.0
 40
0.5286575982156268
100
AcDbArc
 50
80.52916100522239
 51
88.75848861610995
  0
ARC
  5
7B4
330
1F
100
AcDbEntity
  8
0
  6
Continuous
 62
     7
370
    15
100
AcDbCircle
 10
58.38680795777376
 20
290.3775845482591
 30
0.0
 40
0.5292292893408014
100
AcDbArc
 50
91.25999283212323
 51
99.18959518223996
  0
SPLINE
  5
7B5
330
1F
100
AcDbEntity
  8
0
  6
Continuous
 62
     7
370
    15
100
AcDbSpline
210
0.0
220
0.0
230
1.0
 70
     8
 71
     3
 72
    10
 73
     6
 74
     0
 42
0.000000001
 43
0.0000000001
 40
0.0
 40
0.0
 40
0.0
 40
0.0
 40
0.2634480438173215
 40
0.6315068297284218
 40
1.0
 40
1.0
 40
1.0
 40
1.0
 10
58.37517060208351
 20
290.9066858737618
 30
0.0
 10
58.38966780039076
 20
290.8230886523096
 30
0.0
 10
58.42441878813546
 20
290.6226991731227
 30
0.0
 10
58.48611866879267
 20
290.065612126405
 30
0.0
 10
58.51453854969217
 20
289.5239447117368
 30
0.0
 10
58.5287568705085
 20
289.2529512791778
 30
0.0
  0
SPLINE
  5
7B6
330
1F
100
AcDbEntity
  8
0
  6
Continuous
 62
     7
370
    15
100
AcDbSpline
210
0.0
220
0.0
230
1.0
 70
     8
 71
     3
 72
    14
 73
    10
 74
     0
 42
0.000000001
 43
0.0000000001
 40
0.0
 40
0.0
 40
0.0
 40
0.0
 40
0.266390671167809
 40
0.3911382378994419
 40
0.5269583201370533
 40
0.6119686584810883
 40
0.9228043284518713
 40
0.9724919474561312
 40
1.0
 40
1.0
 40
1.0
 40
1.0
 10
114.8072911040786
 20
290.9066523461492
 30
0.0
 10
114.80161788139
 20
290.9310768588392
 30
0.0
 10
114.7932879563373
 20
290.9669390788384
 30
0.0
 10
114.8334572478002
 20
291.0001579291255
 30
0.0
 10
114.8692448133675
 20
291.0181522791967
 30
0.0
 10
114.8493439832341
 20
291.0410058875612
 30
0.0
 10
114.8092083650076
 20
291.0507448886282
 30
0.0
 10
114.7941851131905
 20
291.0528627021644
 30
0.0
 10
114.7924743083909
 20
291.0529285001652
 30
0.0
 10
114.7918646769526
 20
291.0529519467499
 30
0.0
  0
SPLINE
  5
7B7
330
1F
100
AcDbEntity
  8
0
  6
Continuous
 62
     7
370
    15
100
AcDbSpline
210
0.0
220
0.0
230
1.0
 70
     8
 71
     3
 72
    20
 73
    16
 74
     0
 42
0.000000001
 43
0.0000000001
 40
0.0
 40
0.0
 40
0.0
 40
0.0
 40
0.0377032500070797
 40
0.049642927149503
 40
0.0669916198048959
 40
0.0948751371052252
 40
0.1080212901036159
 40
0.2021382651525261
 40
0.2880239385706304
 40
0.3542808604208259
 40
0.438630656465932
 40
0.4586354714993947
 40
0.6095136915270826
 40
0.7320828069786806
 40
1.0
 40
1.0
 40
1.0
 40
1.0
 10
58.39186362791092
 20
291.0529519467499
 30
0.0
 10
58.3908591768018
 20
291.0529125881057
 30
0.0
 10
58.38953664112572
 20
291.0528607655614
 30
0.0
 10
58.38656133526323
 20
291.0525702996173
 30
0.0
 10
58.38379622451297
 20
291.0522415503982
 30
0.0
 10
58.38063955977808
 20
291.0517893309151
 30
0.0
 10
58.37288948463132
 20
291.0504430658474
 30
0.0
 10
58.36154502827734
 20
291.0476056201432
 30
0.0
 10
58.34589485176142
 20
291.0416502868997
 30
0.0
 10
58.36569993627885
 20
291.0343355039458
 30
0.0
 10
58.37859217056351
 20
291.0279484009196
 30
0.0
 10
58.38704073207331
 20
291.0167820798255
 30
0.0
 10
58.37832680401383
 20
291.0012860318833
 30
0.0
 10
58.36866895198685
 20
290.9662607066015
 30
0.0
 10
58.372524954179
 20
290.9309280321839
 30
0.0
 10
58.37517060208351
 20
290.9066858737618
 30
0.0
  0
LINE
  5
7B8
330
1F
100
AcDbEntity
  8
0
  6
Continuous
 62
     7
370
    15
100
AcDbLine
 10
114.7918646769526
 20
291.0529519467499
 30
0.0
 11
58.39186362791092
 21
291.0529519467499
 31
0.0
  0
LINE
  5
7B9
330
1F
100
AcDbEntity
  8
0
  6
Continuous
 62
     7
370
    15
100
AcDbLine
 10
106.6418645517829
 20
210.5529527216102
 30
0.0
 11
106.7168639587167
 21
210.5529527216102
 31
0.0
  0
LINE
  5
7BA
330
1F
100
AcDbEntity
  8
0
  6
Continuous
 62
     7
370
    15
100
AcDbLine
 10
94.04186406973034
 20
210.5529527216102
 30
0.0
 11
94.39459644126921
 21
210.5529527216102
 31
0.0
  0
LINE
  5
7BB
330
1F
100
AcDbEntity
  8
0
  6
Continuous
 62
     7
370
    15
100
AcDbLine
 10
106.2891279892924
 20
210.5529527216102
 30
0.0
 11
106.6418645517829
 21
210.5529527216102
 31
0.0
  0
LINE
  5
7BC
330
1F
100
AcDbEntity
  8
0
  6
Continuous
 62
     7
370
    15
100
AcDbLine
 10
93.96686419713526
 20
210.5529527216102
 30
0.0
 11
94.04186406973034
 21
210.5529527216102
 31
0.0
  0
LINE
  5
7BD
330
1F
100
AcDbEntity
  8
0
  6
Continuous
 62
     7
370
    15
100
AcDbLine
 10
106.6418645517829
 20
210.5529527216102
 30
0.0
 11
106.6418645517829
 21
210.1029525547172
 31
0.0
  0
LINE
  5
7BE
330
1F
100
AcDbEntity
  8
0
  6
Continuous
 62
     7
370
    15
100
AcDbLine
 10
94.04186406973034
 20
210.1029525547172
 30
0.0
 11
94.04186406973034
 21
210.5529527216102
 31
0.0
  0
LINE
  5
7BF
330
1F
100
AcDbEntity
  8
0
  6
Continuous
 62
     7
370
    15
100
AcDbLine
 10
79.14186423513323
 20
210.5529527216102
 30
0.0
 11
79.2168641077283
 21
210.5529527216102
 31
0.0
  0
LINE
  5
7C0
330
1F
100
AcDbEntity
  8
0
  6
Continuous
 62
     7
370
    15
100
AcDbLine
 10
66.54186375308066
 20
210.5529527216102
 30
0.0
 11
66.89459845292597
 21
210.5529527216102
 31
0.0
  0
LINE
  5
7C1
330
1F
100
AcDbEntity
  8
0
  6
Continuous
 62
     7
370
    15
100
AcDbLine
 10
78.7891300009492
 20
210.5529527216102
 30
0.0
 11
79.14186423513323
 21
210.5529527216102
 31
0.0
  0
LINE
  5
7C2
330
1F
100
AcDbEntity
  8
0
  6
Continuous
 62
     7
370
    15
100
AcDbLine
 10
66.46686434614688
 20
210.5529527216102
 30
0.0
 11
66.54186375308066
 21
210.5529527216102
 31
0.0
  0
LINE
  5
7C3
330
1F
100
AcDbEntity
  8
0
  6
Continuous
 62
     7
370
    15
100
AcDbLine
 10
66.54186375308066
 20
210.1029525547172
 30
0.0
 11
66.54186375308066
 21
210.5529527216102
 31
0.0
  0
LINE
  5
7C4
330
1F
100
AcDbEntity
  8
0
  6
Continuous
 62
     7
370
    15
100
AcDbLine
 10
79.14186423513323
 20
210.5529527216102
 30
0.0
 11
79.14186423513323
 21
210.1029525547172
 31
0.0
  0
LINE
  5
7C5
330
1F
100
AcDbEntity
  8
0
  6
Continuous
 62
     7
370
    15
100
AcDbLine
 10
106.7168639587167
 20
210.6779511122848
 30
0.0
 11
106.2949878709319
 21
210.6779511122848
 31
0.0
  0
LINE
  5
7C6
330
1F
100
AcDbEntity
  8
0
  6
Continuous
 62
     7
370
    15
100
AcDbLine
 10
94.38873702529102
 20
210.6779511122848
 30
0.0
 11
93.96686419713526
 21
210.6779511122848
 31
0.0
  0
LINE
  5
7C7
330
1F
100
AcDbEntity
  8
0
  6
Continuous
 62
     7
370
    15
100
AcDbLine
 10
79.2168641077283
 20
210.6779511122848
 30
0.0
 11
78.7949889512661
 21
210.6779511122848
 31
0.0
  0
LINE
  5
7C8
330
1F
100
AcDbEntity
  8
0
  6
Continuous
 62
     7
370
    15
100
AcDbLine
 10
66.88873857128649
 20
210.6779511122848
 30
0.0
 11
66.46686434614688
 21
210.6779511122848
 31
0.0
  0
LINE
  5
7C9
330
1F
100
AcDbEntity
  8
0
  6
Continuous
 62
     7
370
    15
100
AcDbLine
 10
78.38954791295558
 20
210.5444478838589
 30
0.0
 11
67.2941805409196
 21
210.5444478838589
 31
0.0
  0
LINE
  5
7CA
330
1F
100
AcDbEntity
  8
0
  6
Continuous
 62
     7
370
    15
100
AcDbLine
 10
78.81256719920068
 20
211.0529500095989
 30
0.0
 11
78.78910951185256
 21
210.5525205879361
 31
0.0
  0
ARC
  5
7CB
330
1F
100
AcDbEntity
  8
0
  6
Continuous
 62
     7
370
    15
100
AcDbCircle
 10
78.5590702323557
 20
212.0461393652398
 30
0.0
 40
1.51122967216332
100
AcDbArc
 50
263.5592849762989
 51
278.7555969078792
  0
ARC
  5
7CC
330
1F
100
AcDbEntity
  8
0
  6
Continuous
 62
     7
370
    15
100
AcDbCircle
 10
67.12465814552027
 20
212.0461356036516
 30
0.0
 40
1.511225942841411
100
AcDbArc
 50
261.2443842311208
 51
276.4407338847401
  0
LINE
  5
7CD
330
1F
100
AcDbEntity
  8
0
  6
Continuous
 62
     7
370
    15
100
AcDbLine
 10
66.89461894202262
 20
210.5525205879361
 30
0.0
 11
66.8711607890132
 21
211.0529500095989
 31
0.0
  0
LWPOLYLINE
  5
7CE
330
1F
100
AcDbEntity
  8
0
  6
Continuous
 62
     7
370
    15
100
AcDbPolyline
 90
       10
 70
   128
 43
0.0
 10
66.89898125696212
 20
210.4594442098286
 10
66.89897380638152
 20
210.459611847892
 10
66.89882852005988
 20
210.4627224652917
 10
66.8985416727069
 20
210.4688431172516
 10
66.89812257754832
 20
210.4777875392587
 10
66.89758427310019
 20
210.4892726092483
 10
66.89694352316886
 20
210.5029406993534
 10
66.89621895420581
 20
210.5183671264798
 10
66.89543664324313
 20
210.5350676028873
 10
66.89461894202262
 20
210.5525205879361
  0
LWPOLYLINE
  5
7CF
330
1F
100
AcDbEntity
  8
0
  6
Continuous
 62
     7
370
    15
100
AcDbPolyline
 90
       10
 70
   128
 43
0.0
 10
78.78910951185256
 20
210.5525205879361
 10
78.78829134497076
 20
210.5350676028873
 10
78.78750856834679
 20
210.5183671264798
 10
78.7867853963676
 20
210.5029406993534
 10
78.78614464643627
 20
210.4892726092483
 10
78.78560634198814
 20
210.4777875392587
 10
78.78518724682956
 20
210.4688431172516
 10
78.78490039947658
 20
210.4627224652917
 10
78.78475464749365
 20
210.459611847892
 10
78.78474673125177
 20
210.4594442098286
  0
LINE
  5
7D0
330
1F
100
AcDbEntity
  8
0
  6
Continuous
 62
     7
370
    15
100
AcDbLine
 10
106.3125656532052
 20
211.0529500095989
 30
0.0
 11
106.2891075001958
 21
210.5525205879361
 31
0.0
  0
ARC
  5
7D1
330
1F
100
AcDbEntity
  8
0
  6
Continuous
 62
     7
370
    15
100
AcDbCircle
 10
106.0590682966981
 20
212.0461356036516
 30
0.0
 40
1.51122594284141
100
AcDbArc
 50
263.5592661152598
 51
278.7556157688792
  0
LINE
  5
7D2
330
1F
100
AcDbEntity
  8
0
  6
Continuous
 62
     7
370
    15
100
AcDbLine
 10
105.8895459012988
 20
210.5444478838589
 30
0.0
 11
94.79417759794026
 21
210.5444478838589
 31
0.0
  0
ARC
  5
7D3
330
1F
100
AcDbEntity
  8
0
  6
Continuous
 62
     7
370
    15
100
AcDbCircle
 10
94.624655702733
 20
212.0461338219301
 30
0.0
 40
1.511224116256431
100
AcDbArc
 50
261.2443901036295
 51
276.4407226179987
  0
LINE
  5
7D4
330
1F
100
AcDbEntity
  8
0
  6
Continuous
 62
     7
370
    15
100
AcDbLine
 10
94.39461693036585
 20
210.5525205879361
 30
0.0
 11
94.37115924301773
 21
211.0529500095989
 31
0.0
  0
LWPOLYLINE
  5
7D5
330
1F
100
AcDbEntity
  8
0
  6
Continuous
 62
     7
370
    15
100
AcDbPolyline
 90
       10
 70
   128
 43
0.0
 10
106.2891075001958
 20
210.5525205879361
 10
106.2882897989753
 20
210.5350676028873
 10
106.2875074880126
 20
210.5183671264798
 10
106.2867829190495
 20
210.5029406993534
 10
106.2861421691182
 20
210.4892726092483
 10
106.2856038646701
 20
210.4777875392587
 10
106.2851847695115
 20
210.4688431172516
 10
106.2848979221585
 20
210.4627224652917
 10
106.2847526358369
 20
210.459611847892
 10
106.2847451852563
 20
210.4594442098286
  0
LWPOLYLINE
  5
7D6
330
1F
100
AcDbEntity
  8
0
  6
Continuous
 62
     7
370
    15
100
AcDbPolyline
 90
       10
 70
   128
 43
0.0
 10
94.39897971096664
 20
210.4594442098286
 10
94.39897179472476
 20
210.459611847892
 10
94.39882604274183
 20
210.4627224652917
 10
94.39853919538885
 20
210.4688431172516
 10
94.39812010023027
 20
210.4777875392587
 10
94.39758133012086
 20
210.4892726092483
 10
94.39694104585081
 20
210.5029406993534
 10
94.39621787387162
 20
210.5183671264798
 10
94.39543509724765
 20
210.5350676028873
 10
94.39461693036585
 20
210.5525205879361
  0
LINE
  5
7D7
330
1F
100
AcDbEntity
  8
0
  6
Continuous
 62
     7
370
    15
100
AcDbLine
 10
80.88096571955114
 20
209.1029505281593
 30
0.0
 11
80.21686427164107
 21
209.1029505281593
 31
0.0
  0
LINE
  5
7D8
330
1F
100
AcDbEntity
  8
0
  6
Continuous
 62
     7
370
    15
100
AcDbLine
 10
80.21686427164107
 20
209.1029505281593
 30
0.0
 11
79.2168641077283
 21
210.1029525547172
 31
0.0
  0
LINE
  5
7D9
330
1F
100
AcDbEntity
  8
0
  6
Continuous
 62
     7
370
    15
100
AcDbLine
 10
79.2168641077283
 20
210.1029525547172
 30
0.0
 11
79.2168641077283
 21
210.7670526056439
 31
0.0
  0
LINE
  5
7DA
330
1F
100
AcDbEntity
  8
0
  6
Continuous
 62
     7
370
    15
100
AcDbLine
 10
66.46686434614688
 20
210.1029525547172
 30
0.0
 11
65.4668641822341
 21
209.1029505281593
 31
0.0
  0
LINE
  5
7DB
330
1F
100
AcDbEntity
  8
0
  6
Continuous
 62
     7
370
    15
100
AcDbLine
 10
65.4668641822341
 20
209.1029505281593
 30
0.0
 11
64.80276226866275
 21
209.1029505281593
 31
0.0
  0
LINE
  5
7DC
330
1F
100
AcDbEntity
  8
0
  6
Continuous
 62
     7
370
    15
100
AcDbLine
 10
66.46686434614688
 20
210.7670526056439
 30
0.0
 11
66.46686434614688
 21
210.1029525547172
 31
0.0
  0
LINE
  5
7DD
330
1F
100
AcDbEntity
  8
0
  6
Continuous
 62
     7
370
    15
100
AcDbLine
 10
108.3809660362008
 20
209.1029505281593
 30
0.0
 11
107.7168641226294
 21
209.1029505281593
 31
0.0
  0
LINE
  5
7DE
330
1F
100
AcDbEntity
  8
0
  6
Continuous
 62
     7
370
    15
100
AcDbLine
 10
107.7168641226294
 20
209.1029505281593
 30
0.0
 11
106.7168639587167
 21
210.1029525547172
 31
0.0
  0
LINE
  5
7DF
330
1F
100
AcDbEntity
  8
0
  6
Continuous
 62
     7
370
    15
100
AcDbLine
 10
106.7168639587167
 20
210.1029525547172
 30
0.0
 11
106.7168639587167
 21
210.7670526056439
 31
0.0
  0
LINE
  5
7E0
330
1F
100
AcDbEntity
  8
0
  6
Continuous
 62
     7
370
    15
100
AcDbLine
 10
93.96686419713526
 20
210.1029525547172
 30
0.0
 11
92.96686403322249
 21
209.1029505281593
 31
0.0
  0
LINE
  5
7E1
330
1F
100
AcDbEntity
  8
0
  6
Continuous
 62
     7
370
    15
100
AcDbLine
 10
92.96686403322249
 20
209.1029505281593
 30
0.0
 11
92.30276258531242
 21
209.1029505281593
 31
0.0
  0
LINE
  5
7E2
330
1F
100
AcDbEntity
  8
0
  6
Continuous
 62
     7
370
    15
100
AcDbLine
 10
93.96686419713526
 20
210.7670526056439
 30
0.0
 11
93.96686419713526
 21
210.1029525547172
 31
0.0
  0
LINE
  5
7E3
330
1F
100
AcDbEntity
  8
0
  6
Continuous
 62
     7
370
    15
100
AcDbLine
 10
93.96686419713526
 20
210.1029525547172
 30
0.0
 11
94.65935747939377
 21
210.1029525547172
 31
0.0
  0
LINE
  5
7E4
330
1F
100
AcDbEntity
  8
0
  6
Continuous
 62
     7
370
    15
100
AcDbLine
 10
106.0243678824904
 20
210.1029525547172
 30
0.0
 11
106.7168639587167
 21
210.1029525547172
 31
0.0
  0
LINE
  5
7E5
330
1F
100
AcDbEntity
  8
0
  6
Continuous
 62
     7
370
    15
100
AcDbLine
 10
92.96686403322249
 20
209.1029505281593
 30
0.0
 11
107.7168641226294
 21
209.1029505281593
 31
0.0
  0
LINE
  5
7E6
330
1F
100
AcDbEntity
  8
0
  6
Continuous
 62
     7
370
    15
100
AcDbLine
 10
66.46686434614688
 20
210.1029525547172
 30
0.0
 11
67.15935855972796
 21
210.1029525547172
 31
0.0
  0
LINE
  5
7E7
330
1F
100
AcDbEntity
  8
0
  6
Continuous
 62
     7
370
    15
100
AcDbLine
 10
78.52436896282464
 20
210.1029525547172
 30
0.0
 11
79.2168641077283
 21
210.1029525547172
 31
0.0
  0
LINE
  5
7E8
330
1F
100
AcDbEntity
  8
0
  6
Continuous
 62
     7
370
    15
100
AcDbLine
 10
65.4668641822341
 20
209.1029505281593
 30
0.0
 11
80.21686427164107
 21
209.1029505281593
 31
0.0
  0
LINE
  5
7E9
330
1F
100
AcDbEntity
  8
0
  6
Continuous
 62
     7
370
    15
100
AcDbLine
 10
103.3168641464713
 20
291.1029527931358
 30
0.0
 11
69.86686415839225
 21
291.1029527931358
 31
0.0
  0
LINE
  5
7EA
330
1F
100
AcDbEntity
  8
0
  6
Continuous
 62
     7
370
    15
100
AcDbLine
 10
114.7918646769526
 20
291.1029527931358
 30
0.0
 11
107.3168648021224
 21
291.1029527931358
 31
0.0
  0
LINE
  5
7EB
330
1F
100
AcDbEntity
  8
0
  6
Continuous
 62
     7
370
    15
100
AcDbLine
 10
116.5918634818795
 20
289.3029521255638
 30
0.0
 11
116.5733376132253
 21
289.5605447738315
 31
0.0
  0
ARC
  5
7EC
330
1F
100
AcDbEntity
  8
0
  6
Continuous
 62
     7
370
    15
100
AcDbCircle
 10
114.7918641524316
 20
289.3029516606474
 30
0.0
 40
1.800000000000025
100
AcDbArc
 50
18.6094625121064
 51
90.0
  0
ARC
  5
7ED
330
1F
100
AcDbEntity
  8
0
  6
Continuous
 62
     7
370
    15
100
AcDbCircle
 10
58.39186415243197
 20
289.3029516606474
 30
0.0
 40
1.800000000000025
100
AcDbArc
 50
90.0
 51
162.2870121908005
  0
LWPOLYLINE
  5
7EE
330
1F
100
AcDbEntity
  8
0
  6
Continuous
 62
     7
370
    15
100
AcDbPolyline
 90
        3
 70
   128
 43
0.0
 10
56.65814146268398
 20
289.7868971376569
 10
56.62645041811496
 20
289.654112890258
 10
56.59186482298404
 20
289.3029521255638
  0
LINE
  5
7EF
330
1F
100
AcDbEntity
  8
0
  6
Continuous
 62
     7
370
    15
100
AcDbLine
 10
65.86686350274115
 20
291.1029527931358
 30
0.0
 11
58.39186362791092
 21
291.1029527931358
 31
0.0
  0
LINE
  5
7F0
330
1F
100
AcDbEntity
  8
0
  6
Continuous
 62
     7
370
    15
100
AcDbLine
 10
107.3168648021224
 20
291.1029527931358
 30
0.0
 11
103.3168641464713
 21
291.1029527931358
 31
0.0
  0
LINE
  5
7F1
330
1F
100
AcDbEntity
  8
0
  6
Continuous
 62
     7
370
    15
100
AcDbLine
 10
69.86686415839225
 20
291.1029527931358
 30
0.0
 11
65.86686350274115
 21
291.1029527931358
 31
0.0
  0
LINE
  5
7F2
330
1F
100
AcDbEntity
  8
0
  6
Continuous
 62
     7
370
    15
100
AcDbLine
 10
93.96686419713526
 20
210.5029518752243
 30
0.0
 11
94.04186406973034
 21
210.5029518752243
 31
0.0
  0
LINE
  5
7F3
330
1F
100
AcDbEntity
  8
0
  6
Continuous
 62
     7
370
    15
100
AcDbLine
 10
106.6418645517829
 20
210.5029518752243
 30
0.0
 11
106.7168639587167
 21
210.5029518752243
 31
0.0
  0
LINE
  5
7F4
330
1F
100
AcDbEntity
  8
0
  6
Continuous
 62
     7
370
    15
100
AcDbLine
 10
66.46686434614688
 20
210.5029518752243
 30
0.0
 11
66.54186375308066
 21
210.5029518752243
 31
0.0
  0
LINE
  5
7F5
330
1F
100
AcDbEntity
  8
0
  6
Continuous
 62
     7
370
    15
100
AcDbLine
 10
79.14186423513323
 20
210.5029518752243
 30
0.0
 11
79.2168641077283
 21
210.5029518752243
 31
0.0
  0
LINE
  5
7F6
330
1F
100
AcDbEntity
  8
0
  6
Continuous
 62
     8
370
    15
100
AcDbLine
 10
94.07776236403018
 20
210.8779507725389
 30
0.0
 11
94.37936233225494
 21
210.8779507725389
 31
0.0
  0
LINE
  5
7F7
330
1F
100
AcDbEntity
  8
0
  6
Continuous
 62
     8
370
    15
100
AcDbLine
 10
106.304362563968
 20
210.8779507725389
 30
0.0
 11
106.6059657918217
 21
210.8779507725389
 31
0.0
  0
LINE
  5
7F8
330
1F
100
AcDbEntity
  8
0
  6
Continuous
 62
     8
370
    15
100
AcDbLine
 10
66.57776251304179
 20
210.8779507725389
 30
0.0
 11
66.87936387825041
 21
210.8779507725389
 31
0.0
  0
LINE
  5
7F9
330
1F
100
AcDbEntity
  8
0
  6
Continuous
 62
     8
370
    15
100
AcDbLine
 10
78.80436410996347
 20
210.8779507725389
 30
0.0
 11
79.10596594083338
 21
210.8779507725389
 31
0.0
  0
LINE
  5
7FA
330
1F
100
AcDbEntity
  8
0
  6
Continuous
 62
     8
370
    15
100
AcDbLine
 10
78.38954791295558
 20
210.5444478838589
 30
0.0
 11
78.41350991147786
 21
211.0556284933235
 31
0.0
  0
LINE
  5
7FB
330
1F
100
AcDbEntity
  8
0
  6
Continuous
 62
     8
370
    15
100
AcDbLine
 10
67.27021761107474
 20
211.0556284933235
 30
0.0
 11
67.2941805409196
 21
210.5444478838589
 31
0.0
  0
LWPOLYLINE
  5
7FC
330
1F
100
AcDbEntity
  8
0
  6
Continuous
 62
     8
370
    15
100
AcDbPolyline
 90
       10
 70
   128
 43
0.0
 10
67.2941805409196
 20
210.5444478838589
 10
67.29499824214011
 20
210.4571755080368
 10
67.29578055310279
 20
210.3736694007065
 10
67.29650325942069
 20
210.2965447156574
 10
67.29714400935202
 20
210.2282005398418
 10
67.29768231380015
 20
210.1707751898915
 10
67.29810140895873
 20
210.1260605304391
 10
67.29839011895686
 20
210.0954535453464
 10
67.2985354052785
 20
210.079907908931
 10
67.29855403172999
 20
210.0779521315243
  0
LWPOLYLINE
  5
7FD
330
1F
100
AcDbEntity
  8
0
  6
Continuous
 62
     8
370
    15
100
AcDbPolyline
 90
       10
 70
   128
 43
0.0
 10
78.38517535346776
 20
210.0779521315243
 10
78.38519304859667
 20
210.079907908931
 10
78.38533926624089
 20
210.0954535453464
 10
78.38562611359387
 20
210.1260605304391
 10
78.38604520875245
 20
210.1707751898915
 10
78.38658351320058
 20
210.2282005398418
 10
78.38722426313191
 20
210.2965447156574
 10
78.38794696944981
 20
210.3736694007065
 10
78.38873021173506
 20
210.4571755080368
 10
78.38954791295558
 20
210.5444478838589
  0
LINE
  5
7FE
330
1F
100
AcDbEntity
  8
0
  6
Continuous
 62
     8
370
    15
100
AcDbLine
 10
105.8895459012988
 20
210.5444478838589
 30
0.0
 11
105.9135088311436
 21
211.0556284933235
 31
0.0
  0
LINE
  5
7FF
330
1F
100
AcDbEntity
  8
0
  6
Continuous
 62
     8
370
    15
100
AcDbLine
 10
94.77021653074055
 20
211.0556284933235
 30
0.0
 11
94.79417759794026
 21
210.5444478838589
 31
0.0
  0
LWPOLYLINE
  5
800
330
1F
100
AcDbEntity
  8
0
  6
Continuous
 62
     8
370
    15
100
AcDbPolyline
 90
       10
 70
   128
 43
0.0
 10
105.8851724104884
 20
210.0779521315243
 10
105.8851910369399
 20
210.079907908931
 10
105.8853363232615
 20
210.0954535453464
 10
105.8856231706145
 20
210.1260605304391
 10
105.8860441284182
 20
210.1707751898915
 10
105.8865824328664
 20
210.2282005398418
 10
105.8872231827977
 20
210.2965447156574
 10
105.8879458891156
 20
210.3736694007065
 10
105.8887282000783
 20
210.4571755080368
 10
105.8895459012988
 20
210.5444478838589
  0
LWPOLYLINE
  5
801
330
1F
100
AcDbEntity
  8
0
  6
Continuous
 62
     8
370
    15
100
AcDbPolyline
 90
       10
 70
   128
 43
0.0
 10
94.79417759794026
 20
210.5444478838589
 10
94.79499623048335
 20
210.4571755080368
 10
94.7957794727686
 20
210.3736694007065
 10
94.7965021790865
 20
210.2965447156574
 10
94.79714292901784
 20
210.2282005398418
 10
94.79768123346596
 20
210.1707751898915
 10
94.79810032862454
 20
210.1260605304391
 10
94.79838717597752
 20
210.0954535453464
 10
94.79853339362174
 20
210.079907908931
 10
94.79855108875065
 20
210.0779521315243
  0
ENDSEC
  0
SECTION
  2
OBJECTS
  0
DICTIONARY
  5
C
330
0
100
AcDbDictionary
281
     1
  3
ACAD_CIP_PREVIOUS_PRODUCT_INFO
350
216
  3
ACAD_COLOR
350
6B
  3
ACAD_DETAILVIEWSTYLE
350
21B
  3
ACAD_GROUP
350
D
  3
ACAD_LAST_SAVED_VERSION_INFO
350
80C
  3
ACAD_LAYOUT
350
1A
  3
ACAD_MATERIAL
350
6A
  3
ACAD_MLEADERSTYLE
350
12D
  3
ACAD_MLINESTYLE
350
17
  3
ACAD_PLOTSETTINGS
350
19
  3
ACAD_PLOTSTYLENAME
350
E
  3
ACAD_SCALELIST
350
10C
  3
ACAD_SECTIONVIEWSTYLE
350
219
  3
ACAD_TABLESTYLE
350
7E
  3
ACAD_VISUALSTYLE
350
EF
  3
ACDB_RECOMPOSE_DATA
350
80E
  3
AcDbVariableDictionary
350
5E
  0
DICTIONARY
  5
1FF
330
2
100
AcDbDictionary
280
     1
281
     1
  3
ACAD_LAYERSTATES
360
200
  0
DICTIONARY
  5
13C
330
10
100
AcDbDictionary
280
     1
281
     1
  0
DICTIONARY
  5
1CE
330
1F
100
AcDbDictionary
280
     1
281
     1
  0
XRECORD
  5
216
102
{ACAD_REACTORS
330
C
102
}
330
C
100
AcDbXrecord
280
     1
300
ACD
300
2024
300

  0
DICTIONARY
  5
6B
102
{ACAD_REACTORS
330
C
102
}
330
C
100
AcDbDictionary
281
     1
  0
DICTIONARY
  5
21B
102
{ACAD_REACTORS
330
C
102
}
330
C
100
AcDbDictionary
281
     1
  3
Metric50
350
21C
  0
DICTIONARY
  5
D
102
{ACAD_REACTORS
330
C
102
}
330
C
100
AcDbDictionary
281
     1
  0
XRECORD
  5
80C
102
{ACAD_REACTORS
330
C
102
}
330
C
100
AcDbXrecord
280
     1
300
{C592D5FB-E099-6F49-BE2B-54C8736F19CA}
301
{D72EA1C6-2516-914E-A575-26C11F06C466}
302
{C592D5FB-E099-6F49-BE2B-54C8736F19CA}
303
C:\Users\dsp199\Desktop\CAD HP UP\ローゼットボックス\NSBOX2L.dxf
  0
DICTIONARY
  5
1A
102
{ACAD_REACTORS
330
C
102
}
330
C
100
AcDbDictionary
281
     1
  3
Model
350
22
  3
レイアウト1
350
D3
  3
レイアウト2
350
D7
  0
DICTIONARY
  5
6A
102
{ACAD_REACTORS
330
C
102
}
330
C
100
AcDbDictionary
281
     1
  3
ByBlock
350
ED
  3
ByLayer
350
EC
  3
Global
350
EE
  0
DICTIONARY
  5
12D
102
{ACAD_REACTORS
330
C
102
}
330
C
100
AcDbDictionary
281
     1
  3
Annotative
350
13B
  3
Standard
350
12E
  0
DICTIONARY
  5
17
102
{ACAD_REACTORS
330
C
102
}
330
C
100
AcDbDictionary
281
     1
  3
Standard
350
18
  0
DICTIONARY
  5
19
102
{ACAD_REACTORS
330
C
102
}
330
C
100
AcDbDictionary
281
     1
  0
ACDBDICTIONARYWDFLT
  5
E
102
{ACAD_REACTORS
330
C
102
}
330
C
100
AcDbDictionary
281
     1
  3
Normal
350
F
100
AcDbDictionaryWithDefault
340
F
  0
DICTIONARY
  5
10C
102
{ACAD_REACTORS
330
C
102
}
330
C
100
AcDbDictionary
281
     1
  3
A0
350
10D
  3
A1
350
1BE
  3
A2
350
1BF
  3
A3
350
1C0
  3
A4
350
1C1
  3
A5
350
1C2
  3
A6
350
1C3
  3
A7
350
1C4
  3
A8
350
1C5
  3
A9
350
1C6
  3
B0
350
1C7
  3
B1
350
1C8
  3
B2
350
1C9
  3
B3
350
1CA
  3
B4
350
1CB
  3
B5
350
1CC
  3
B6
350
1CD
  0
DICTIONARY
  5
219
102
{ACAD_REACTORS
330
C
102
}
330
C
100
AcDbDictionary
281
     1
  3
Metric50
350
21A
  0
DICTIONARY
  5
7E
102
{ACAD_REACTORS
330
C
102
}
330
C
100
AcDbDictionary
281
     1
  3
Standard
350
7F
  0
DICTIONARY
  5
EF
102
{ACAD_REACTORS
330
C
102
}
330
C
100
AcDbDictionary
281
     1
  3
2dWireframe
350
F5
  3
Basic
350
F4
  3
Brighten
350
FB
  3
ColorChange
350
FF
  3
Conceptual
350
F8
  3
Dim
350
FA
  3
EdgeColorOff
350
1E6
  3
Facepattern
350
FE
  3
Flat
350
F0
  3
FlatWithEdges
350
F1
  3
Gouraud
350
F2
  3
GouraudWithEdges
350
F3
  3
Hidden
350
F7
  3
JitterOff
350
1E4
  3
Linepattern
350
FD
  3
OverhangOff
350
1E5
  3
Realistic
350
F9
  3
Shaded
350
1F3
  3
Shaded with edges
350
1F2
  3
Shades of Gray
350
1EF
  3
Sketchy
350
1F0
  3
Thicken
350
FC
  3
Wireframe
350
F6
  3
X-Ray
350
1F1
  0
XRECORD
  5
80E
102
{ACAD_REACTORS
330
C
102
}
330
C
100
AcDbXrecord
280
     1
 90
        1
330
7F
  0
DICTIONARY
  5
5E
102
{ACAD_REACTORS
330
C
102
}
330
C
100
AcDbDictionary
281
     1
  3
CANNOSCALE
350
146
  3
CENTEREXE
350
259
  3
CENTERLTYPEFILE
350
25A
  3
CMLEADERSTYLE
350
145
  3
CTABLESTYLE
350
84
  3
CVIEWDETAILSTYLE
350
227
  3
CVIEWSECTIONSTYLE
350
228
  3
DIMASSOC
350
5F
  3
HIDETEXT
350
63
  3
LAYEREVAL
350
1AE
  3
LAYERNOTIFY
350
1AF
  0
DICTIONARY
  5
200
102
{ACAD_REACTORS
330
1FF
102
}
330
1FF
100
AcDbDictionary
281
     1
  0
ACDBDETAILVIEWSTYLE
  5
21C
102
{ACAD_REACTORS
330
21B
102
}
330
21B
100
AcDbModelDocViewStyle
 70
     0
  3
Metric50
290
     0
300
Metric50
 90
        0
100
AcDbDetailViewStyle
 70
     0
 71
     0
 90
        3
 71
     1
340
11
 62
   256
 40
5.0
340
0
 62
   256
 40
5.0
300

 40
0.0
280
     1
 71
     2
340
16
 90
       25
 62
   256
 71
     3
340
11
 62
   256
 40
5.0
 90
        0
 40
15.0
 90
        1
300
%<\AcVar ViewDetailId>% (%<\AcVar ViewScale \f "%sn">%)
 71
     4
340
16
 90
       25
 62
   256
340
16
 90
       25
 62
   256
280
     0
  0
LAYOUT
  5
22
102
{ACAD_XDICTIONARY
360
205
102
}
102
{ACAD_REACTORS
330
1A
102
}
330
1A
100
AcDbPlotSettings
  1

  2
none_device
  4
ISO_A4_(210.00_x_297.00_MM)
  6

 40
7.5
 41
20.0
 42
7.5
 43
20.0
 44
210.0
 45
297.0
 46
11.54999923706054
 47
-13.65000009536743
 48
0.0
 49
0.0
140
0.0
141
0.0
142
1.0
143
8.704084754739808
 70
 11952
 72
     1
 73
     0
 74
     0
  7

 75
     0
147
0.1148885871608098
 76
     0
 77
     2
 78
   300
148
0.0
149
0.0
100
AcDbLayout
  1
Model
 70
     1
 71
     0
 10
0.0
 20
0.0
 11
12.0
 21
9.0
 12
0.0
 22
0.0
 32
0.0
 14
0.0
 24
0.0
 34
0.0
 15
0.0
 25
0.0
 35
0.0
146
0.0
 13
0.0
 23
0.0
 33
0.0
 16
1.0
 26
0.0
 36
0.0
 17
0.0
 27
1.0
 37
0.0
 76
     0
330
1F
331
EA
1001
ACAD_PSEXT
1000
None
1000
None
1000
Not applicable
1000
The layout will not be plotted unless a new plotter configuration name is selected.
1070
     0
  0
LAYOUT
  5
D3
102
{ACAD_REACTORS
330
1A
102
}
330
1A
100
AcDbPlotSettings
  1

  2
C:\Documents and Settings\basas\Application Data\Autodesk\AutoCAD 2005\R16.1\enu\plotters\Default Windows System Printer.pc3
  4

  6

 40
0.0
 41
0.0
 42
0.0
 43
0.0
 44
0.0
 45
0.0
 46
0.0
 47
0.0
 48
0.0
 49
0.0
140
0.0
141
0.0
142
1.0
143
1.0
 70
   688
 72
     0
 73
     0
 74
     5
  7

 75
    16
147
1.0
 76
     0
 77
     2
 78
   300
148
0.0
149
0.0
100
AcDbLayout
  1
レイアウト1
 70
     1
 71
     1
 10
0.0
 20
0.0
 11
12.0
 21
9.0
 12
0.0
 22
0.0
 32
0.0
 14
0.0
 24
0.0
 34
0.0
 15
0.0
 25
0.0
 35
0.0
146
0.0
 13
0.0
 23
0.0
 33
0.0
 16
1.0
 26
0.0
 36
0.0
 17
0.0
 27
1.0
 37
0.0
 76
     0
330
D2
  0
LAYOUT
  5
D7
102
{ACAD_REACTORS
330
1A
102
}
330
1A
100
AcDbPlotSettings
  1

  2
C:\Documents and Settings\basas\Application Data\Autodesk\AutoCAD 2005\R16.1\enu\plotters\Default Windows System Printer.pc3
  4

  6

 40
0.0
 41
0.0
 42
0.0
 43
0.0
 44
0.0
 45
0.0
 46
0.0
 47
0.0
 48
0.0
 49
0.0
140
0.0
141
0.0
142
1.0
143
1.0
 70
   688
 72
     0
 73
     0
 74
     5
  7

 75
    16
147
1.0
 76
     0
 77
     2
 78
   300
148
0.0
149
0.0
100
AcDbLayout
  1
レイアウト2
 70
     1
 71
     2
 10
0.0
 20
0.0
 11
12.0
 21
9.0
 12
0.0
 22
0.0
 32
0.0
 14
0.0
 24
0.0
 34
0.0
 15
0.0
 25
0.0
 35
0.0
146
0.0
 13
0.0
 23
0.0
 33
0.0
 16
1.0
 26
0.0
 36
0.0
 17
0.0
 27
1.0
 37
0.0
 76
     0
330
D6
  0
MATERIAL
  5
ED
102
{ACAD_XDICTIONARY
360
1F9
102
}
102
{ACAD_REACTORS
330
6A
102
}
330
6A
100
AcDbMaterial
  1
ByBlock
 94
       63
  0
MATERIAL
  5
EC
102
{ACAD_XDICTIONARY
360
1F7
102
}
102
{ACAD_REACTORS
330
6A
102
}
330
6A
100
AcDbMaterial
  1
ByLayer
 94
       63
  0
MATERIAL
  5
EE
102
{ACAD_XDICTIONARY
360
173
102
}
102
{ACAD_REACTORS
330
6A
102
}
330
6A
100
AcDbMaterial
  1
Global
 43
0.0007999999797903
 43
0.0
 43
0.0
 43
0.0
 43
0.0
 43
0.0007999999797903
 43
0.0
 43
0.0
 43
0.0
 43
0.0
 43
1.0
 43
0.0
 43
0.0
 43
0.0
 43
0.0
 43
1.0
 49
0.0007999999797903
 49
0.0
 49
0.0
 49
0.0
 49
0.0
 49
0.0007999999797903
 49
0.0
 49
0.0
 49
0.0
 49
0.0
 49
1.0
 49
0.0
 49
0.0
 49
0.0
 49
0.0
 49
1.0
142
0.0007999999797903
142
0.0
142
0.0
142
0.0
142
0.0
142
0.0007999999797903
142
0.0
142
0.0
142
0.0
142
0.0
142
1.0
142
0.0
142
0.0
142
0.0
142
0.0
142
1.0
144
0.0007999999797903
144
0.0
144
0.0
144
0.0
144
0.0
144
0.0007999999797903
144
0.0
144
0.0
144
0.0
144
0.0
144
1.0
144
0.0
144
0.0
144
0.0
144
0.0
144
1.0
 94
       63
1001
ACAD
1070
    -1
1070
     3
1070
     0
1000

1071
        0
1070
     0
  0
MLEADERSTYLE
  5
13B
102
{ACAD_REACTORS
330
12D
102
}
330
12D
100
AcDbMLeaderStyle
179
     2
170
     2
171
     1
172
     0
 90
        2
 40
0.0
 41
0.0
173
     1
 91
-1056964608
340
14
 92
       -2
290
     1
 42
2.0
291
     1
 43
8.0
  3
Standard
 44
4.0
300

342
11
174
     1
178
     1
175
     1
176
     0
 93
-1056964608
 45
4.0
292
     0
297
     0
 46
4.0
 94
-1056964608
 47
1.0
 49
1.0
140
1.0
293
     1
141
0.0
294
     1
177
     0
142
1.0
295
     0
296
     1
143
3.75
271
     0
272
     9
273
     9
298
     0
  0
MLEADERSTYLE
  5
12E
102
{ACAD_REACTORS
330
12D
102
}
330
12D
100
AcDbMLeaderStyle
179
     2
170
     2
171
     1
172
     0
 90
        2
 40
0.0
 41
0.0
173
     1
 91
-1056964608
340
14
 92
       -2
290
     1
 42
2.0
291
     1
 43
8.0
  3
Standard
 44
4.0
300

342
11
174
     1
178
     1
175
     1
176
     0
 93
-1056964608
 45
4.0
292
     0
297
     0
 46
4.0
 94
-1056964608
 47
1.0
 49
1.0
140
1.0
293
     1
141
0.0
294
     1
177
     0
142
1.0
295
     0
296
     0
143
3.75
271
     0
272
     9
273
     9
298
     0
  0
MLINESTYLE
  5
18
102
{ACAD_REACTORS
330
17
102
}
330
17
100
AcDbMlineStyle
  2
STANDARD
 70
     0
  3

 62
   256
 51
90.0
 52
90.0
 71
     2
 49
0.5
 62
   256
  6
BYLAYER
 49
-0.5
 62
   256
  6
BYLAYER
  0
ACDBPLACEHOLDER
  5
F
102
{ACAD_REACTORS
330
E
102
}
330
E
  0
SCALE
  5
10D
102
{ACAD_REACTORS
330
10C
102
}
330
10C
100
AcDbScale
 70
     0
300
1:1
140
1.0
141
1.0
290
     1
  0
SCALE
  5
1BE
102
{ACAD_REACTORS
330
10C
102
}
330
10C
100
AcDbScale
 70
     0
300
1:2
140
1.0
141
2.0
290
     0
  0
SCALE
  5
1BF
102
{ACAD_REACTORS
330
10C
102
}
330
10C
100
AcDbScale
 70
     0
300
1:4
140
1.0
141
4.0
290
     0
  0
SCALE
  5
1C0
102
{ACAD_REACTORS
330
10C
102
}
330
10C
100
AcDbScale
 70
     0
300
1:5
140
1.0
141
5.0
290
     0
  0
SCALE
  5
1C1
102
{ACAD_REACTORS
330
10C
102
}
330
10C
100
AcDbScale
 70
     0
300
1:8
140
1.0
141
8.0
290
     0
  0
SCALE
  5
1C2
102
{ACAD_REACTORS
330
10C
102
}
330
10C
100
AcDbScale
 70
     0
300
1:10
140
1.0
141
10.0
290
     0
  0
SCALE
  5
1C3
102
{ACAD_REACTORS
330
10C
102
}
330
10C
100
AcDbScale
 70
     0
300
1:16
140
1.0
141
16.0
290
     0
  0
SCALE
  5
1C4
102
{ACAD_REACTORS
330
10C
102
}
330
10C
100
AcDbScale
 70
     0
300
1:20
140
1.0
141
20.0
290
     0
  0
SCALE
  5
1C5
102
{ACAD_REACTORS
330
10C
102
}
330
10C
100
AcDbScale
 70
     0
300
1:30
140
1.0
141
30.0
290
     0
  0
SCALE
  5
1C6
102
{ACAD_REACTORS
330
10C
102
}
330
10C
100
AcDbScale
 70
     0
300
1:40
140
1.0
141
40.0
290
     0
  0
SCALE
  5
1C7
102
{ACAD_REACTORS
330
10C
102
}
330
10C
100
AcDbScale
 70
     0
300
1:50
140
1.0
141
50.0
290
     0
  0
SCALE
  5
1C8
102
{ACAD_REACTORS
330
10C
102
}
330
10C
100
AcDbScale
 70
     0
300
1:100
140
1.0
141
100.0
290
     0
  0
SCALE
  5
1C9
102
{ACAD_REACTORS
330
10C
102
}
330
10C
100
AcDbScale
 70
     0
300
2:1
140
2.0
141
1.0
290
     0
  0
SCALE
  5
1CA
102
{ACAD_REACTORS
330
10C
102
}
330
10C
100
AcDbScale
 70
     0
300
4:1
140
4.0
141
1.0
290
     0
  0
SCALE
  5
1CB
102
{ACAD_REACTORS
330
10C
102
}
330
10C
100
AcDbScale
 70
     0
300
8:1
140
8.0
141
1.0
290
     0
  0
SCALE
  5
1CC
102
{ACAD_REACTORS
330
10C
102
}
330
10C
100
AcDbScale
 70
     0
300
10:1
140
10.0
141
1.0
290
     0
  0
SCALE
  5
1CD
102
{ACAD_REACTORS
330
10C
102
}
330
10C
100
AcDbScale
 70
     0
300
100:1
140
100.0
141
1.0
290
     0
  0
ACDBSECTIONVIEWSTYLE
  5
21A
102
{ACAD_REACTORS
330
219
102
}
330
219
100
AcDbModelDocViewStyle
 70
     0
  3
Metric50
290
     0
300
Metric50
 90
        0
100
AcDbSectionViewStyle
 70
     0
 71
     0
 90
      102
 71
     1
340
11
 62
   256
 40
5.0
340
0
340
0
 62
   256
 40
5.0
300
I, O, Q, S, X, Z
 40
10.0
 90
        0
 40
2.5
 90
        0
 71
     2
340
16
 90
       25
 62
   256
340
16
 90
       50
 62
   256
 40
5.0
 40
2.5
 40
5.0
 71
     3
340
11
 62
   256
 40
5.0
 90
        0
 40
15.0
 90
        1
300
%<\AcVar ViewSectionStartId>%-%<\AcVar ViewSectionEndId>% (%<\AcVar ViewScale \f "%sn">%)
 71
     4
 62
   256
 62
   257
300
ANSI31
 40
1.0
 90
        0
290
     0
290
     0
 90
        6
 40
0.0
 40
1.570796326794896
 40
0.2617993877991494
 40
1.308996938995747
 40
-0.2617993877991494
 40
1.832595714594046
  0
TABLESTYLE
  5
7F
102
{ACAD_XDICTIONARY
360
162
102
}
102
{ACAD_REACTORS
330
7E
102
}
330
7E
100
AcDbTableStyle
280
     0
  3
Standard
 70
     0
 71
     0
 40
1.5
 41
1.5
280
     0
281
     0
  7
Standard
140
4.5
170
     2
 62
     0
 63
     7
283
     0
 90
      512
 91
        0
  1

274
    -2
284
     1
 64
     0
275
    -2
285
     1
 65
     0
276
    -2
286
     1
 66
     0
277
    -2
287
     1
 67
     0
278
    -2
288
     1
 68
     0
279
    -2
289
     1
 69
     0
  7
Standard
140
6.0
170
     5
 62
     0
 63
     7
283
     0
 90
      512
 91
        0
  1

274
    -2
284
     1
 64
     0
275
    -2
285
     1
 65
     0
276
    -2
286
     1
 66
     0
277
    -2
287
     1
 67
     0
278
    -2
288
     1
 68
     0
279
    -2
289
     1
 69
     0
  7
Standard
140
4.5
170
     5
 62
     0
 63
     7
283
     0
 90
      512
 91
        0
  1

274
    -2
284
     1
 64
     0
275
    -2
285
     1
 65
     0
276
    -2
286
     1
 66
     0
277
    -2
287
     1
 67
     0
278
    -2
288
     1
 68
     0
279
    -2
289
     1
 69
     0
  0
VISUALSTYLE
  5
F5
102
{ACAD_REACTORS
330
EF
102
}
330
EF
100
AcDbVisualStyle
  2
2dWireframe
 70
     4
177
     3
291
     0
 70
    58
 90
        0
176
     1
 90
        2
176
     1
 90
        1
176
     1
 90
        0
176
     1
 40
0.6
176
     1
 40
30.0
176
     1
 62
     7
420
 16777215
176
     1
 90
        1
176
     1
 90
        4
176
     1
 62
     7
176
     1
 62
   257
176
     1
 90
        1
176
     1
 90
        1
176
     1
 40
1.0
176
     1
 90
        0
176
     1
 62
   257
176
     1
 40
1.0
176
     1
 90
        1
176
     1
 90
        6
176
     1
 90
        2
176
     1
 62
     7
176
     1
 90
        5
176
     1
 90
        0
176
     1
 90
        0
176
     1
290
     0
176
     1
 90
        1
176
     1
 40
0.0
176
     1
 90
        0
176
     1
290
     1
176
     1
290
     1
176
     1
290
     0
176
     1
290
     0
176
     1
290
     0
176
     1
290
     0
176
     1
290
     0
176
     1
290
     0
176
     1
290
     0
176
     1
 90
       50
176
     1
 40
0.0
176
     1
 40
1.0
176
     1
 90
        0
176
     1
 62
    18
420
        0
176
     1
 90
       50
176
     1
 90
        3
176
     1
 62
     5
420
      255
176
     1
290
     0
176
     1
 90
       50
176
     1
 90
       50
176
     1
 90
       50
176
     1
290
     0
176
     1
 90
       50
176
     1
 62
   256
176
     0
 40
1.0
176
     0
 90
        2
176
     1
  1
strokes_ogs.tif
176
     1
290
     0
176
     1
 40
1.0
176
     1
 40
1.0
176
     1
  0
VISUALSTYLE
  5
F4
102
{ACAD_REACTORS
330
EF
102
}
330
EF
100
AcDbVisualStyle
  2
Basic
 70
     7
177
     3
291
     1
 70
    58
 90
        1
176
     1
 90
        0
176
     1
 90
        1
176
     1
 90
        0
176
     1
 40
0.6
176
     1
 40
30.0
176
     1
 62
     7
420
 16777215
176
     1
 90
        0
176
     1
 90
        4
176
     1
 62
     7
176
     1
 62
   257
176
     1
 90
        1
176
     1
 90
        1
176
     1
 40
1.0
176
     1
 90
        8
176
     1
 62
     7
176
     1
 40
1.0
176
     1
 90
        1
176
     1
 90
        6
176
     1
 90
        2
176
     1
 62
     7
176
     1
 90
        5
176
     1
 90
        0
176
     1
 90
        0
176
     1
290
     0
176
     1
 90
        1
176
     1
 40
0.0
176
     1
 90
        0
176
     1
290
     0
176
     1
290
     1
176
     1
290
     1
176
     1
290
     0
176
     1
290
     0
176
     1
290
     0
176
     1
290
     0
176
     1
290
     0
176
     1
290
     0
176
     1
 90
       50
176
     1
 40
0.0
176
     1
 40
1.0
176
     1
 90
        0
176
     1
 62
    18
420
        0
176
     1
 90
       50
176
     1
 90
        3
176
     1
 62
     5
420
      255
176
     1
290
     0
176
     1
 90
       50
176
     1
 90
       50
176
     1
 90
       50
176
     1
290
     0
176
     1
 90
       50
176
     1
 62
   256
176
     0
 40
1.0
176
     0
 90
        2
176
     1
  1
strokes_ogs.tif
176
     1
290
     0
176
     1
 40
1.0
176
     1
 40
1.0
176
     1
  0
VISUALSTYLE
  5
FB
102
{ACAD_REACTORS
330
EF
102
}
330
EF
100
AcDbVisualStyle
  2
Brighten
 70
    12
177
     3
291
     1
 70
    58
 90
        2
176
     1
 90
        2
176
     1
 90
        1
176
     1
 90
        0
176
     1
 40
0.6
176
     1
 40
30.0
176
     1
 62
     7
420
 16777215
176
     1
 90
        1
176
     1
 90
        4
176
     1
 62
     7
176
     1
 62
   257
176
     1
 90
        1
176
     1
 90
        1
176
     1
 40
1.0
176
     1
 90
        8
176
     1
 62
     7
176
     1
 40
1.0
176
     1
 90
        1
176
     1
 90
        6
176
     1
 90
        2
176
     1
 62
     7
176
     1
 90
        5
176
     1
 90
        0
176
     1
 90
        0
176
     1
290
     0
176
     1
 90
        1
176
     1
 40
50.0
176
     1
 90
        0
176
     1
290
     0
176
     1
290
     1
176
     1
290
     1
176
     1
290
     0
176
     1
290
     0
176
     1
290
     0
176
     1
290
     0
176
     1
290
     0
176
     1
290
     0
176
     1
 90
       50
176
     1
 40
0.0
176
     1
 40
1.0
176
     1
 90
        0
176
     1
 62
    18
420
        0
176
     1
 90
       50
176
     1
 90
        3
176
     1
 62
     5
420
      255
176
     1
290
     0
176
     1
 90
       50
176
     1
 90
       50
176
     1
 90
       50
176
     1
290
     0
176
     1
 90
       50
176
     1
 62
   256
176
     0
 40
1.0
176
     0
 90
        2
176
     1
  1
strokes_ogs.tif
176
     1
290
     0
176
     1
 40
1.0
176
     1
 40
1.0
176
     1
  0
VISUALSTYLE
  5
FF
102
{ACAD_REACTORS
330
EF
102
}
330
EF
100
AcDbVisualStyle
  2
ColorChange
 70
    16
177
     3
291
     1
 70
    58
 90
        2
176
     1
 90
        2
176
     1
 90
        3
176
     1
 90
        0
176
     1
 40
0.6
176
     1
 40
30.0
176
     1
 62
     8
420
  8421504
176
     1
 90
        1
176
     1
 90
        4
176
     1
 62
     7
176
     1
 62
   257
176
     1
 90
        1
176
     1
 90
        1
176
     1
 40
1.0
176
     1
 90
        8
176
     1
 62
     8
420
  8421504
176
     1
 40
1.0
176
     1
 90
        1
176
     1
 90
        6
176
     1
 90
        2
176
     1
 62
     7
176
     1
 90
        5
176
     1
 90
        0
176
     1
 90
        0
176
     1
290
     0
176
     1
 90
        1
176
     1
 40
0.0
176
     1
 90
        0
176
     1
290
     0
176
     1
290
     1
176
     1
290
     1
176
     1
290
     0
176
     1
290
     0
176
     1
290
     0
176
     1
290
     0
176
     1
290
     0
176
     1
290
     0
176
     1
 90
       50
176
     1
 40
0.0
176
     1
 40
1.0
176
     1
 90
        0
176
     1
 62
    18
420
        0
176
     1
 90
       50
176
     1
 90
        3
176
     1
 62
     5
420
      255
176
     1
290
     0
176
     1
 90
       50
176
     1
 90
       50
176
     1
 90
       50
176
     1
290
     0
176
     1
 90
       50
176
     1
 62
   256
176
     0
 40
1.0
176
     0
 90
        2
176
     1
  1
strokes_ogs.tif
176
     1
290
     0
176
     1
 40
1.0
176
     1
 40
1.0
176
     1
  0
VISUALSTYLE
  5
F8
102
{ACAD_REACTORS
330
EF
102
}
330
EF
100
AcDbVisualStyle
  2
Conceptual
 70
     9
177
     3
291
     0
 70
    58
 90
        3
176
     1
 90
        2
176
     1
 90
        1
176
     1
 90
        0
176
     1
 40
0.6
176
     1
 40
30.0
176
     1
 62
     7
420
 16777215
176
     1
 90
        2
176
     1
 90
        2
176
     1
 62
     7
176
     1
 62
   257
176
     1
 90
        1
176
     1
 90
        1
176
     1
 40
40.0
176
     1
 90
        8
176
     1
 62
     7
176
     1
 40
1.0
176
     1
 90
        1
176
     1
 90
        6
176
     1
 90
        2
176
     1
 62
     7
176
     1
 90
        3
176
     1
 90
        0
176
     1
 90
        0
176
     1
290
     0
176
     1
 90
        1
176
     1
 40
0.0
176
     1
 90
        0
176
     1
290
     0
176
     1
290
     1
176
     1
290
     1
176
     1
290
     0
176
     1
290
     0
176
     1
290
     0
176
     1
290
     0
176
     1
290
     0
176
     1
290
     0
176
     1
 90
       50
176
     1
 40
0.0
176
     1
 40
1.0
176
     1
 90
        0
176
     1
 62
    18
420
        0
176
     1
 90
       50
176
     1
 90
        3
176
     1
 62
     5
420
      255
176
     1
290
     0
176
     1
 90
       50
176
     1
 90
       50
176
     1
 90
       50
176
     1
290
     0
176
     1
 90
       50
176
     1
 62
   256
176
     0
 40
1.0
176
     0
 90
        2
176
     1
  1
strokes_ogs.tif
176
     1
290
     0
176
     1
 40
1.0
176
     1
 40
1.0
176
     1
  0
VISUALSTYLE
  5
FA
102
{ACAD_REACTORS
330
EF
102
}
330
EF
100
AcDbVisualStyle
  2
Dim
 70
    11
177
     3
291
     1
 70
    58
 90
        2
176
     1
 90
        2
176
     1
 90
        1
176
     1
 90
        0
176
     1
 40
0.6
176
     1
 40
30.0
176
     1
 62
     7
420
 16777215
176
     1
 90
        1
176
     1
 90
        4
176
     1
 62
     7
176
     1
 62
   257
176
     1
 90
        1
176
     1
 90
        1
176
     1
 40
1.0
176
     1
 90
        8
176
     1
 62
     7
176
     1
 40
1.0
176
     1
 90
        1
176
     1
 90
        6
176
     1
 90
        2
176
     1
 62
     7
176
     1
 90
        5
176
     1
 90
        0
176
     1
 90
        0
176
     1
290
     0
176
     1
 90
        1
176
     1
 40
-50.0
176
     1
 90
        0
176
     1
290
     0
176
     1
290
     1
176
     1
290
     1
176
     1
290
     0
176
     1
290
     0
176
     1
290
     0
176
     1
290
     0
176
     1
290
     0
176
     1
290
     0
176
     1
 90
       50
176
     1
 40
0.0
176
     1
 40
1.0
176
     1
 90
        0
176
     1
 62
    18
420
        0
176
     1
 90
       50
176
     1
 90
        3
176
     1
 62
     5
420
      255
176
     1
290
     0
176
     1
 90
       50
176
     1
 90
       50
176
     1
 90
       50
176
     1
290
     0
176
     1
 90
       50
176
     1
 62
   256
176
     0
 40
1.0
176
     0
 90
        2
176
     1
  1
strokes_ogs.tif
176
     1
290
     0
176
     1
 40
1.0
176
     1
 40
1.0
176
     1
  0
VISUALSTYLE
  5
1E6
102
{ACAD_REACTORS
330
EF
102
}
330
EF
100
AcDbVisualStyle
  2
EdgeColorOff
 70
    22
177
     3
291
     1
 70
    58
 90
        2
176
     0
 90
        2
176
     0
 90
        0
176
     0
 90
        0
176
     0
 40
0.6
176
     0
 40
30.0
176
     0
 62
     7
420
 16777215
176
     0
 90
        1
176
     0
 90
        4
176
     0
 62
     7
176
     0
 62
   257
176
     0
 90
        1
176
     0
 90
        1
176
     0
 40
1.0
176
     0
 90
        8
176
     2
 62
     7
176
     0
 40
1.0
176
     0
 90
        1
176
     0
 90
        6
176
     0
 90
        2
176
     0
 62
     7
176
     0
 90
        5
176
     0
 90
        0
176
     0
 90
        0
176
     0
290
     0
176
     0
 90
        1
176
     0
 40
0.0
176
     0
 90
        0
176
     0
290
     0
176
     1
290
     1
176
     1
290
     1
176
     1
290
     0
176
     1
290
     0
176
     1
290
     0
176
     1
290
     0
176
     1
290
     0
176
     1
290
     0
176
     1
 90
       50
176
     1
 40
0.0
176
     1
 40
1.0
176
     1
 90
        0
176
     1
 62
    18
420
        0
176
     1
 90
       50
176
     1
 90
        3
176
     1
 62
     5
420
      255
176
     1
290
     0
176
     1
 90
       50
176
     1
 90
       50
176
     1
 90
       50
176
     1
290
     0
176
     1
 90
       50
176
     1
 62
   256
176
     0
 40
1.0
176
     0
 90
        2
176
     1
  1
strokes_ogs.tif
176
     1
290
     0
176
     1
 40
1.0
176
     1
 40
1.0
176
     1
  0
VISUALSTYLE
  5
FE
102
{ACAD_REACTORS
330
EF
102
}
330
EF
100
AcDbVisualStyle
  2
Facepattern
 70
    15
177
     3
291
     1
 70
    58
 90
        2
176
     1
 90
        2
176
     1
 90
        1
176
     1
 90
        0
176
     1
 40
0.6
176
     1
 40
30.0
176
     1
 62
     7
420
 16777215
176
     1
 90
        1
176
     1
 90
        4
176
     1
 62
     7
176
     1
 62
   257
176
     1
 90
        1
176
     1
 90
        1
176
     1
 40
1.0
176
     1
 90
        8
176
     1
 62
     7
176
     1
 40
1.0
176
     1
 90
        1
176
     1
 90
        6
176
     1
 90
        2
176
     1
 62
     7
176
     1
 90
        5
176
     1
 90
        0
176
     1
 90
        0
176
     1
290
     0
176
     1
 90
        1
176
     1
 40
0.0
176
     1
 90
        0
176
     1
290
     0
176
     1
290
     1
176
     1
290
     1
176
     1
290
     0
176
     1
290
     0
176
     1
290
     0
176
     1
290
     0
176
     1
290
     0
176
     1
290
     0
176
     1
 90
       50
176
     1
 40
0.0
176
     1
 40
1.0
176
     1
 90
        0
176
     1
 62
    18
420
        0
176
     1
 90
       50
176
     1
 90
        3
176
     1
 62
     5
420
      255
176
     1
290
     0
176
     1
 90
       50
176
     1
 90
       50
176
     1
 90
       50
176
     1
290
     0
176
     1
 90
       50
176
     1
 62
   256
176
     0
 40
1.0
176
     0
 90
        2
176
     1
  1
strokes_ogs.tif
176
     1
290
     0
176
     1
 40
1.0
176
     1
 40
1.0
176
     1
  0
VISUALSTYLE
  5
F0
102
{ACAD_REACTORS
330
EF
102
}
330
EF
100
AcDbVisualStyle
  2
Flat
 70
     0
177
     3
291
     1
 70
    58
 90
        2
176
     1
 90
        1
176
     1
 90
        1
176
     1
 90
        2
176
     1
 40
0.6
176
     1
 40
30.0
176
     1
 62
     7
420
 16777215
176
     1
 90
        0
176
     1
 90
        0
176
     1
 62
     7
176
     1
 62
   257
176
     1
 90
        1
176
     1
 90
        1
176
     1
 40
1.0
176
     1
 90
        8
176
     1
 62
     7
176
     1
 40
1.0
176
     1
 90
        1
176
     1
 90
        6
176
     1
 90
        2
176
     1
 62
     7
176
     1
 90
        5
176
     1
 90
        0
176
     1
 90
        0
176
     1
290
     0
176
     1
 90
       13
176
     1
 40
0.0
176
     1
 90
        0
176
     1
290
     0
176
     1
290
     1
176
     1
290
     1
176
     1
290
     0
176
     1
290
     0
176
     1
290
     0
176
     1
290
     0
176
     1
290
     0
176
     1
290
     0
176
     1
 90
       50
176
     1
 40
0.0
176
     1
 40
1.0
176
     1
 90
        0
176
     1
 62
    18
420
        0
176
     1
 90
       50
176
     1
 90
        3
176
     1
 62
     5
420
      255
176
     1
290
     0
176
     1
 90
       50
176
     1
 90
       50
176
     1
 90
       50
176
     1
290
     0
176
     1
 90
       50
176
     1
 62
   256
176
     0
 40
1.0
176
     0
 90
        2
176
     1
  1
strokes_ogs.tif
176
     1
290
     0
176
     1
 40
1.0
176
     1
 40
1.0
176
     1
  0
VISUALSTYLE
  5
F1
102
{ACAD_REACTORS
330
EF
102
}
330
EF
100
AcDbVisualStyle
  2
FlatWithEdges
 70
     1
177
     3
291
     1
 70
    58
 90
        2
176
     1
 90
        1
176
     1
 90
        1
176
     1
 90
        2
176
     1
 40
0.6
176
     1
 40
30.0
176
     1
 62
     7
420
 16777215
176
     1
 90
        1
176
     1
 90
        0
176
     1
 62
     7
176
     1
 62
   257
176
     1
 90
        1
176
     1
 90
        1
176
     1
 40
1.0
176
     1
 90
        0
176
     1
 62
   257
176
     1
 40
1.0
176
     1
 90
        1
176
     1
 90
        6
176
     1
 90
        2
176
     1
 62
     7
176
     1
 90
        5
176
     1
 90
        0
176
     1
 90
        0
176
     1
290
     0
176
     1
 90
       13
176
     1
 40
0.0
176
     1
 90
        0
176
     1
290
     0
176
     1
290
     1
176
     1
290
     1
176
     1
290
     0
176
     1
290
     0
176
     1
290
     0
176
     1
290
     0
176
     1
290
     0
176
     1
290
     0
176
     1
 90
       50
176
     1
 40
0.0
176
     1
 40
1.0
176
     1
 90
        0
176
     1
 62
    18
420
        0
176
     1
 90
       50
176
     1
 90
        3
176
     1
 62
     5
420
      255
176
     1
290
     0
176
     1
 90
       50
176
     1
 90
       50
176
     1
 90
       50
176
     1
290
     0
176
     1
 90
       50
176
     1
 62
   256
176
     0
 40
1.0
176
     0
 90
        2
176
     1
  1
strokes_ogs.tif
176
     1
290
     0
176
     1
 40
1.0
176
     1
 40
1.0
176
     1
  0
VISUALSTYLE
  5
F2
102
{ACAD_REACTORS
330
EF
102
}
330
EF
100
AcDbVisualStyle
  2
Gouraud
 70
     2
177
     3
291
     1
 70
    58
 90
        2
176
     1
 90
        2
176
     1
 90
        1
176
     1
 90
        2
176
     1
 40
0.6
176
     1
 40
30.0
176
     1
 62
     7
420
 16777215
176
     1
 90
        0
176
     1
 90
        0
176
     1
 62
     7
176
     1
 62
   257
176
     1
 90
        1
176
     1
 90
        1
176
     1
 40
1.0
176
     1
 90
        0
176
     1
 62
     7
176
     1
 40
1.0
176
     1
 90
        1
176
     1
 90
        6
176
     1
 90
        2
176
     1
 62
     7
176
     1
 90
        5
176
     1
 90
        0
176
     1
 90
        0
176
     1
290
     0
176
     1
 90
       13
176
     1
 40
0.0
176
     1
 90
        0
176
     1
290
     0
176
     1
290
     1
176
     1
290
     1
176
     1
290
     0
176
     1
290
     0
176
     1
290
     0
176
     1
290
     0
176
     1
290
     0
176
     1
290
     0
176
     1
 90
       50
176
     1
 40
0.0
176
     1
 40
1.0
176
     1
 90
        0
176
     1
 62
    18
420
        0
176
     1
 90
       50
176
     1
 90
        3
176
     1
 62
     5
420
      255
176
     1
290
     0
176
     1
 90
       50
176
     1
 90
       50
176
     1
 90
       50
176
     1
290
     0
176
     1
 90
       50
176
     1
 62
   256
176
     0
 40
1.0
176
     0
 90
        2
176
     1
  1
strokes_ogs.tif
176
     1
290
     0
176
     1
 40
1.0
176
     1
 40
1.0
176
     1
  0
VISUALSTYLE
  5
F3
102
{ACAD_REACTORS
330
EF
102
}
330
EF
100
AcDbVisualStyle
  2
GouraudWithEdges
 70
     3
177
     3
291
     1
 70
    58
 90
        2
176
     1
 90
        2
176
     1
 90
        1
176
     1
 90
        2
176
     1
 40
0.6
176
     1
 40
30.0
176
     1
 62
     7
420
 16777215
176
     1
 90
        1
176
     1
 90
        0
176
     1
 62
     7
176
     1
 62
   257
176
     1
 90
        1
176
     1
 90
        1
176
     1
 40
1.0
176
     1
 90
        0
176
     1
 62
   257
176
     1
 40
1.0
176
     1
 90
        1
176
     1
 90
        6
176
     1
 90
        2
176
     1
 62
     7
176
     1
 90
        5
176
     1
 90
        0
176
     1
 90
        0
176
     1
290
     0
176
     1
 90
       13
176
     1
 40
0.0
176
     1
 90
        0
176
     1
290
     0
176
     1
290
     1
176
     1
290
     1
176
     1
290
     0
176
     1
290
     0
176
     1
290
     0
176
     1
290
     0
176
     1
290
     0
176
     1
290
     0
176
     1
 90
       50
176
     1
 40
0.0
176
     1
 40
1.0
176
     1
 90
        0
176
     1
 62
    18
420
        0
176
     1
 90
       50
176
     1
 90
        3
176
     1
 62
     5
420
      255
176
     1
290
     0
176
     1
 90
       50
176
     1
 90
       50
176
     1
 90
       50
176
     1
290
     0
176
     1
 90
       50
176
     1
 62
   256
176
     0
 40
1.0
176
     0
 90
        2
176
     1
  1
strokes_ogs.tif
176
     1
290
     0
176
     1
 40
1.0
176
     1
 40
1.0
176
     1
  0
VISUALSTYLE
  5
F7
102
{ACAD_REACTORS
330
EF
102
}
330
EF
100
AcDbVisualStyle
  2
Hidden
 70
     6
177
     3
291
     0
 70
    58
 90
        1
176
     1
 90
        2
176
     1
 90
        2
176
     1
 90
        0
176
     1
 40
0.6
176
     1
 40
30.0
176
     1
 62
     7
420
 16777215
176
     1
 90
        2
176
     1
 90
        2
176
     1
 62
     7
176
     1
 62
   257
176
     1
 90
        2
176
     1
 90
        1
176
     1
 40
40.0
176
     1
 90
        0
176
     1
 62
   257
176
     1
 40
1.0
176
     1
 90
        1
176
     1
 90
        6
176
     1
 90
        2
176
     1
 62
     7
176
     1
 90
        3
176
     1
 90
        0
176
     1
 90
        0
176
     1
290
     0
176
     1
 90
        1
176
     1
 40
0.0
176
     1
 90
        0
176
     1
290
     0
176
     1
290
     1
176
     1
290
     1
176
     1
290
     0
176
     1
290
     0
176
     1
290
     0
176
     1
290
     0
176
     1
290
     0
176
     1
290
     0
176
     1
 90
       50
176
     1
 40
0.0
176
     1
 40
1.0
176
     1
 90
        0
176
     1
 62
    18
420
        0
176
     1
 90
       50
176
     1
 90
        3
176
     1
 62
     5
420
      255
176
     1
290
     0
176
     1
 90
       50
176
     1
 90
       50
176
     1
 90
       50
176
     1
290
     0
176
     1
 90
       50
176
     1
 62
   256
176
     0
 40
1.0
176
     0
 90
        2
176
     1
  1
strokes_ogs.tif
176
     1
290
     0
176
     1
 40
1.0
176
     1
 40
1.0
176
     1
  0
VISUALSTYLE
  5
1E4
102
{ACAD_REACTORS
330
EF
102
}
330
EF
100
AcDbVisualStyle
  2
JitterOff
 70
    20
177
     3
291
     1
 70
    58
 90
        2
176
     0
 90
        2
176
     0
 90
        0
176
     0
 90
        0
176
     0
 40
0.6
176
     0
 40
30.0
176
     0
 62
     7
420
 16777215
176
     0
 90
        1
176
     0
 90
        4
176
     0
 62
     7
176
     0
 62
   257
176
     0
 90
        1
176
     0
 90
        1
176
     0
 40
1.0
176
     0
 90
       10
176
     2
 62
     7
176
     0
 40
1.0
176
     0
 90
        1
176
     0
 90
        6
176
     0
 90
        2
176
     0
 62
     7
176
     0
 90
        5
176
     0
 90
        0
176
     0
 90
        0
176
     0
290
     0
176
     0
 90
        1
176
     0
 40
0.0
176
     0
 90
        0
176
     0
290
     0
176
     1
290
     1
176
     1
290
     1
176
     1
290
     0
176
     1
290
     0
176
     1
290
     0
176
     1
290
     0
176
     1
290
     0
176
     1
290
     0
176
     1
 90
       50
176
     1
 40
0.0
176
     1
 40
1.0
176
     1
 90
        0
176
     1
 62
    18
420
        0
176
     1
 90
       50
176
     1
 90
        3
176
     1
 62
     5
420
      255
176
     1
290
     0
176
     1
 90
       50
176
     1
 90
       50
176
     1
 90
       50
176
     1
290
     0
176
     1
 90
       50
176
     1
 62
   256
176
     0
 40
1.0
176
     0
 90
        2
176
     1
  1
strokes_ogs.tif
176
     1
290
     0
176
     1
 40
1.0
176
     1
 40
1.0
176
     1
  0
VISUALSTYLE
  5
FD
102
{ACAD_REACTORS
330
EF
102
}
330
EF
100
AcDbVisualStyle
  2
Linepattern
 70
    14
177
     3
291
     1
 70
    58
 90
        2
176
     1
 90
        2
176
     1
 90
        1
176
     1
 90
        0
176
     1
 40
0.6
176
     1
 40
30.0
176
     1
 62
     7
420
 16777215
176
     1
 90
        1
176
     1
 90
        4
176
     1
 62
     7
176
     1
 62
   257
176
     1
 90
        7
176
     1
 90
        7
176
     1
 40
1.0
176
     1
 90
        8
176
     1
 62
     7
176
     1
 40
1.0
176
     1
 90
        1
176
     1
 90
        6
176
     1
 90
        2
176
     1
 62
     7
176
     1
 90
        5
176
     1
 90
        0
176
     1
 90
        0
176
     1
290
     0
176
     1
 90
        1
176
     1
 40
0.0
176
     1
 90
        0
176
     1
290
     0
176
     1
290
     1
176
     1
290
     1
176
     1
290
     0
176
     1
290
     0
176
     1
290
     0
176
     1
290
     0
176
     1
290
     0
176
     1
290
     0
176
     1
 90
       50
176
     1
 40
0.0
176
     1
 40
1.0
176
     1
 90
        0
176
     1
 62
    18
420
        0
176
     1
 90
       50
176
     1
 90
        3
176
     1
 62
     5
420
      255
176
     1
290
     0
176
     1
 90
       50
176
     1
 90
       50
176
     1
 90
       50
176
     1
290
     0
176
     1
 90
       50
176
     1
 62
   256
176
     0
 40
1.0
176
     0
 90
        2
176
     1
  1
strokes_ogs.tif
176
     1
290
     0
176
     1
 40
1.0
176
     1
 40
1.0
176
     1
  0
VISUALSTYLE
  5
1E5
102
{ACAD_REACTORS
330
EF
102
}
330
EF
100
AcDbVisualStyle
  2
OverhangOff
 70
    21
177
     3
291
     1
 70
    58
 90
        2
176
     0
 90
        2
176
     0
 90
        0
176
     0
 90
        0
176
     0
 40
0.6
176
     0
 40
30.0
176
     0
 62
     7
420
 16777215
176
     0
 90
        1
176
     0
 90
        4
176
     0
 62
     7
176
     0
 62
   257
176
     0
 90
        1
176
     0
 90
        1
176
     0
 40
1.0
176
     0
 90
        9
176
     2
 62
     7
176
     0
 40
1.0
176
     0
 90
        1
176
     0
 90
        6
176
     0
 90
        2
176
     0
 62
     7
176
     0
 90
        5
176
     0
 90
        0
176
     0
 90
        0
176
     0
290
     0
176
     0
 90
        1
176
     0
 40
0.0
176
     0
 90
        0
176
     0
290
     0
176
     1
290
     1
176
     1
290
     1
176
     1
290
     0
176
     1
290
     0
176
     1
290
     0
176
     1
290
     0
176
     1
290
     0
176
     1
290
     0
176
     1
 90
       50
176
     1
 40
0.0
176
     1
 40
1.0
176
     1
 90
        0
176
     1
 62
    18
420
        0
176
     1
 90
       50
176
     1
 90
        3
176
     1
 62
     5
420
      255
176
     1
290
     0
176
     1
 90
       50
176
     1
 90
       50
176
     1
 90
       50
176
     1
290
     0
176
     1
 90
       50
176
     1
 62
   256
176
     0
 40
1.0
176
     0
 90
        2
176
     1
  1
strokes_ogs.tif
176
     1
290
     0
176
     1
 40
1.0
176
     1
 40
1.0
176
     1
  0
VISUALSTYLE
  5
F9
102
{ACAD_REACTORS
330
EF
102
}
330
EF
100
AcDbVisualStyle
  2
Realistic
 70
     8
177
     3
291
     0
 70
    58
 90
        2
176
     1
 90
        3
176
     1
 90
        0
176
     1
 90
        2
176
     1
 40
0.6
176
     1
 40
30.0
176
     1
 62
     7
420
 16777215
176
     1
 90
        0
176
     1
 90
        0
176
     1
 62
     7
176
     1
 62
   257
176
     1
 90
        1
176
     1
 90
        1
176
     1
 40
1.0
176
     1
 90
        8
176
     1
 62
   257
176
     1
 40
1.0
176
     1
 90
        1
176
     1
 90
        6
176
     1
 90
        2
176
     1
 62
     7
176
     1
 90
        3
176
     1
 90
        0
176
     1
 90
        0
176
     1
290
     0
176
     1
 90
       13
176
     1
 40
0.0
176
     1
 90
        0
176
     1
290
     0
176
     1
290
     1
176
     1
290
     1
176
     1
290
     0
176
     1
290
     0
176
     1
290
     0
176
     1
290
     0
176
     1
290
     0
176
     1
290
     0
176
     1
 90
       50
176
     1
 40
0.0
176
     1
 40
1.0
176
     1
 90
        0
176
     1
 62
    18
420
        0
176
     1
 90
       50
176
     1
 90
        3
176
     1
 62
     5
420
      255
176
     1
290
     0
176
     1
 90
       50
176
     1
 90
       50
176
     1
 90
       50
176
     1
290
     0
176
     1
 90
       50
176
     1
 62
   256
176
     0
 40
1.0
176
     0
 90
        2
176
     1
  1
strokes_ogs.tif
176
     1
290
     0
176
     1
 40
1.0
176
     1
 40
1.0
176
     1
  0
VISUALSTYLE
  5
1F3
102
{ACAD_REACTORS
330
EF
102
}
330
EF
100
AcDbVisualStyle
  2
Shaded
 70
    27
177
     3
291
     0
 70
    58
 90
        2
176
     1
 90
        2
176
     1
 90
        1
176
     1
 90
        2
176
     1
 40
0.6
176
     1
 40
30.0
176
     1
 62
     7
420
 16777215
176
     1
 90
        0
176
     1
 90
        4
176
     1
 62
     7
176
     1
 62
   257
176
     1
 90
        1
176
     1
 90
        1
176
     1
 40
1.0
176
     1
 90
        8
176
     1
 62
   257
176
     1
 40
1.0
176
     1
 90
        1
176
     1
 90
        6
176
     1
 90
        2
176
     1
 62
     8
420
  7895160
176
     1
 90
        3
176
     1
 90
        0
176
     1
 90
        0
176
     1
290
     0
176
     1
 90
        5
176
     1
 40
0.0
176
     1
 90
        0
176
     1
290
     0
176
     1
290
     1
176
     1
290
     1
176
     1
290
     0
176
     1
290
     0
176
     1
290
     0
176
     1
290
     0
176
     1
290
     0
176
     1
290
     0
176
     1
 90
       50
176
     1
 40
0.0
176
     1
 40
1.0
176
     1
 90
        0
176
     1
 62
    18
420
        0
176
     1
 90
       50
176
     1
 90
        3
176
     1
 62
     5
420
      255
176
     1
290
     0
176
     1
 90
       50
176
     1
 90
       50
176
     1
 90
       50
176
     1
290
     0
176
     1
 90
       50
176
     1
 62
   256
176
     0
 40
1.0
176
     0
 90
        2
176
     1
  1
strokes_ogs.tif
176
     1
290
     0
176
     1
 40
1.0
176
     1
 40
1.0
176
     1
  0
VISUALSTYLE
  5
1F2
102
{ACAD_REACTORS
330
EF
102
}
330
EF
100
AcDbVisualStyle
  2
Shaded with edges
 70
    26
177
     3
291
     0
 70
    58
 90
        2
176
     1
 90
        2
176
     1
 90
        1
176
     1
 90
        2
176
     1
 40
0.6
176
     1
 40
30.0
176
     1
 62
     7
420
 16777215
176
     1
 90
        1
176
     1
 90
        2
176
     1
 62
     7
176
     1
 62
   257
176
     1
 90
        2
176
     1
 90
        1
176
     1
 40
1.0
176
     1
 90
        8
176
     1
 62
   257
176
     1
 40
1.0
176
     1
 90
        1
176
     1
 90
        6
176
     1
 90
        2
176
     1
 62
     7
176
     1
 90
        3
176
     1
 90
        0
176
     1
 90
        0
176
     1
290
     0
176
     1
 90
        5
176
     1
 40
0.0
176
     1
 90
        0
176
     1
290
     0
176
     1
290
     1
176
     1
290
     1
176
     1
290
     0
176
     1
290
     0
176
     1
290
     0
176
     1
290
     0
176
     1
290
     0
176
     1
290
     0
176
     1
 90
       50
176
     1
 40
0.0
176
     1
 40
1.0
176
     1
 90
        0
176
     1
 62
    18
420
        0
176
     1
 90
       50
176
     1
 90
        3
176
     1
 62
     5
420
      255
176
     1
290
     0
176
     1
 90
       50
176
     1
 90
       50
176
     1
 90
       50
176
     1
290
     0
176
     1
 90
       50
176
     1
 62
   256
176
     0
 40
1.0
176
     0
 90
        2
176
     1
  1
strokes_ogs.tif
176
     1
290
     0
176
     1
 40
1.0
176
     1
 40
1.0
176
     1
  0
VISUALSTYLE
  5
1EF
102
{ACAD_REACTORS
330
EF
102
}
330
EF
100
AcDbVisualStyle
  2
Shades of Gray
 70
    23
177
     3
291
     0
 70
    58
 90
        2
176
     1
 90
        2
176
     1
 90
        3
176
     1
 90
        0
176
     1
 40
0.6
176
     1
 40
30.0
176
     1
 62
     7
420
 16777215
176
     1
 90
        2
176
     1
 90
        2
176
     1
 62
     7
176
     1
 62
     7
176
     1
 90
        1
176
     1
 90
        1
176
     1
 40
40.0
176
     1
 90
        8
176
     1
 62
     7
176
     1
 40
1.0
176
     1
 90
        1
176
     1
 90
        6
176
     1
 90
        2
176
     1
 62
     7
176
     1
 90
        3
176
     1
 90
        0
176
     1
 90
        0
176
     1
290
     0
176
     1
 90
        1
176
     1
 40
0.0
176
     1
 90
        0
176
     1
290
     0
176
     1
290
     1
176
     1
290
     1
176
     1
290
     0
176
     1
290
     0
176
     1
290
     0
176
     1
290
     0
176
     1
290
     0
176
     1
290
     0
176
     1
 90
       50
176
     1
 40
0.0
176
     1
 40
1.0
176
     1
 90
        0
176
     1
 62
    18
420
        0
176
     1
 90
       50
176
     1
 90
        3
176
     1
 62
     5
420
      255
176
     1
290
     0
176
     1
 90
       50
176
     1
 90
       50
176
     1
 90
       50
176
     1
290
     0
176
     1
 90
       50
176
     1
 62
   256
176
     0
 40
1.0
176
     0
 90
        2
176
     1
  1
strokes_ogs.tif
176
     1
290
     0
176
     1
 40
1.0
176
     1
 40
1.0
176
     1
  0
VISUALSTYLE
  5
1F0
102
{ACAD_REACTORS
330
EF
102
}
330
EF
100
AcDbVisualStyle
  2
Sketchy
 70
    24
177
     3
291
     0
 70
    58
 90
        1
176
     1
 90
        2
176
     1
 90
        2
176
     1
 90
        0
176
     1
 40
0.6
176
     1
 40
30.0
176
     1
 62
     7
420
 16777215
176
     1
 90
        2
176
     1
 90
        2
176
     1
 62
     7
176
     1
 62
     7
176
     1
 90
        1
176
     1
 90
        1
176
     1
 40
40.0
176
     1
 90
       11
176
     1
 62
     7
176
     1
 40
1.0
176
     1
 90
        1
176
     1
 90
        6
176
     1
 90
        2
176
     1
 62
     7
176
     1
 90
        6
176
     1
 90
        0
176
     1
 90
        0
176
     1
290
     0
176
     1
 90
        1
176
     1
 40
0.0
176
     1
 90
        0
176
     1
290
     0
176
     1
290
     1
176
     1
290
     1
176
     1
290
     0
176
     1
290
     0
176
     1
290
     0
176
     1
290
     0
176
     1
290
     0
176
     1
290
     0
176
     1
 90
       50
176
     1
 40
0.0
176
     1
 40
1.0
176
     1
 90
        0
176
     1
 62
    18
420
        0
176
     1
 90
       50
176
     1
 90
        3
176
     1
 62
     5
420
      255
176
     1
290
     0
176
     1
 90
       50
176
     1
 90
       50
176
     1
 90
       50
176
     1
290
     0
176
     1
 90
       50
176
     1
 62
   256
176
     0
 40
1.0
176
     0
 90
        2
176
     1
  1
strokes_ogs.tif
176
     1
290
     0
176
     1
 40
1.0
176
     1
 40
1.0
176
     1
  0
VISUALSTYLE
  5
FC
102
{ACAD_REACTORS
330
EF
102
}
330
EF
100
AcDbVisualStyle
  2
Thicken
 70
    13
177
     3
291
     1
 70
    58
 90
        2
176
     1
 90
        2
176
     1
 90
        1
176
     1
 90
        0
176
     1
 40
0.6
176
     1
 40
30.0
176
     1
 62
     7
420
 16777215
176
     1
 90
        1
176
     1
 90
        4
176
     1
 62
     7
176
     1
 62
   257
176
     1
 90
        1
176
     1
 90
        1
176
     1
 40
1.0
176
     1
 90
       12
176
     1
 62
     7
176
     1
 40
1.0
176
     1
 90
        1
176
     1
 90
        6
176
     1
 90
        2
176
     1
 62
     7
176
     1
 90
        5
176
     1
 90
        0
176
     1
 90
        0
176
     1
290
     0
176
     1
 90
        1
176
     1
 40
0.0
176
     1
 90
        0
176
     1
290
     0
176
     1
290
     1
176
     1
290
     1
176
     1
290
     0
176
     1
290
     0
176
     1
290
     0
176
     1
290
     0
176
     1
290
     0
176
     1
290
     0
176
     1
 90
       50
176
     1
 40
0.0
176
     1
 40
1.0
176
     1
 90
        0
176
     1
 62
    18
420
        0
176
     1
 90
       50
176
     1
 90
        3
176
     1
 62
     5
420
      255
176
     1
290
     0
176
     1
 90
       50
176
     1
 90
       50
176
     1
 90
       50
176
     1
290
     0
176
     1
 90
       50
176
     1
 62
   256
176
     0
 40
1.0
176
     0
 90
        2
176
     1
  1
strokes_ogs.tif
176
     1
290
     0
176
     1
 40
1.0
176
     1
 40
1.0
176
     1
  0
VISUALSTYLE
  5
F6
102
{ACAD_REACTORS
330
EF
102
}
330
EF
100
AcDbVisualStyle
  2
Wireframe
 70
     5
177
     3
291
     0
 70
    58
 90
        0
176
     1
 90
        2
176
     1
 90
        0
176
     1
 90
        0
176
     1
 40
0.6
176
     1
 40
30.0
176
     1
 62
     7
420
 16777215
176
     1
 90
        1
176
     1
 90
        4
176
     1
 62
     7
176
     1
 62
   257
176
     1
 90
        1
176
     1
 90
        1
176
     1
 40
1.0
176
     1
 90
        0
176
     1
 62
   257
176
     1
 40
1.0
176
     1
 90
        1
176
     1
 90
        6
176
     1
 90
        2
176
     1
 62
     7
176
     1
 90
        3
176
     1
 90
        0
176
     1
 90
        0
176
     1
290
     0
176
     1
 90
        1
176
     1
 40
0.0
176
     1
 90
        0
176
     1
290
     0
176
     1
290
     1
176
     1
290
     1
176
     1
290
     0
176
     1
290
     0
176
     1
290
     0
176
     1
290
     0
176
     1
290
     0
176
     1
290
     0
176
     1
 90
       50
176
     1
 40
0.0
176
     1
 40
1.0
176
     1
 90
        0
176
     1
 62
    18
420
        0
176
     1
 90
       50
176
     1
 90
        3
176
     1
 62
     5
420
      255
176
     1
290
     0
176
     1
 90
       50
176
     1
 90
       50
176
     1
 90
       50
176
     1
290
     0
176
     1
 90
       50
176
     1
 62
   256
176
     0
 40
1.0
176
     0
 90
        2
176
     1
  1
strokes_ogs.tif
176
     1
290
     0
176
     1
 40
1.0
176
     1
 40
1.0
176
     1
  0
VISUALSTYLE
  5
1F1
102
{ACAD_REACTORS
330
EF
102
}
330
EF
100
AcDbVisualStyle
  2
X-Ray
 70
    25
177
     3
291
     0
 70
    58
 90
        2
176
     1
 90
        2
176
     1
 90
        1
176
     1
 90
        1
176
     1
 40
0.5
176
     1
 40
30.0
176
     1
 62
     7
420
 16777215
176
     1
 90
        1
176
     1
 90
        0
176
     1
 62
     7
176
     1
 62
   257
176
     1
 90
        1
176
     1
 90
        1
176
     1
 40
1.0
176
     1
 90
        8
176
     1
 62
     7
176
     1
 40
1.0
176
     1
 90
        1
176
     1
 90
        6
176
     1
 90
        2
176
     1
 62
     7
176
     1
 90
        3
176
     1
 90
        0
176
     1
 90
        0
176
     1
290
     0
176
     1
 90
       13
176
     1
 40
0.0
176
     1
 90
        0
176
     1
290
     0
176
     1
290
     1
176
     1
290
     1
176
     1
290
     0
176
     1
290
     0
176
     1
290
     0
176
     1
290
     0
176
     1
290
     0
176
     1
290
     0
176
     1
 90
       50
176
     1
 40
0.0
176
     1
 40
1.0
176
     1
 90
        0
176
     1
 62
    18
420
        0
176
     1
 90
       50
176
     1
 90
        3
176
     1
 62
     5
420
      255
176
     1
290
     0
176
     1
 90
       50
176
     1
 90
       50
176
     1
 90
       50
176
     1
290
     0
176
     1
 90
       50
176
     1
 62
   256
176
     0
 40
1.0
176
     0
 90
        2
176
     1
  1
strokes_ogs.tif
176
     1
290
     0
176
     1
 40
1.0
176
     1
 40
1.0
176
     1
  0
DICTIONARYVAR
  5
146
102
{ACAD_REACTORS
330
5E
102
}
330
5E
100
DictionaryVariables
280
     0
  1
1:1
  0
DICTIONARYVAR
  5
259
102
{ACAD_REACTORS
330
5E
102
}
330
5E
100
DictionaryVariables
280
     0
  1
3.500000
  0
DICTIONARYVAR
  5
25A
102
{ACAD_REACTORS
330
5E
102
}
330
5E
100
DictionaryVariables
280
     0
  1
acadiso.lin
  0
DICTIONARYVAR
  5
145
102
{ACAD_REACTORS
330
5E
102
}
330
5E
100
DictionaryVariables
280
     0
  1
STANDARD
  0
DICTIONARYVAR
  5
84
102
{ACAD_REACTORS
330
5E
102
}
330
5E
100
DictionaryVariables
280
     0
  1
STANDARD
  0
DICTIONARYVAR
  5
227
102
{ACAD_REACTORS
330
5E
102
}
330
5E
100
DictionaryVariables
280
     0
  1
Metric50
  0
DICTIONARYVAR
  5
228
102
{ACAD_REACTORS
330
5E
102
}
330
5E
100
DictionaryVariables
280
     0
  1
Metric50
  0
DICTIONARYVAR
  5
5F
102
{ACAD_REACTORS
330
5E
102
}
330
5E
100
DictionaryVariables
280
     0
  1
2
  0
DICTIONARYVAR
  5
63
102
{ACAD_REACTORS
330
5E
102
}
330
5E
100
DictionaryVariables
280
     0
  1
1
  0
DICTIONARYVAR
  5
1AE
102
{ACAD_REACTORS
330
5E
102
}
330
5E
100
DictionaryVariables
280
     0
  1
0
  0
DICTIONARYVAR
  5
1AF
102
{ACAD_REACTORS
330
5E
102
}
330
5E
100
DictionaryVariables
280
     0
  1
0
  0
DICTIONARY
  5
205
330
22
100
AcDbDictionary
280
     1
281
     1
  0
DICTIONARY
  5
1F9
330
ED
100
AcDbDictionary
280
     1
281
     1
  3
FBXASSET
360
1FA
  0
DICTIONARY
  5
1F7
330
EC
100
AcDbDictionary
280
     1
281
     1
  3
FBXASSET
360
1F8
  0
DICTIONARY
  5
173
330
EE
100
AcDbDictionary
280
     1
281
     1
  3
BUMPTILE
360
175
  3
DIFFUSETILE
360
174
  3
FBXASSET
360
1FB
  3
OPACITYTILE
360
176
  3
REFLECTIONTILE
360
177
  0
DICTIONARY
  5
162
330
7F
100
AcDbDictionary
280
     1
281
     1
  3
ACAD_ROUNDTRIP_2008_TABLESTYLE_CELLSTYLEMAP
360
80D
  0
XRECORD
  5
1FA
102
{ACAD_REACTORS
330
1F9
102
}
330
1F9
100
AcDbXrecord
280
     1
 70
     1
 90
429727718
  1
D62C5603-E3A1-4AEA-B7FB-FE5D8D0755AF
310
504B03040A0000080000CC70623B3DEE336E79000000790000001B0000006175746F6465736B2D64657369676E2D7061636B6167652E786D6C3C3F786D6C2076657273696F6E3D22312E302220656E636F64696E673D227574662D3822203F3E3C666F726D6174733E3C666F726D61743E687474703A2F2F736368656D612E
310
6175746F6465736B2E636F6D2F64657369676E2D7061636B6167652F323030393C2F666F726D61743E3C2F666F726D6174733E504B0304140006080800CC70623BD486FD9CA0000000F4000000130000005B436F6E74656E745F54797065735D2E786D6C7D8EC10E82300C865F65E91D8A1E8C310C0EEA1BF002731658846E
310
D98AC1B77784ABF1D8FE5FBFBF75BBCE937A534CCEB38643598122B6FEE978D0B0485F9C41B54DDD7D022595594E1A469170414C76A4D9A4D207E29CF43ECE46F218070CC6BECC4078ACAA135ACF422C856C0E68EA1BF5669944DDD7BCDE7B1F8E415D77AECB980613C2E4AC91FC167A2B244592486606FC29C8FD7F045B9A
310
EF7053A7E60B504B0304140006080800CC70623B853B8169EB0000007C01000008000000636F72652E786D6C8D90416EC3201045AF62CDB6C206821CC7C244919D9CA01740401C94182C03558F5F9C3852BBEB6A467FFE9B197D7EFC9E1EC5975982F5AE035262288C535E5B377690E21535501C055FBC8FBF6C503839990E
310
5619041F179FE64D52DE45E362569DD7661365082642A11EB9E920A89B99642953CC8E702F67A9EE7234257977194EC9EAE275C4EABCCF5EAD5940D4AC6F0E35A568B8F43562CD7046CD199FD07E60174276A7BE677B5EADB0E0D14EEFFB6A31321A0D82627C4084204C3F096B71DD52F6819B16635EADF63F509AF53FA164
310
5DDCD1EDDD17164090FCC8732078B56691CB33A85CD7DCC40F504B0304140006080800CC70623B55019EA25F0000007C00000007000000636E782E786D6C4DCB3B0E80201045D1AD90E915ED2CF8AC45050C11660C8261F98AB1B07AC9C97D42D718D865D3E909258CFD00CCE24AC6E326A164D74DC0B4128928FF32603847
310
2BA13128B1252AC747C6BAB984FC68F0B87FE8960A5C09FE86CFB69FBA01504B0304140006080800CC70623BDBABAAF470010000D40300000C0000006662782F636F72652E786D6CC553D16E823014FD95A6AF4B694182CC941A83FA05FB810A9511A125A5257EFE2E82712ECEB8A7F100CD39F7F69E734AF9FADC366850B6
310
AF8DCE7018308C942E4C59EB2AC3DE1D498AD15A706B8CFB56869196ADCAF00863C12B6B7C374385D14E6907A836A59A41D9F7CA615434B0C8705F7CAA5606D23BA8E84F41278B93AC54100640439DE0BDB320004D43C63716C7C399D30917DCFBBA9CD9BA8469F5B156168B24CED3F7248AC8769F27244EB73B92EED8862C
310
B7F13E0C179B3C8F979C8ECD82BBBABDAA2BAC924E9558448CBD9330242CFA08E3154B5651FCC6D215639C8EE5774DBE2B5F6CF2B5768B68963BB5F5588420E442FC700B1139D4CB01F450C1E918227C2E09DF070D8140C84E1E9AAB8F1340832A9CB13130A5F1376A908D57309505ECF2A0DF179C4E9D30F5B239B87E3823
310
7A79C6F31DE1A8A5AEC08474B03C7837EAE4938639B44E5932B833D2C6B6B279CDC613877FA26EE21F4A2A4C63EC7F29A2F301D1F9F7A0E37D145F504B0304140006080800CC70623B9C113CC27E0000009D0000000B0000006662782F636E782E786D6C4DCCDF0A83201C86E15B91DFB94BFB330DD428C8FB886521330DA7
310
6397BF1A1DECE883878F57749FCDA1B7892F1BBC047A23808C7F84D9FA55424E0BE6803A256208E9EF06C84F9B91703228B1C690F78B66B34CD9A5439DF5CF0BFBF65E35BCA1B8D6A5C6F540381E886698B5741C695F9503EBA150A2F8958E3DC3EA0B504B0304140006080800CC70623B7DF2F77C2A010000120200003100
310
00006662782F41393633353835312D344632462D344230382D423046372D3739314545314133324237412F636F72652E786D6C8D51DB8EC22014FC15C2939B0D2DB4B45643319AE817EC0F6041255A68B86CFCFC856D4D76DF7CE190393373060EDB3DC707F856CE6B6B7A480A0C81328395DA5C7B18C3057510EC3873D686
310
3F34088C18550F330C39BB3A1BA7051AAC09CA84841A2BD5020AEF55806078A44B0FFD7053A328440C89E1EFC52486BBB8AA8214A99D789CF9E05200300FC927E4FB4D5B375D43103D5527440FB843077C5AA3F5861C8F645F5787F59E95B390B318B55CE45AA638FAA2957BD7248B390B7A7CC51F9C124149C82B8C378810
310
84AB2F42B7B8DD56F413775B8C5999E9FF4471926F8AA236A1AE96B8B3CC434E5839373893369E1FAF30EA395917409EB7F26AF8801C171837A4A6AC9C89E9F9C9B1A58BA30FD6A5EF5DDDCF894B9AD9B6A59C957943A9FCAE2FD5BC4DFE03504B0304140006080800CC70623BAD7543B64E01000033030000300000006662
310
782F41393633353835312D344632462D344230382D423046372D3739314545314133324237412F636E782E786D6CD593CD6EC32010845F0571AD6CE3D48AD20813A9873E410FBD12D82434182C7EAAE6EDBB2424CD25871E7B41D6EC30B3FA84F9E67BB2E40B4234DE8DB46F1925E094D7C6ED479AD3AE5951B2113C789FEE
310
6C943839C1488B4C05DF079FE72A69D8C96C13AAD6B8631503449F83828872B949AC57D26200B826A308D316B4064D6E46FCDA41C05550DC9E483A00797BFD207EFB092A45DE9514C1BBD22178396BD39D891265658C238DEA00936C654E5E433CB65A26D9F6EDB5EBC14EBF49A45CB856E66048291F6939A9A81BB5C89177
310
38143CA680F4AA299D66A042CEB3354A2684DC9D8D178FE0D9B8B41CAAD720F880EE7EF93C0C18769E099ECC04D5A102C8049A8A05632F4DDF376CF1DE0F6BB65C2F8627B65A33C6BB62177CEBBDAD973006829F89F22E814B54F4BC2BE347F8AA8F681390B50FA73F804400B5F542E796F19FF974E7F78DB802FE05E20750
310
4B0304140006080800CC70623BE75B7789680500003C100000340000006662782F41393633353835312D344632462D344230382D423046372D3739314545314133324237412F6F626A656374732E786D6CAD575B8F9B3818FD2B887D06C22499CB8AA1CA655245D5B455A356FB305264C061D8018C6C3393D95FBFC7600890
310
A4CD5EF210B0B1BFEBF98E3F7B1FF6596ABC522E1296DF9BAE3D320D9A872C4AF2F8DE2CE5CEBA358D0FBEC719939D65A691938CDE9B6ADAF4BD98B3B2D05311DD91329583D9D5FC0F438434A7A611A644887B5384CF34233629258BA878B12322891DEFF6B66BD70BFB62634E8AE781D082709A4B588AF91C528CDA28B73F
310
1C998EEF39EABBEFA97FBD6A7C7E9553F9D3D79FE442923C3C523610337627CB87ABE99D359D4CC6D6E4FACAB5E6ABF9D2726FC6A3C5F56271377BB88362213924694B38DD99FE47C48627A1E7D49F5A8BB5E1A74C0A599ED3B0F21F1E56366B89112D681E218F0915D0D6F17AD41FBA2A369DCF6335D62ABBD39779D5DDD1
310
11D4D8DE3CBB96B2E04FB8202E41051754A1AA8E8F76B4C6DFE810B580B1547F4B84911149794252234D024EF8BBE963A95AE27B3D310A9D5C215C7960FAEE415ED75694C6AFB17BCACA5D99A60A9AA65F217B0BFC53292ACB92BF283FAD0D3621576592CB5BED907C2FA8E9DF794E35E97BEA31BED21FEB401ABB94C44839
310
DCACBF0E1C5DA8DA5B2F4DFFD32AD86F543D9E565E7056502E157C00AD2671CD534549AB752FCA9CDA00677A313F04E51B22FF19E57B300579E3C97EB29F682D92935CEC18CF901B7B54FD8C51F362B56FC72FE0B3C1EAE335EDCCBF5AEC39ADB17DC238973F804BA5E6F6BFE7AF1FB32E523BE9F3BD571418E3631DCA4D48
310
5250CF639223210A9446CA30052EDF057BD35F8329C1ECD84552BF0DC8D18BE7BCE23BFE6BD960AB4A7DE79923A103BEBD80F911CBAA2C60DB19B01CF164A5583B772EE6D3FFA56666CBCDA74DC97724A48F9A58967497E489C4D979006FD7A05E227A1EBDD0F737C623387A9C844D3709995625106D157315F8B8392CD4E0
310
A0B9A720C4BE9829CEF37EA1E13111214D53925356365ADA634861B52519DD27A00AEB808EAF0628E6F435519D446F45CF2C9CF5214F0A15B2F6D06B79DA3EE3CBF7F56780D2F4E7EF73A0F5E5B02A38D07DC852C6B7C1FBB6664213E0C39E3EBA7FF4E1AD23EA2829407C85E586727488B751B2DB9502BC7B228A3FD68B6E
310
A65A22397E690AA8D158D7E404EC8CDA235CC3B7D1898680131CEC2CDF2638C65196279577750F15884AEE19F94199155B92B13297978469D4F8D358DF0AEF7631E28DC8F0D9F437D5D39A83B2231A1D52D543813A824EF8D44BCFF2FA6A31BD1E8DAD87F1CCB526B3879935BF59CDADD5C37479BB1CDD4CA7B3556B516589
310
EF352754B706114D9C885EC9131DE6EFEB43D99AFE2391C2F958179413D7CFEF6B1B6DB1E7600F00DE6E5C67454A339A4BA2E0FBA85ED26F045D454F463DBFCE484C2F90F2E5E3666003662ED8F755951A7D1BECD5B30B550B2785C8E7320B7292A4838DDA71BBC863ED7613CAF659337A3354231D4FF4A182A54904C2898C
310
98B28C4AD0CE056CCF332A80986E571EE9DBC305BB5FEB7E509220A58D25CF042D712A806AC0AD0C657FDEF80D2D9CEAA2EE4D1C76F60BFE74219A06527D6F82DF6412526107381E55E353090704D085B52408A8913C4ED159D79BDA71BB4BC506F4831350EB6F975CD22D69BF7AC49B91A2C0A9DDA3D5CA36AD20FC478E37
310
E61844E2352865EBCB61A275A65283CAAA9DD27703B4102F5AF51EF5F573B75CBB5AD38BC845F7A49F82A0966A49C2E3EA5EA0ECD326CD965F1DB402C6FA8B51A4658C5C5E2EC9E214602E55810345408596591009A82E7E7FFACA19EEA299B14A0081A705CB3296EBC14CDF658DCD336EA6D1136881AAEB87B81AB9EE53D5
310
F5EB8BC8362082DA24122F98680A4E7930C01A0079749CEA14382A0783E5EBA5A10F8C098456A03D6A4AEB6BB881E2513747552A5DB22C7EDAF83BD5528081A365F7FF06504B0304140006080000CC70623B000000000000000000000000350000006662782F41393633353835312D344632462D344230382D423046372D37
310
39314545314133324237412F76657274696365732E62696E504B0304140006080800CC70623BF270F1330600000004000000360000006662782F41393633353835312D344632462D344230382D423046372D3739314545314133324237412F747269616E676C65732E62696E636660600000504B0304140006080000CC7062
310
3B000000000000000000000000370000006662782F41393633353835312D344632462D344230382D423046372D3739314545314133324237412F617474726962757465732E62696E504B0304140006080800CC70623B08DA0BD19000000041010000360000006662782F41393633353835312D344632462D344230382D4230
310
46372D3739314545314133324237412F6469726563746F72792E786D6C858F410AC3201045AF22B36F53E9A60B35CBEEBAE80D244E44489C6234F4F835464A48035D0DF398FF9F8AF63D0E6CC63039F212F8F9020C7D47C6792B21C5FE7403D62A1188E2E60C98D7234A5830286103A55745067B9D86B8A3CF9C7F90C11DE6
310
07FB144396D7B6A82D282E9A152AD114D5EF2CB866EEE831B8EEA07A7BB5A8D7D61A2BAAEB7FD5F70921FF497D00504B0304140006080800CC70623BEDD1DC58FD000000A00100003B0000006662782F41393633353835312D344632462D344230382D423046372D3739314545314133324237412F7265736F75726365732F
310
636F72652E786D6C8D504B6E833010BD0A9A6D65B00922041947112427E8052C33A156828DFCA97AFC9A40A576D7CDCCE87D344F8F9FBFE667F689CE6B6B3A6039850C8DB2A336530731DC4903D95970676DF82583CCC8193B5861107C72362E3BA4AC096842428D1D7107A5F7182053CF7474E0D507CE32973124857FE48B
310
540F3961CEF244279DE03EB81420DB9EAC1384436FA353E879B1B182C7A8C75DA3C7F453DF353A1075D537A7BA6464B8F535A99AE14A9A2BBD90E350DD183B5CFABE3AF262350B1EF4FC9351399401471025A527C218A1E53BAB5A5AB765F5469B96525EACF23FA6B88CFF34456DC2A1DCE36E360F82A5202F42F062ED2BAD
310
579969AFDD8A6F504B010214000A0000080000CC70623B3DEE336E79000000790000001B00000000000000000000000000000000006175746F6465736B2D64657369676E2D7061636B6167652E786D6C504B01021400140006080800CC70623BD486FD9CA0000000F40000001300000000000000000000000000B20000005B
310
436F6E74656E745F54797065735D2E786D6C504B01021400140006080800CC70623B853B8169EB0000007C010000080000000000000000000000000083010000636F72652E786D6C504B01021400140006080800CC70623B55019EA25F0000007C000000070000000000000000000000000094020000636E782E786D6C504B
310
01021400140006080800CC70623BDBABAAF470010000D40300000C00000000000000000000000000180300006662782F636F72652E786D6C504B01021400140006080800CC70623B9C113CC27E0000009D0000000B00000000000000000000000000B20400006662782F636E782E786D6C504B01021400140006080800CC70
310
623B7DF2F77C2A010000120200003100000000000000000000000000590500006662782F41393633353835312D344632462D344230382D423046372D3739314545314133324237412F636F72652E786D6C504B01021400140006080800CC70623BAD7543B64E010000330300003000000000000000000000000000D2060000
310
6662782F41393633353835312D344632462D344230382D423046372D3739314545314133324237412F636E782E786D6C504B01021400140006080800CC70623BE75B7789680500003C10000034000000000000000000000000006E0800006662782F41393633353835312D344632462D344230382D423046372D3739314545
310
314133324237412F6F626A656374732E786D6C504B01021400140006080000CC70623B0000000000000000000000003500000000000000000000000000280E00006662782F41393633353835312D344632462D344230382D423046372D3739314545314133324237412F76657274696365732E62696E504B01021400140006
310
080800CC70623BF270F133060000000400000036000000000000000000000000007B0E00006662782F41393633353835312D344632462D344230382D423046372D3739314545314133324237412F747269616E676C65732E62696E504B01021400140006080000CC70623B0000000000000000000000003700000000000000
310
000000000000D50E00006662782F41393633353835312D344632462D344230382D423046372D3739314545314133324237412F617474726962757465732E62696E504B01021400140006080800CC70623B08DA0BD1900000004101000036000000000000000000000000002A0F00006662782F41393633353835312D344632
310
462D344230382D423046372D3739314545314133324237412F6469726563746F72792E786D6C504B01021400140006080800CC70623BEDD1DC58FD000000A00100003B000000000000000000000000000E1000006662782F41393633353835312D344632462D344230382D423046372D3739314545314133324237412F7265
310
736F75726365732F636F72652E786D6C504B0506000000000E000E0080040000641100000000
  0
XRECORD
  5
1F8
102
{ACAD_REACTORS
330
1F7
102
}
330
1F7
100
AcDbXrecord
280
     1
 70
     1
 90
429727718
  1
30362254-06B7-45E0-A893-8CFA70E3D6BC
310
504B03040A0000080000CC70623B3DEE336E79000000790000001B0000006175746F6465736B2D64657369676E2D7061636B6167652E786D6C3C3F786D6C2076657273696F6E3D22312E302220656E636F64696E673D227574662D3822203F3E3C666F726D6174733E3C666F726D61743E687474703A2F2F736368656D612E
310
6175746F6465736B2E636F6D2F64657369676E2D7061636B6167652F323030393C2F666F726D61743E3C2F666F726D6174733E504B0304140006080800CC70623BD486FD9CA0000000F4000000130000005B436F6E74656E745F54797065735D2E786D6C7D8EC10E82300C865F65E91D8A1E8C310C0EEA1BF002731658846E
310
D98AC1B77784ABF1D8FE5FBFBF75BBCE937A534CCEB38643598122B6FEE978D0B0485F9C41B54DDD7D022595594E1A469170414C76A4D9A4D207E29CF43ECE46F218070CC6BECC4078ACAA135ACF422C856C0E68EA1BF5669944DDD7BCDE7B1F8E415D77AECB980613C2E4AC91FC167A2B244592486606FC29C8FD7F045B9A
310
EF7053A7E60B504B0304140006080800CC70623B1EC5D7A3EB0000007C01000008000000636F72652E786D6C8D90416EC3201045AF82665B6103C6756C6122AB4D4ED00B204C5C94182C03558F5F9C3852BBEB6A467FFE9B197D71FC9E6FE8CBACC17AD7032D0820E3B41FAD9B7A48F1820F808E52ACDEC75F36404ECDA687
310
4D0629A6D5A76597B477D1B89855E747B38B2A041301E95B6E7A08FAD3CCAA50296647B8168BD2573599823EBB0CA76447F43862C7BCCF5EAC59410E4DDD9C7973C2755553CCCFA4C603E3040F1565ED3B1FDE4E432BCA0D9622DAF9795FAF464533826484B498524CD807E51D79ED187F21878E10516EF63F505AC67F42C9
310
BA58B1FDDD071640D2FCC87D2045B96591CB3DA85CB7DCE40F504B0304140006080800CC70623B55019EA25F0000007C00000007000000636E782E786D6C4DCB3B0E80201045D1AD90E915ED2CF8AC45050C11660C8261F98AB1B07AC9C97D42D718D865D3E909258CFD00CCE24AC6E326A164D74DC0B4128928FF32603847
310
2BA13128B1252AC747C6BAB984FC68F0B87FE8960A5C09FE86CFB69FBA01504B0304140006080800CC70623B8C9102E971010000D40300000C0000006662782F636F72652E786D6CC5535B6E833010BC8AE5DF0A6C08340F1947A84D4ED00B38C6A128602363A31CBFCB234A53A551FA553EC09AD9F5CE8C31DB9E9B1AF5CA
310
7695D1198E428A91D2D214952E33ECDD315861B4E5CC1AE3BE9561A445A3323CC098B3D21ADFCE9034DA29ED00D5A6503328BA4E398C640D8B0C77F253352214DE4145770A5B214FA2546114020D759C75CE8200340D19DE981F0F6746269C33EFAB6266AB02A655C74A59CCF365BADC27CB5D902ED22848F6340DF238A141
310
BE88E2F57B92BFEDF23523433367AE6A2EEAA455C2A902F398D2751045018D3FA264435F3771F242571B4A1919CA6F9A7C5B3CD9E42BED16F12C776AEB308F40C848FC700B1139D4891EF410CEC810227CC6846F8386402064270EF5C5C709A05E49676C024C61FC95EA45ED154CA5211D1FF4FB8291A913A68E9B83EBBB33
310
E2A7673CDE118E5AE8124C0807CB8377834E366998436B950D7A7746DAD846D4CFD978E0F04FD455FC5D49D2D4C6FE9722321F10997F0F32DC47FE05504B0304140006080800CC70623BFFEA85907E0000009D0000000B0000006662782F636E782E786D6C4DCCD10A83201886E15B91FFDC95D95A811AB6F23E625948A6C3
310
E9D8E5AF46073BFAE0E1E365ED67B3E8ADC3CB78C7815C7240DA3DFC64DCC221C519D7805AC182F7F1EF06C88D9BE6703008B6049F9E274D7A1E938DBB5AE3D6131B2589BA0D3D965551E0B2EA732C9B9A624AAEB41E3A557677029960D9AFB4EF11165F504B0304140006080800CC70623B4FEEA4082C0100001202000031
310
0000006662782F39464131463745442D413632322D343644302D413938332D3331353338454246344243312F636F72652E786D6C8D515B6EC32010BC0AE2AB55850DD871ED0813254D72825EC00192A2C460F1A872FC42ED48ED5F7E00CDCECCCEB26C731F6FE05B39AFADE921293004CA082BB5B9F43086336A21D870E6AC
310
0D7F68109861543DCC30E4ECE26C9C164858139409093556AA051CBC570102714B8F1E7AF1A5C6A11862480C7F2DA6415C878B2A4891CA89C7990F2E050073937C42DE1DB7E4F87ED8A36D4329AA9B3D46DBAEAD504556557BD81DEBDD0761E52CE42C462D17B996298E3E6BE59E35C962CE821E1FF18553435012728A7187
310
0841987E927A8D9B35ADDF70BBC6989599FE4F1427F9A4286A132ABAC49D651EF234CD5CE04CDA78BA3DC2A8FB645D00B9DF8B57E215725C60BCA2A463E54C4CE327C7A65E1C7DB02E7DEFCBF594B864C5CA6CDBD49C957943E9FA5D5FBAF336F90F504B0304140006080800CC70623BAD7543B64E01000033030000300000
310
006662782F39464131463745442D413632322D343644302D413938332D3331353338454246344243312F636E782E786D6CD593CD6EC32010845F0571AD6CE3D48AD20813A9873E410FBD12D82434182C7EAAE6EDBB2424CD25871E7B41D6EC30B3FA84F9E67BB2E40B4234DE8DB46F1925E094D7C6ED479AD3AE5951B2113C
310
789FEE6C943839C1488B4C05DF079FE72A69D8C96C13AAD6B8631503449F83828872B949AC57D26200B826A308D316B4064D6E46FCDA41C05550DC9E483A00797BFD207EFB092A45DE9514C1BBD22178396BD39D891265658C238DEA00936C654E5E433CB65A26D9F6EDB5EBC14EBF49A45CB856E66048291F6939A9A81BB5
310
C8917738143CA680F4AA299D66A042CEB3354A2684DC9D8D178FE0D9B8B41CAAD720F880EE7EF93C0C18769E099ECC04D5A102C8049A8A05632F4DDF376CF1DE0F6BB65C2F8627B65A33C6BB62177CEBBDAD973006829F89F22E814B54F4BC2BE347F8AA8F681390B50FA73F804400B5F542E796F19FF974E7F78DB802FE05
310
E207504B0304140006080800CC70623B16AB87BA640500003C100000340000006662782F39464131463745442D413632322D343644302D413938332D3331353338454246344243312F6F626A656374732E786D6CAD575B6FA33818FD2B887DE6924B3BED8A326A92B68A663B534DD4D13E548A0C38942D60649B369D5FBFC7
310
600890A493BDE42160637FD7F31D7FF63E6FB3D478A55C242CBF3247B66B1A340F5994E4F19559CA8D75611A9F7D8F33263BCB4C232719BD32D5B4E97B316765A1A722BA21652A07B3B7B33F0D11D29C9A46981221AE4C113ED38CD8A4942CA2E2C58E882476BCD9DA23BB5ED8171B73523C0F841684D35CC252CCE79062D4
310
468DFA43D7747CCF51DF7D4FFDEB5593E3AB9CCA9FBEFE241792E4E19EB28198C968BAB8199F5D5A67D3E9C49A9E8F47D6EC76B6B0469F26EEFC7C3EBFBCBEB98462213924694B38DD98FE1D62C393D073EA4FADC5DAF04326852CCF6958F90F0F2B9BB5C48816348F90C7840A68EB78EDF68723159BCEE7891A6B95DDE9D3
310
BCEAEEE8086A6C6F9E5D4B59F0175C10A7A0820BAA5055C7473B5AE3CFDD452D602CD5DF12616444529E90D448938013FE6EFA58AA96F85E4F8C42275708571E98FE6827AF6B2B4AE3D7D83D64E5A64C53054DD3AF90BD06FEA9149565C94FCA0F6B834DC85599E4F2423B24DF0B6AFA979E534DFA9E7A4CC6FA631D486393
310
921829879BF5D781A373557BCB85E97FB90DB62B558F8795179C15944B051F40AB495CF35451D26A4727654E6D8033BD98EF82F21D91FF8AF2DD9982BCF1643BDD4EB516C9492E368C67C88DED563FC36D5EACF66DFF057C3658BDBFA69DF9578B3DA735B64F18C7F20770A9D45CFCF7FCF563D6456A277DBEF78A02637CA2
310
43B90A490AEAB94F72244481D24819A6C0E59B606BFA4B3025981DBB48EAB701D97BF19C577CC77F2D1B6C55A9EF3C732474C0B727303F625995056C3B02963D9EAC146BE78EC5FCEC7FA999EBC5EACBAAE41B12D27B4D2C0BBA49F244E2ECDC81B76B502F113D8F5EE8FB1BE3111CDD4FC2AA9B844CAB1288B68AB90A7CDC
310
1C166AB0D3DC5310625FCC14E779BFD0709F8890A629C9292B1B2DED31A4B0DA928CEE135085754027E3018A397D4D5427D15BD1330B677DC8934285AC3DF45A9EB68FF8F2B8FC0A509AFEECFD0FF2DE25CC6047F7214B195F07EFEB9A094D800F7BFAE8FED187B78EA8A3A400F115961BCAD1215E47C966530AF0EE8128FE
310
58CEBB996A8964FFA529A046635D9353B0336A8F700DDF46271A024E70B0B37C9DE01847591E54DED53D54202AB947E4076556AC49C6CA5C9E1226B7F1A7B1BE15DEED62C41B91E1B3E9AFAAA735036547343A925075041DF0A9979E893B391F8FCFA6967B3EFB644DCF6E5CEBFAE272625DCC6FAF3FB93793C5F90CE1EF57
310
407342756B10D1C489E8953CD1617E5CEECAD6F4EF8914CE5D5D504E5C3F1F9736DA62CFC11E00BCDDB8CC8A9466349744C1F75EBDA4DF09BA8A9E8C7A7E9991989E20E5DBDD6A6003664ED8F7A04A8DBE0DF6EAD9B9AA858342E47399053949D2C146EDB85DE4B176BB0965FBAC19BD19AA918E27FA50C1D22402E144464C
310
59462568E704B6E71915404CB72B8FF4EDE184DDAF753F284990D2C6926782963815403548A70C657FDEF80D2D9CEAA2AE4C1C76F60BFE74219A06527D6582DF6412526107381E55E353090704D085B52408D0933C4ED159D79BDA71BB4BC506F4831350EB6F979CD22D69BF7AC49B91A2C0A9DDA3D5CA36AD20FC478E37E6
310
1844E2352865EBCB6EA275A652E3836BE04EFB400BF1A2556F515F1FBB35B2AB35BD889C744FFA1004B5544B121E57F70215746DD2F5E2C1412B602CBF19455AC6C8E5E9922C4E01E65215385004546899059180EAFCF7A707CE7017CD8CDB0410789AB32C63B91E5CEBBBACB17AC6CD347A022D5075FD106377347AAABA7E
310
7D11590744509B44E205134DC1290F06580320F78E537D3D73540E06CB970B431F185308AD40BBD794D6D77003C5A36E8EAA54BA64597CD8F83BD552A080A365F7FF06504B0304140006080000CC70623B000000000000000000000000350000006662782F39464131463745442D413632322D343644302D413938332D3331
310
353338454246344243312F76657274696365732E62696E504B0304140006080800CC70623BF270F1330600000004000000360000006662782F39464131463745442D413632322D343644302D413938332D3331353338454246344243312F747269616E676C65732E62696E636660600000504B0304140006080000CC70623B
310
000000000000000000000000370000006662782F39464131463745442D413632322D343644302D413938332D3331353338454246344243312F617474726962757465732E62696E504B0304140006080800CC70623B08DA0BD19000000041010000360000006662782F39464131463745442D413632322D343644302D413938
310
332D3331353338454246344243312F6469726563746F72792E786D6C858F410AC3201045AF22B36F53E9A60B35CBEEBAE80D244E44489C6234F4F835464A48035D0DF398FF9F8AF63D0E6CC63039F212F8F9020C7D47C6792B21C5FE7403D62A1188E2E60C98D7234A5830286103A55745067B9D86B8A3CF9C7F90C11DE607
310
FB144396D7B6A82D282E9A152AD114D5EF2CB866EEE831B8EEA07A7BB5A8D7D61A2BAAEB7FD5F70921FF497D00504B0304140006080800CC70623B0D6EF93BFE000000A00100003B0000006662782F39464131463745442D413632322D343644302D413938332D3331353338454246344243312F7265736F75726365732F63
310
6F72652E786D6C8D50596E833010BD0A9ADFCA60B334011947A8694ED00B586642AC041B79A97AFC9A40A5F6AF3F33A3B7689E1E3F7DCD8FEC139DD7D6F4C0720A191A65476DA61E62B892236427C19DB5E1970C322367EC618541F0C9D9B8EC90B226A009093576C41D94DE63804C3DD2D18357379C652E63480A7FCF17A9
310
EE72C29CE5894E3AC17D702940B63D59270887DE46A7D0F36263058F518FBB468FE9A7BE6A7420864373B8D4873369AA8691FA421B3294352543C5CAF65C0F6FEF43CB8BD52C78D0F34F46E550061C419494B6843142CB0F5677F4B52BEB177AEC28E5C52AFF638ACBF84F53D42654E51E77B379102C05791282176B5F693D
310
CB4C7BED567C03504B010214000A0000080000CC70623B3DEE336E79000000790000001B00000000000000000000000000000000006175746F6465736B2D64657369676E2D7061636B6167652E786D6C504B01021400140006080800CC70623BD486FD9CA0000000F40000001300000000000000000000000000B20000005B
310
436F6E74656E745F54797065735D2E786D6C504B01021400140006080800CC70623B1EC5D7A3EB0000007C010000080000000000000000000000000083010000636F72652E786D6C504B01021400140006080800CC70623B55019EA25F0000007C000000070000000000000000000000000094020000636E782E786D6C504B
310
01021400140006080800CC70623B8C9102E971010000D40300000C00000000000000000000000000180300006662782F636F72652E786D6C504B01021400140006080800CC70623BFFEA85907E0000009D0000000B00000000000000000000000000B30400006662782F636E782E786D6C504B01021400140006080800CC70
310
623B4FEEA4082C0100001202000031000000000000000000000000005A0500006662782F39464131463745442D413632322D343644302D413938332D3331353338454246344243312F636F72652E786D6C504B01021400140006080800CC70623BAD7543B64E010000330300003000000000000000000000000000D5060000
310
6662782F39464131463745442D413632322D343644302D413938332D3331353338454246344243312F636E782E786D6C504B01021400140006080800CC70623B16AB87BA640500003C1000003400000000000000000000000000710800006662782F39464131463745442D413632322D343644302D413938332D3331353338
310
454246344243312F6F626A656374732E786D6C504B01021400140006080000CC70623B0000000000000000000000003500000000000000000000000000270E00006662782F39464131463745442D413632322D343644302D413938332D3331353338454246344243312F76657274696365732E62696E504B01021400140006
310
080800CC70623BF270F133060000000400000036000000000000000000000000007A0E00006662782F39464131463745442D413632322D343644302D413938332D3331353338454246344243312F747269616E676C65732E62696E504B01021400140006080000CC70623B0000000000000000000000003700000000000000
310
000000000000D40E00006662782F39464131463745442D413632322D343644302D413938332D3331353338454246344243312F617474726962757465732E62696E504B01021400140006080800CC70623B08DA0BD190000000410100003600000000000000000000000000290F00006662782F39464131463745442D413632
310
322D343644302D413938332D3331353338454246344243312F6469726563746F72792E786D6C504B01021400140006080800CC70623B0D6EF93BFE000000A00100003B000000000000000000000000000D1000006662782F39464131463745442D413632322D343644302D413938332D3331353338454246344243312F7265
310
736F75726365732F636F72652E786D6C504B0506000000000E000E0080040000641100000000
  0
XRECORD
  5
175
102
{ACAD_REACTORS
330
173
102
}
330
173
100
AcDbXrecord
280
     1
270
     1
271
     1
  0
XRECORD
  5
174
102
{ACAD_REACTORS
330
173
102
}
330
173
100
AcDbXrecord
280
     1
270
     1
271
     1
  0
XRECORD
  5
1FB
102
{ACAD_REACTORS
330
173
102
}
330
173
100
AcDbXrecord
280
     1
 70
     0
 90
1673772943
  1
ECE7A1D2-D628-4531-984C-D00F80459256
310
504B03040A0000080000CC70623B3DEE336E79000000790000001B0000006175746F6465736B2D64657369676E2D7061636B6167652E786D6C3C3F786D6C2076657273696F6E3D22312E302220656E636F64696E673D227574662D3822203F3E3C666F726D6174733E3C666F726D61743E687474703A2F2F736368656D612E
310
6175746F6465736B2E636F6D2F64657369676E2D7061636B6167652F323030393C2F666F726D61743E3C2F666F726D6174733E504B0304140006080800CC70623BD486FD9CA0000000F4000000130000005B436F6E74656E745F54797065735D2E786D6C7D8EC10E82300C865F65E91D8A1E8C310C0EEA1BF002731658846E
310
D98AC1B77784ABF1D8FE5FBFBF75BBCE937A534CCEB38643598122B6FEE978D0B0485F9C41B54DDD7D022595594E1A469170414C76A4D9A4D207E29CF43ECE46F218070CC6BECC4078ACAA135ACF422C856C0E68EA1BF5669944DDD7BCDE7B1F8E415D77AECB980613C2E4AC91FC167A2B244592486606FC29C8FD7F045B9A
310
EF7053A7E60B504B0304140006080800CC70623BD9DDAED0EC0000007C01000008000000636F72652E786D6C8D90416EC3201045AF82665B61836D9CD8C2444DD39CA01740405C94182C03558F5F9C3852BBEB6A467FFE9B197D7EF89E6EE8CB2CC17A37002D0820E394D7D68D03A478C17B4007C117EFE32F1B20272733C0
310
2A83E0E3E2D3BC49CABB685CCCAAF3DA6CA20CC14440EA969B0182FA34932C648AD911AEC52CD5558EA6A0CF2EC329598D1E47ACCEFBECC59A050463A7EA5833865FEBDD0E37353BE3EE8DBDE3F6786A48D375FBF6CC78B9C282473B3DEFABC5C86834888A900E538A49F5419B9EB47DD5BC907D4F082F57FB1F28CDFA9F50
310
B22ED6D5F6EE030B20687EE43E10BC5CB3C8E51E54AE6B6EE207504B0304140006080800CC70623B55019EA25F0000007C00000007000000636E782E786D6C4DCB3B0E80201045D1AD90E915ED2CF8AC45050C11660C8261F98AB1B07AC9C97D42D718D865D3E909258CFD00CCE24AC6E326A164D74DC0B4128928FF326038
310
472BA13128B1252AC747C6BAB984FC68F0B87FE8960A5C09FE86CFB69FBA01504B0304140006080800CC70623BA24EB22D72010000D40300000C0000006662782F636F72652E786D6CC5535B6E833010BC8AE5DF0A6C5E49888CA3A6694ED00B38E05014B091B1518EDFE511A5A9D228FD2A1F60CDEC7A67C6986DCE4D8D7A
310
69BA4AAB0C073EC548AA5C17952A33ECECD15B61B4E1CC686DBF9561A44423333CC098B3D268D7CE50AE9595CA02AA74216750749DB418E5352C32DCE59FB211BE70162ABA93DF8AFC244AE9073ED050C759670D0840D390E18DF9F1706664C23973AE2A66B62A605A75ACA4C13C4976E1364A12EF355A2EBD384AF65EFA96
310
BC7B8BED2EA6719AAE16FB8491A199335B351775B991C2CA02F390D2D40B028F861F41BCA68B7518BFD0D59A524686F29B26D7164F36B94AD9289CE54E6D1DE6010819891F6E21228B3AD1831EC219194284CF98F06DD01008846CC5A1BEF83801D4CBDC6A1303536877A57A513B0953A94FC707FDBE6064EA84A9E3E6E0FA
310
EE8CF0E9198F7784A316AA0413C2C2F2E0ECA0934D1AE6D05A69BCDE9E91D2A611F573361E38FC1375157F5752AE6B6DFE4B11990F88CCBF0719EE23FF02504B0304140006080800CC70623B408A7D3B7C0000009D0000000B0000006662782F636E782E786D6C4DCCD10A83201886E15B91FFDC552A92A0064DBC8F581632
310
D3703A76F9ABD1C18E3E78F878E5F0D9027ABBFCF2292AE86E2D20171F69F6715550CB827B40839639A5F2770314A7CD293819B45C73AAFB45B35BA61ACAA1C1C7E7855C58C15BC331339661262CC762340413D68D77DA5B42298546CBE6573AF60CEB2F504B0304140006080800CC70623B449FB9BD290100001202000031
310
0000006662782F36394639363044362D344446342D343946362D394244322D3234314243333846323333332F636F72652E786D6C8D515B6EC32010BC0AE22B55850D98B871848994463E412FE002495162B07854397EA176A4F62F3F2C9A9D991D587EB84F37F0AD7D30CEF6905418026DA553C65E7A98E219ED203808EE9D
310
8B7F6810D871D23D2C3014FCE25D9A57483A1BB58D19B54EE9151C43D0110279CB971E06F9A5A7B11A53CC8C70ADE6515EC78BAE4895DB992778883E0700CB907242D17643D7E2538BD869608875438BBAE38922CAC8F1BDD90DB4691A5E2F42C153326A951B95E398B3D1FE599322163C9AE9115F7A3D46ADA0A018778810
310
84E907617BDCEE297BC5BB3DC6BC2EF47FA234AB2745C9D8D8D035EE220B50105E2F0DC1954B9FB747187D9F9D8FA0CCDB042D5FA0C015C65B42DF78BD10F3F3B363CB56C7109DCFDFBBB97E662ED92EB62D13BC2E1BCAE5777DB9966D8A1F504B0304140006080800CC70623BAD7543B64E01000033030000300000006662
310
782F36394639363044362D344446342D343946362D394244322D3234314243333846323333332F636E782E786D6CD593CD6EC32010845F0571AD6CE3D48AD20813A9873E410FBD12D82434182C7EAAE6EDBB2424CD25871E7B41D6EC30B3FA84F9E67BB2E40B4234DE8DB46F1925E094D7C6ED479AD3AE5951B2113C789FEE
310
6C943839C1488B4C05DF079FE72A69D8C96C13AAD6B8631503449F83828872B949AC57D26200B826A308D316B4064D6E46FCDA41C05550DC9E483A00797BFD207EFB092A45DE9514C1BBD22178396BD39D891265658C238DEA00936C654E5E433CB65A26D9F6EDB5EBC14EBF49A45CB856E66048291F6939A9A81BB5C89177
310
38143CA680F4AA299D66A042CEB3354A2684DC9D8D178FE0D9B8B41CAAD720F880EE7EF93C0C18769E099ECC04D5A102C8049A8A05632F4DDF376CF1DE0F6BB65C2F8627B65A33C6BB62177CEBBDAD973006829F89F22E814B54F4BC2BE347F8AA8F681390B50FA73F804400B5F542E796F19FF974E7F78DB802FE05E20750
310
4B0304140006080800CC70623B8D05915C650500003B100000340000006662782F36394639363044362D344446342D343946362D394244322D3234314243333846323333332F6F626A656374732E786D6CAD575B6FA33814FE2B887D06429276DA1565D4266D158D3A339A6846FB502932E050B66023DB74D2FDF5FB190C01
310
9276B2973C046C8ECFF53B17071F77456EBD502133CEAE6CDF9DD81665314F32965ED995DA3A17B6F5310C04E7AA47665B8C14F4CAD6DB7618A48257A5D94AE89654B91AEDDEDDFC61C998326A5B714EA4BCB265FC440BE2924AF184CA6737218AB8E976E7FA6E4338649B0A523E8D98964450A6A029F619B8588D52FE7039
310
B1BD30F0F4F730D0FF866AF6369557DB33949F31A9088B0F848DD8CCFCF9F2767A76E99CCDE733677E3EF59D9BBB9BA5E37F984D16E78BC5E5F5ED25044B25C0C96822E8D60EEFE11B91C581D77CEA34368A1F5329E68CD1B8B61F16D63A1B8E092D294B10C78C4A48EB593D192E7DED9BDEE7995E1B91FDEDD3ACEA9FE831
310
6A756F9F7D4D79F4274C90A7A04248AA51D5F8C718DAE06FB2F75AC4796EBE65D22A88A22223B995679120E2D50E41AA49C260C046A35368846B0BECD0DFF3EBEB8AD4F835768F69B9ADF25C43D30E6B646F807FAA64AD59F61715C7A54127C4AACA98BA3006A9D792DAE165E0D59B61A01FB3A9F9D838D2DAE62445C86166
310
F37564E842E7DE6A69879FEEA2DD5AE7E371E1A5E025154AC307D06A03D73EB5978C58FFA4C8E9033066E0F3BD53BEC1F39F91BE7B55103791EDE6BBB991A2046172CB4581D8B893FA674DDA17A77B3B7C413D1B511FD2743BFF8A38F03A658705E3ADF8015C3A3417FF3D7E439FF591DA0B5F18BC20C1B8981957AE6392A3
310
F43C640C01D1A0B4728E2DD4F26DB4B3C3152A252A3B4E913CEC1C72F012782FF88EFF8637AA552DBEF76408E8A8DE9E50F9E1CB3A2DA0DB1B6039A893B56063DC5B3E3FFB5F72E67AB9FEB4AEC496C4F4C1149625DD662C53E89D7BF0F6151A046260D1337DFDC94502430F83B0EE07A130A224BCAD7DAE1D9FB6CD422FF6
310
920702629C4BB9AE79C12F243C6432A6794E18E5552BA56B431AAB5D91317302B2B071E86C3A42B1A02F999E24061403B5D0EB639195DA655DD3EBEAB4FB862DDF579F014AD0E73C22F99E28DA57FB98E75C6CA2D74D53086D600F4786E0FE3144B771A8A7B900F03594DB8A633CBC49B2EDB69228BB479CF863B5E807AAAB
310
23872F6DFEB4129B949CA33823F58830E86D65621E10047D9DB34D862E8EAC3C2ABC2F7B2C40D67CDFE01F5545B92105AF983AC54D93D69E56FB8E797F88913F898A9FEC705D3F9D1B54EC8426FB500D40A03BD0119B06E1B95DDC7EB8F6975367793EBD70E66733DFB9BC982F9CE564727731999F5D4ECFCE3B8D6A4DC2A0
310
6D50FD148437D110834A64C6CDDF57FBACB5C307A2A477DFE4939736CFEF2B175371E0E10CF0DD1D5C15654E0BCA14D1E87DD02FF93782A162C0A3D95F1524A52770F972BF1EE9809D13CE7DD599467F8ECE9ADD85CE85A34CD45355448C64F9E8A031DC2D596ACC6E5DD93D9B82DE2EF5CAF81363A8E47996A0DE24564A79
310
4115AACE09C55E14540231FDA13C319787134EBF34E3A022514E5B4D9E0826E25C02D5805B15ABE1BEF51B26383D445DD9E875EE33FE4C22DA16427D65A3BCA92CA6D28DD01DF5DC53330704308475351050232CCD31583787BA75774AFB06E5070DD0C8EF484E19968C5D83BA5B90B244D31E54D55A372320FE4786B7EA58
310
44E135AA5467CB7EA333A61683CC6A8C3257034C10CF46F40EF9F5BE59BE5BD30C3C72D235E95D10345C1D45445A5F0BB47E46A5EBE5570F9380B5FA629579952296A773720405982B9DE04011506178964401AA8BDF1FBF0A8EAB6861DD6580C0E38217056766716DAEB2D6FA0917D3E4116581EADB879C4E7CFFB11EFACD
310
3D641311495D92C8676CB409A72D18610D803CE8A626049E8EC1887CB5B44CC39883690DDA8399B4B9855B481E7D71D4A9D22F96E5BB73BF5793020C02137BF837504B0304140006080000CC70623B000000000000000000000000350000006662782F36394639363044362D344446342D343946362D394244322D32343142
310
43333846323333332F76657274696365732E62696E504B0304140006080800CC70623BF270F1330600000004000000360000006662782F36394639363044362D344446342D343946362D394244322D3234314243333846323333332F747269616E676C65732E62696E636660600000504B0304140006080000CC70623B0000
310
00000000000000000000370000006662782F36394639363044362D344446342D343946362D394244322D3234314243333846323333332F617474726962757465732E62696E504B0304140006080800CC70623B08DA0BD19000000041010000360000006662782F36394639363044362D344446342D343946362D394244322D
310
3234314243333846323333332F6469726563746F72792E786D6C858F410AC3201045AF22B36F53E9A60B35CBEEBAE80D244E44489C6234F4F835464A48035D0DF398FF9F8AF63D0E6CC63039F212F8F9020C7D47C6792B21C5FE7403D62A1188E2E60C98D7234A5830286103A55745067B9D86B8A3CF9C7F90C11DE607FB14
310
4396D7B6A82D282E9A152AD114D5EF2CB866EEE831B8EEA07A7BB5A8D7D61A2BAAEB7FD5F70921FF497D00504B0304140006080800CC70623BCA768048FE000000A00100003B0000006662782F36394639363044362D344446342D343946362D394244322D3234314243333846323333332F7265736F75726365732F636F72
310
652E786D6C8D50596E833010BD0A9ADFCA60D600328E9AA639412F609909B1126CE4A5EAF16B0295DABFFECC8CDEA2797AECF8353F924FB44E193D409E5248504B332A3D0D10FC95B4901C39B3C6F85F3248B49871801506CE266BC2B243D2688FDA47549B11775038871E12F988C7004EDE7016A9083E2ADC3D5D84BC8B09
310
D33C8D74D471E6BC8D0192EDC93A815B742658898E651BCB59086ADC356A8C3FD555A1055ED7E7E254D615792D0F075295F585746FF53B694EE78A565DD736979A65AB9933AFE69F8CD2A2F038022F28ED489E135A7CE4554F9BBEA85E68DB53CAB255FEC71496F19FA6A0B42F8B3DEE6673C0F318E4497096AD7DC5F52C33
310
EEB55BFE0D504B010214000A0000080000CC70623B3DEE336E79000000790000001B00000000000000000000000000000000006175746F6465736B2D64657369676E2D7061636B6167652E786D6C504B01021400140006080800CC70623BD486FD9CA0000000F40000001300000000000000000000000000B20000005B436F
310
6E74656E745F54797065735D2E786D6C504B01021400140006080800CC70623BD9DDAED0EC0000007C010000080000000000000000000000000083010000636F72652E786D6C504B01021400140006080800CC70623B55019EA25F0000007C000000070000000000000000000000000095020000636E782E786D6C504B0102
310
1400140006080800CC70623BA24EB22D72010000D40300000C00000000000000000000000000190300006662782F636F72652E786D6C504B01021400140006080800CC70623B408A7D3B7C0000009D0000000B00000000000000000000000000B50400006662782F636E782E786D6C504B01021400140006080800CC70623B
310
449FB9BD290100001202000031000000000000000000000000005A0500006662782F36394639363044362D344446342D343946362D394244322D3234314243333846323333332F636F72652E786D6C504B01021400140006080800CC70623BAD7543B64E010000330300003000000000000000000000000000D20600006662
310
782F36394639363044362D344446342D343946362D394244322D3234314243333846323333332F636E782E786D6C504B01021400140006080800CC70623B8D05915C650500003B10000034000000000000000000000000006E0800006662782F36394639363044362D344446342D343946362D394244322D32343142433338
310
46323333332F6F626A656374732E786D6C504B01021400140006080000CC70623B0000000000000000000000003500000000000000000000000000250E00006662782F36394639363044362D344446342D343946362D394244322D3234314243333846323333332F76657274696365732E62696E504B010214001400060808
310
00CC70623BF270F13306000000040000003600000000000000000000000000780E00006662782F36394639363044362D344446342D343946362D394244322D3234314243333846323333332F747269616E676C65732E62696E504B01021400140006080000CC70623B00000000000000000000000037000000000000000000
310
00000000D20E00006662782F36394639363044362D344446342D343946362D394244322D3234314243333846323333332F617474726962757465732E62696E504B01021400140006080800CC70623B08DA0BD190000000410100003600000000000000000000000000270F00006662782F36394639363044362D344446342D
310
343946362D394244322D3234314243333846323333332F6469726563746F72792E786D6C504B01021400140006080800CC70623BCA768048FE000000A00100003B000000000000000000000000000B1000006662782F36394639363044362D344446342D343946362D394244322D3234314243333846323333332F7265736F
310
75726365732F636F72652E786D6C504B0506000000000E000E0080040000621100000000
  0
XRECORD
  5
176
102
{ACAD_REACTORS
330
173
102
}
330
173
100
AcDbXrecord
280
     1
270
     1
271
     1
  0
XRECORD
  5
177
102
{ACAD_REACTORS
330
173
102
}
330
173
100
AcDbXrecord
280
     1
270
     1
271
     1
  0
CELLSTYLEMAP
  5
80D
102
{ACAD_REACTORS
330
162
102
}
330
162
100
AcDbCellStyleMap
 90
        3
300
CELLSTYLE
  1
TABLEFORMAT_BEGIN
 90
        5
170
     1
 91
        0
 92
    32768
 62
   257
 93
        1
300
CONTENTFORMAT
  1
CONTENTFORMAT_BEGIN
 90
        0
 91
        0
 92
      512
 93
        0
300

 40
0.0
140
1.0
 94
        5
 62
     0
340
11
144
6.0
309
CONTENTFORMAT_END
171
     1
301
MARGIN
  1
CELLMARGIN_BEGIN
 40
1.5
 40
1.5
 40
1.5
 40
1.5
 40
4.5
 40
4.5
309
CELLMARGIN_END
 94
        6
 95
        1
302
GRIDFORMAT
  1
GRIDFORMAT_BEGIN
 90
        0
 91
        1
 62
     0
 92
       -2
340
14
 93
        0
 40
1.125
309
GRIDFORMAT_END
 95
        2
302
GRIDFORMAT
  1
GRIDFORMAT_BEGIN
 90
        0
 91
        1
 62
     0
 92
       -2
340
14
 93
        0
 40
1.125
309
GRIDFORMAT_END
 95
        4
302
GRIDFORMAT
  1
GRIDFORMAT_BEGIN
 90
        0
 91
        1
 62
     0
 92
       -2
340
14
 93
        0
 40
1.125
309
GRIDFORMAT_END
 95
        8
302
GRIDFORMAT
  1
GRIDFORMAT_BEGIN
 90
        0
 91
        1
 62
     0
 92
       -2
340
14
 93
        0
 40
1.125
309
GRIDFORMAT_END
 95
       16
302
GRIDFORMAT
  1
GRIDFORMAT_BEGIN
 90
        0
 91
        1
 62
     0
 92
       -2
340
14
 93
        0
 40
1.125
309
GRIDFORMAT_END
 95
       32
302
GRIDFORMAT
  1
GRIDFORMAT_BEGIN
 90
        0
 91
        1
 62
     0
 92
       -2
340
14
 93
        0
 40
1.125
309
GRIDFORMAT_END
309
TABLEFORMAT_END
  1
CELLSTYLE_BEGIN
 90
        1
 91
        1
300
_TITLE
309
CELLSTYLE_END
300
CELLSTYLE
  1
TABLEFORMAT_BEGIN
 90
        5
170
     1
 91
        0
 92
        0
 62
   257
 93
        1
300
CONTENTFORMAT
  1
CONTENTFORMAT_BEGIN
 90
        0
 91
        0
 92
      512
 93
        0
300

 40
0.0
140
1.0
 94
        5
 62
     0
340
11
144
4.5
309
CONTENTFORMAT_END
171
     1
301
MARGIN
  1
CELLMARGIN_BEGIN
 40
1.5
 40
1.5
 40
1.5
 40
1.5
 40
4.5
 40
4.5
309
CELLMARGIN_END
 94
        6
 95
        1
302
GRIDFORMAT
  1
GRIDFORMAT_BEGIN
 90
        0
 91
        1
 62
     0
 92
       -2
340
14
 93
        0
 40
1.125
309
GRIDFORMAT_END
 95
        2
302
GRIDFORMAT
  1
GRIDFORMAT_BEGIN
 90
        0
 91
        1
 62
     0
 92
       -2
340
14
 93
        0
 40
1.125
309
GRIDFORMAT_END
 95
        4
302
GRIDFORMAT
  1
GRIDFORMAT_BEGIN
 90
        0
 91
        1
 62
     0
 92
       -2
340
14
 93
        0
 40
1.125
309
GRIDFORMAT_END
 95
        8
302
GRIDFORMAT
  1
GRIDFORMAT_BEGIN
 90
        0
 91
        1
 62
     0
 92
       -2
340
14
 93
        0
 40
1.125
309
GRIDFORMAT_END
 95
       16
302
GRIDFORMAT
  1
GRIDFORMAT_BEGIN
 90
        0
 91
        1
 62
     0
 92
       -2
340
14
 93
        0
 40
1.125
309
GRIDFORMAT_END
 95
       32
302
GRIDFORMAT
  1
GRIDFORMAT_BEGIN
 90
        0
 91
        1
 62
     0
 92
       -2
340
14
 93
        0
 40
1.125
309
GRIDFORMAT_END
309
TABLEFORMAT_END
  1
CELLSTYLE_BEGIN
 90
        2
 91
        1
300
_HEADER
309
CELLSTYLE_END
300
CELLSTYLE
  1
TABLEFORMAT_BEGIN
 90
        5
170
     1
 91
        0
 92
        0
 62
   257
 93
        1
300
CONTENTFORMAT
  1
CONTENTFORMAT_BEGIN
 90
        0
 91
        0
 92
      512
 93
        0
300

 40
0.0
140
1.0
 94
        2
 62
     0
340
11
144
4.5
309
CONTENTFORMAT_END
171
     1
301
MARGIN
  1
CELLMARGIN_BEGIN
 40
1.5
 40
1.5
 40
1.5
 40
1.5
 40
4.5
 40
4.5
309
CELLMARGIN_END
 94
        6
 95
        1
302
GRIDFORMAT
  1
GRIDFORMAT_BEGIN
 90
        0
 91
        1
 62
     0
 92
       -2
340
14
 93
        0
 40
1.125
309
GRIDFORMAT_END
 95
        2
302
GRIDFORMAT
  1
GRIDFORMAT_BEGIN
 90
        0
 91
        1
 62
     0
 92
       -2
340
14
 93
        0
 40
1.125
309
GRIDFORMAT_END
 95
        4
302
GRIDFORMAT
  1
GRIDFORMAT_BEGIN
 90
        0
 91
        1
 62
     0
 92
       -2
340
14
 93
        0
 40
1.125
309
GRIDFORMAT_END
 95
        8
302
GRIDFORMAT
  1
GRIDFORMAT_BEGIN
 90
        0
 91
        1
 62
     0
 92
       -2
340
14
 93
        0
 40
1.125
309
GRIDFORMAT_END
 95
       16
302
GRIDFORMAT
  1
GRIDFORMAT_BEGIN
 90
        0
 91
        1
 62
     0
 92
       -2
340
14
 93
        0
 40
1.125
309
GRIDFORMAT_END
 95
       32
302
GRIDFORMAT
  1
GRIDFORMAT_BEGIN
 90
        0
 91
        1
 62
     0
 92
       -2
340
14
 93
        0
 40
1.125
309
GRIDFORMAT_END
309
TABLEFORMAT_END
  1
CELLSTYLE_BEGIN
 90
        3
 91
        2
300
_DATA
309
CELLSTYLE_END
  0
ENDSEC
  0
SECTION
  2
ACDSDATA
 70
     2
 71
     8
  0
ACDSSCHEMA
 90
        0
  1
AcDb_Thumbnail_Schema
  2
AcDbDs::ID
280
    10
 91
        8
  2
Thumbnail_Data
280
    15
 91
        0
101
ACDSRECORD
 95
        0
 90
        1
  2
AcDbDs::TreatedAsObjectData
280
     1
291
     1
101
ACDSRECORD
 95
        0
 90
        2
  2
AcDbDs::Legacy
280
     1
291
     1
101
ACDSRECORD
  1
AcDbDs::ID
 90
        3
  2
AcDs:Indexable
280
     1
291
     1
101
ACDSRECORD
  1
AcDbDs::ID
 90
        4
  2
AcDbDs::HandleAttribute
280
     7
282
     1
  0
ACDSSCHEMA
 90
        1
  1
AcDbDs::TreatedAsObjectDataSchema
  2
AcDbDs::TreatedAsObjectData
280
     1
 91
        0
  0
ACDSSCHEMA
 90
        2
  1
AcDbDs::LegacySchema
  2
AcDbDs::Legacy
280
     1
 91
        0
  0
ACDSSCHEMA
 90
        3
  1
AcDbDs::IndexedPropertySchema
  2
AcDs:Indexable
280
     1
 91
        0
  0
ACDSSCHEMA
 90
        4
  1
AcDbDs::HandleAttributeSchema
  2
AcDbDs::HandleAttribute
280
     7
 91
        1
284
     1
  0
ACDSRECORD
 90
        0
  2
AcDbDs::ID
280
    10
320
22
  2
Thumbnail_Data
280
    15
 94
      896
310
89504E470D0A1A0A0000000D49484452000001000000009108030000001BE1960600000300504C5445212830FFFFFF2128300000000000000000000000000000000000000000000000000000330000660000990000CC0000FF0033000033330033660033990033CC0033FF0066000066330066660066990066CC0066FF0099
310
000099330099660099990099CC0099FF00CC0000CC3300CC6600CC9900CCCC00CCFF00FF0000FF3300FF6600FF9900FFCC00FFFF3300003300333300663300993300CC3300FF3333003333333333663333993333CC3333FF3366003366333366663366993366CC3366FF3399003399333399663399993399CC3399FF33CC00
310
33CC3333CC6633CC9933CCCC33CCFF33FF0033FF3333FF6633FF9933FFCC33FFFF6600006600336600666600996600CC6600FF6633006633336633666633996633CC6633FF6666006666336666666666996666CC6666FF6699006699336699666699996699CC6699FF66CC0066CC3366CC6666CC9966CCCC66CCFF66FF0066
310
FF3366FF6666FF9966FFCC66FFFF9900009900339900669900999900CC9900FF9933009933339933669933999933CC9933FF9966009966339966669966999966CC9966FF9999009999339999669999999999CC9999FF99CC0099CC3399CC6699CC9999CCCC99CCFF99FF0099FF3399FF6699FF9999FFCC99FFFFCC0000CC00
310
33CC0066CC0099CC00CCCC00FFCC3300CC3333CC3366CC3399CC33CCCC33FFCC6600CC6633CC6666CC6699CC66CCCC66FFCC9900CC9933CC9966CC9999CC99CCCC99FFCCCC00CCCC33CCCC66CCCC99CCCCCCCCCCFFCCFF00CCFF33CCFF66CCFF99CCFFCCCCFFFFFF0000FF0033FF0066FF0099FF00CCFF00FFFF3300FF3333
310
FF3366FF3399FF33CCFF33FFFF6600FF6633FF6666FF6699FF66CCFF66FFFF9900FF9933FF9966FF9999FF99CCFF99FFFFCC00FFCC33FFCC66FFCC99FFCCCCFFCCFFFFFF00FFFF33FFFF66FFFF99FFFFCCFFFFFF0000000D0D0D1A1A1A2828283535354343435050505D5D5D6B6B6B787878868686939393A1A1A1AEAEAEBB
310
BBBBC9C9C9D6D6D6E4E4E4F1F1F1FFFFFF0000000000000000000000000000000000000000000000000000000000002E4550F10000003B4944415478DAEDC13101000000C2A0F54F6D0B2FA0000000000000000000000000000000000000000000000000000000000000000000000000CE06919100016C9A5B1B0000000049
310
454E44AE426082
  0
ENDSEC
  0
EOF
