  0
SECTION
  2
HEADER
  9
$ACADVER
  1
AC1032
  9
$ACADMAINTVER
 90
      250
  9
$DWGCODEPAGE
  3
ANSI_932
  9
$LASTSAVEDBY
  1
dsp199
  9
$REQUIREDVERSIONS
160
                 0
  9
$INSBASE
 10
0.0
 20
0.0
 30
0.0
  9
$EXTMIN
 10
2181.100214887845
 20
1749.651720411899
 30
-0.0015258207003583
  9
$EXTMAX
 10
2314.598039064488
 20
1861.794411856928
 30
0.0000000349246037
  9
$LIMMIN
 10
0.0
 20
0.0
  9
$LIMMAX
 10
420.0
 20
297.0
  9
$ORTHOMODE
 70
     0
  9
$REGENMODE
 70
     1
  9
$FILLMODE
 70
     1
  9
$QTEXTMODE
 70
     0
  9
$MIRRTEXT
 70
     0
  9
$LTSCALE
 40
1.0
  9
$ATTMODE
 70
     1
  9
$TEXTSIZE
 40
2.5
  9
$TRACEWID
 40
1.0
  9
$TEXTSTYLE
  7
Standard
  9
$CLAYER
  8
0
  9
$CELTYPE
  6
ByLayer
  9
$CECOLOR
 62
   256
  9
$CELTSCALE
 40
1.0
  9
$DISPSILH
 70
     0
  9
$DIMSCALE
 40
1.0
  9
$DIMASZ
 40
0.18
  9
$DIMEXO
 40
0.0625
  9
$DIMDLI
 40
0.38
  9
$DIMRND
 40
0.0
  9
$DIMDLE
 40
0.0
  9
$DIMEXE
 40
0.18
  9
$DIMTP
 40
0.0
  9
$DIMTM
 40
0.0
  9
$DIMTXT
 40
0.18
  9
$DIMCEN
 40
0.09
  9
$DIMTSZ
 40
0.0
  9
$DIMTOL
 70
     0
  9
$DIMLIM
 70
     0
  9
$DIMTIH
 70
     1
  9
$DIMTOH
 70
     1
  9
$DIMSE1
 70
     0
  9
$DIMSE2
 70
     0
  9
$DIMTAD
 70
     0
  9
$DIMZIN
 70
     0
  9
$DIMBLK
  1

  9
$DIMASO
 70
     1
  9
$DIMSHO
 70
     1
  9
$DIMPOST
  1

  9
$DIMAPOST
  1

  9
$DIMALT
 70
     0
  9
$DIMALTD
 70
     2
  9
$DIMALTF
 40
25.4
  9
$DIMLFAC
 40
1.0
  9
$DIMTOFL
 70
     0
  9
$DIMTVP
 40
0.0
  9
$DIMTIX
 70
     0
  9
$DIMSOXD
 70
     0
  9
$DIMSAH
 70
     0
  9
$DIMBLK1
  1

  9
$DIMBLK2
  1

  9
$DIMSTYLE
  2
Standard
  9
$DIMCLRD
 70
     0
  9
$DIMCLRE
 70
     0
  9
$DIMCLRT
 70
     0
  9
$DIMTFAC
 40
1.0
  9
$DIMGAP
 40
0.09
  9
$DIMJUST
 70
     0
  9
$DIMSD1
 70
     0
  9
$DIMSD2
 70
     0
  9
$DIMTOLJ
 70
     1
  9
$DIMTZIN
 70
     0
  9
$DIMALTZ
 70
     0
  9
$DIMALTTZ
 70
     0
  9
$DIMUPT
 70
     0
  9
$DIMDEC
 70
     4
  9
$DIMTDEC
 70
     4
  9
$DIMALTU
 70
     2
  9
$DIMALTTD
 70
     2
  9
$DIMTXSTY
  7
Standard
  9
$DIMAUNIT
 70
     0
  9
$DIMADEC
 70
     0
  9
$DIMALTRND
 40
0.0
  9
$DIMAZIN
 70
     0
  9
$DIMDSEP
 70
    46
  9
$DIMATFIT
 70
     3
  9
$DIMFRAC
 70
     0
  9
$DIMLDRBLK
  1

  9
$DIMLUNIT
 70
     2
  9
$DIMLWD
 70
    -2
  9
$DIMLWE
 70
    -2
  9
$DIMTMOVE
 70
     0
  9
$DIMFXL
 40
1.0
  9
$DIMFXLON
 70
     0
  9
$DIMJOGANG
 40
0.7853981633974483
  9
$DIMTFILL
 70
     0
  9
$DIMTFILLCLR
 70
     0
  9
$DIMARCSYM
 70
     0
  9
$DIMLTYPE
  6

  9
$DIMLTEX1
  6

  9
$DIMLTEX2
  6

  9
$DIMTXTDIRECTION
 70
     0
  9
$LUNITS
 70
     2
  9
$LUPREC
 70
     4
  9
$SKETCHINC
 40
1.0
  9
$FILLETRAD
 40
0.0
  9
$AUNITS
 70
     0
  9
$AUPREC
 70
     0
  9
$MENU
  1
.
  9
$ELEVATION
 40
0.0
  9
$PELEVATION
 40
0.0
  9
$THICKNESS
 40
0.0
  9
$LIMCHECK
 70
     0
  9
$CHAMFERA
 40
0.0
  9
$CHAMFERB
 40
0.0
  9
$CHAMFERC
 40
0.0
  9
$CHAMFERD
 40
0.0
  9
$SKPOLY
 70
     0
  9
$TDCREATE
 40
2460383.460162037
  9
$TDUCREATE
 40
2460383.085162037
  9
$TDUPDATE
 40
2460383.462164352
  9
$TDUUPDATE
 40
2460383.087164352
  9
$TDINDWG
 40
0.0020023148
  9
$TDUSRTIMER
 40
0.0020023148
  9
$USRTIMER
 70
     1
  9
$ANGBASE
 50
0.0
  9
$ANGDIR
 70
     0
  9
$PDMODE
 70
     0
  9
$PDSIZE
 40
0.0
  9
$PLINEWID
 40
0.0
  9
$SPLFRAME
 70
     0
  9
$SPLINETYPE
 70
     6
  9
$SPLINESEGS
 70
     8
  9
$HANDSEED
  5
906
  9
$SURFTAB1
 70
     6
  9
$SURFTAB2
 70
     6
  9
$SURFTYPE
 70
     6
  9
$SURFU
 70
     6
  9
$SURFV
 70
     6
  9
$UCSBASE
  2

  9
$UCSNAME
  2

  9
$UCSORG
 10
0.0
 20
0.0
 30
0.0
  9
$UCSXDIR
 10
1.0
 20
0.0
 30
0.0
  9
$UCSYDIR
 10
0.0
 20
1.0
 30
0.0
  9
$UCSORTHOREF
  2

  9
$UCSORTHOVIEW
 70
     0
  9
$UCSORGTOP
 10
0.0
 20
0.0
 30
0.0
  9
$UCSORGBOTTOM
 10
0.0
 20
0.0
 30
0.0
  9
$UCSORGLEFT
 10
0.0
 20
0.0
 30
0.0
  9
$UCSORGRIGHT
 10
0.0
 20
0.0
 30
0.0
  9
$UCSORGFRONT
 10
0.0
 20
0.0
 30
0.0
  9
$UCSORGBACK
 10
0.0
 20
0.0
 30
0.0
  9
$PUCSBASE
  2

  9
$PUCSNAME
  2

  9
$PUCSORG
 10
0.0
 20
0.0
 30
0.0
  9
$PUCSXDIR
 10
1.0
 20
0.0
 30
0.0
  9
$PUCSYDIR
 10
0.0
 20
1.0
 30
0.0
  9
$PUCSORTHOREF
  2

  9
$PUCSORTHOVIEW
 70
     0
  9
$PUCSORGTOP
 10
0.0
 20
0.0
 30
0.0
  9
$PUCSORGBOTTOM
 10
0.0
 20
0.0
 30
0.0
  9
$PUCSORGLEFT
 10
0.0
 20
0.0
 30
0.0
  9
$PUCSORGRIGHT
 10
0.0
 20
0.0
 30
0.0
  9
$PUCSORGFRONT
 10
0.0
 20
0.0
 30
0.0
  9
$PUCSORGBACK
 10
0.0
 20
0.0
 30
0.0
  9
$USERI1
 70
     0
  9
$USERI2
 70
     0
  9
$USERI3
 70
     0
  9
$USERI4
 70
     0
  9
$USERI5
 70
     0
  9
$USERR1
 40
0.0
  9
$USERR2
 40
0.0
  9
$USERR3
 40
0.0
  9
$USERR4
 40
0.0
  9
$USERR5
 40
0.0
  9
$WORLDVIEW
 70
     1
  9
$SHADEDGE
 70
     3
  9
$SHADEDIF
 70
    70
  9
$TILEMODE
 70
     1
  9
$MAXACTVP
 70
    64
  9
$PINSBASE
 10
0.0
 20
0.0
 30
0.0
  9
$PLIMCHECK
 70
     0
  9
$PEXTMIN
 10
0.0
 20
0.0
 30
0.0
  9
$PEXTMAX
 10
0.0
 20
0.0
 30
0.0
  9
$PLIMMIN
 10
0.0
 20
0.0
  9
$PLIMMAX
 10
12.0
 20
9.0
  9
$UNITMODE
 70
     0
  9
$VISRETAIN
 70
     1
  9
$PLINEGEN
 70
     0
  9
$PSLTSCALE
 70
     1
  9
$TREEDEPTH
 70
  3020
  9
$CMLSTYLE
  2
Standard
  9
$CMLJUST
 70
     0
  9
$CMLSCALE
 40
20.0
  9
$PROXYGRAPHICS
 70
     1
  9
$MEASUREMENT
 70
     1
  9
$CELWEIGHT
370
    -1
  9
$ENDCAPS
280
     0
  9
$JOINSTYLE
280
     0
  9
$LWDISPLAY
290
     0
  9
$INSUNITS
 70
     4
  9
$HYPERLINKBASE
  1

  9
$STYLESHEET
  1

  9
$XEDIT
290
     1
  9
$CEPSNTYPE
380
     0
  9
$PSTYLEMODE
290
     1
  9
$FINGERPRINTGUID
  2
{812C521D-B345-CB46-ABD0-EAD9A8A67B9E}
  9
$VERSIONGUID
  2
{57728E39-F56C-A24C-A1CA-F99F84CACA44}
  9
$EXTNAMES
290
     1
  9
$PSVPSCALE
 40
0.0
  9
$OLESTARTUP
290
     0
  9
$SORTENTS
280
   127
  9
$INDEXCTL
280
     0
  9
$HIDETEXT
280
     1
  9
$XCLIPFRAME
280
     2
  9
$HALOGAP
280
     0
  9
$OBSCOLOR
 70
   257
  9
$OBSLTYPE
280
     0
  9
$INTERSECTIONDISPLAY
280
     0
  9
$INTERSECTIONCOLOR
 70
   257
  9
$DIMASSOC
280
     2
  9
$PROJECTNAME
  1

  9
$CAMERADISPLAY
290
     0
  9
$LENSLENGTH
 40
50.0
  9
$CAMERAHEIGHT
 40
0.0
  9
$STEPSPERSEC
 40
2.0
  9
$STEPSIZE
 40
6.0
  9
$3DDWFPREC
 40
2.0
  9
$PSOLWIDTH
 40
5.0
  9
$PSOLHEIGHT
 40
80.0
  9
$LOFTANG1
 40
1.570796326794896
  9
$LOFTANG2
 40
1.570796326794896
  9
$LOFTMAG1
 40
0.0
  9
$LOFTMAG2
 40
0.0
  9
$LOFTPARAM
 70
     7
  9
$LOFTNORMALS
280
     1
  9
$LATITUDE
 40
37.795
  9
$LONGITUDE
 40
-122.394
  9
$NORTHDIRECTION
 40
0.0
  9
$TIMEZONE
 70
 -8000
  9
$LIGHTGLYPHDISPLAY
280
     1
  9
$TILEMODELIGHTSYNCH
280
     1
  9
$CMATERIAL
347
EC
  9
$SOLIDHIST
280
     0
  9
$SHOWHIST
280
     1
  9
$DWFFRAME
280
     2
  9
$DGNFRAME
280
     0
  9
$REALWORLDSCALE
290
     1
  9
$INTERFERECOLOR
 62
     1
  9
$INTERFEREOBJVS
345
F9
  9
$INTERFEREVPVS
346
F6
  9
$CSHADOW
280
     0
  9
$SHADOWPLANELOCATION
 40
0.0
  0
ENDSEC
  0
SECTION
  2
CLASSES
  0
CLASS
  1
ACDBDICTIONARYWDFLT
  2
AcDbDictionaryWithDefault
  3
ObjectDBX Classes
 90
        0
 91
        1
280
     0
281
     0
  0
CLASS
  1
DICTIONARYVAR
  2
AcDbDictionaryVar
  3
ObjectDBX Classes
 90
        0
 91
       12
280
     0
281
     0
  0
CLASS
  1
TABLESTYLE
  2
AcDbTableStyle
  3
ObjectDBX Classes
 90
     4095
 91
        1
280
     0
281
     0
  0
CLASS
  1
MATERIAL
  2
AcDbMaterial
  3
ObjectDBX Classes
 90
     1153
 91
        3
280
     0
281
     0
  0
CLASS
  1
VISUALSTYLE
  2
AcDbVisualStyle
  3
ObjectDBX Classes
 90
     4095
 91
       24
280
     0
281
     0
  0
CLASS
  1
SCALE
  2
AcDbScale
  3
ObjectDBX Classes
 90
     1153
 91
       17
280
     0
281
     0
  0
CLASS
  1
MLEADERSTYLE
  2
AcDbMLeaderStyle
  3
ACDB_MLEADERSTYLE_CLASS
 90
     4095
 91
        2
280
     0
281
     0
  0
CLASS
  1
CELLSTYLEMAP
  2
AcDbCellStyleMap
  3
ObjectDBX Classes
 90
     1152
 91
        1
280
     0
281
     0
  0
CLASS
  1
EXACXREFPANELOBJECT
  2
ExAcXREFPanelObject
  3
EXAC_ESW
 90
     1025
 91
        0
280
     0
281
     0
  0
CLASS
  1
NPOCOLLECTION
  2
AcDbImpNonPersistentObjectsCollection
  3
ObjectDBX Classes
 90
     1153
 91
        0
280
     0
281
     0
  0
CLASS
  1
LAYER_INDEX
  2
AcDbLayerIndex
  3
ObjectDBX Classes
 90
        0
 91
        0
280
     0
281
     0
  0
CLASS
  1
SPATIAL_INDEX
  2
AcDbSpatialIndex
  3
ObjectDBX Classes
 90
        0
 91
        0
280
     0
281
     0
  0
CLASS
  1
IDBUFFER
  2
AcDbIdBuffer
  3
ObjectDBX Classes
 90
        0
 91
        0
280
     0
281
     0
  0
CLASS
  1
ACDBSECTIONVIEWSTYLE
  2
AcDbSectionViewStyle
  3
ObjectDBX Classes
 90
     1025
 91
        1
280
     0
281
     0
  0
CLASS
  1
ACDBDETAILVIEWSTYLE
  2
AcDbDetailViewStyle
  3
ObjectDBX Classes
 90
     1025
 91
        1
280
     0
281
     0
  0
CLASS
  1
SORTENTSTABLE
  2
AcDbSortentsTable
  3
ObjectDBX Classes
 90
        0
 91
        1
280
     0
281
     0
  0
ENDSEC
  0
SECTION
  2
TABLES
  0
TABLE
  2
VPORT
  5
8
330
0
100
AcDbSymbolTable
 70
     1
  0
VPORT
  5
EA
330
8
100
AcDbSymbolTableRecord
100
AcDbViewportTableRecord
  2
*Active
 70
     0
 10
0.0
 20
0.0
 11
1.0
 21
1.0
 12
2258.64216413606
 22
1810.566409535393
 13
0.0
 23
0.0
 14
10.0
 24
10.0
 15
10.0
 25
10.0
 16
0.0
 26
0.0
 36
1.0
 17
0.0
 27
0.0
 37
0.0
 40
180.6932471249006
 41
2.028535980148883
 42
50.0
 43
0.0
 44
0.0
 50
0.0
 51
0.0
 71
     0
 72
  1000
 73
     1
 74
     3
 75
     0
 76
     1
 77
     0
 78
     0
281
     0
 65
     1
110
0.0
120
0.0
130
0.0
111
1.0
121
0.0
131
0.0
112
0.0
122
1.0
132
0.0
 79
     0
146
0.0
348
F5
 60
     3
 61
     5
292
     1
282
     1
141
0.0
142
0.0
 63
   250
421
  3355443
1001
ACAD_NAV_VCDISPLAY
1070
     3
  0
ENDTAB
  0
TABLE
  2
LTYPE
  5
5
330
0
100
AcDbSymbolTable
 70
     3
  0
LTYPE
  5
14
330
5
100
AcDbSymbolTableRecord
100
AcDbLinetypeTableRecord
  2
ByBlock
 70
     0
  3

 72
    65
 73
     0
 40
0.0
  0
LTYPE
  5
15
330
5
100
AcDbSymbolTableRecord
100
AcDbLinetypeTableRecord
  2
ByLayer
 70
     0
  3

 72
    65
 73
     0
 40
0.0
  0
LTYPE
  5
16
330
5
100
AcDbSymbolTableRecord
100
AcDbLinetypeTableRecord
  2
Continuous
 70
     0
  3
Solid line
 72
    65
 73
     0
 40
0.0
  0
LTYPE
  5
2B9
330
5
100
AcDbSymbolTableRecord
100
AcDbLinetypeTableRecord
  2
SLD-實線
 70
     0
  3
SolidWorks Line Style
 72
    65
 73
     0
 40
0.0
  0
ENDTAB
  0
TABLE
  2
LAYER
  5
2
102
{ACAD_XDICTIONARY
360
1FF
102
}
330
0
100
AcDbSymbolTable
 70
     1
  0
LAYER
  5
10
102
{ACAD_XDICTIONARY
360
13C
102
}
330
2
100
AcDbSymbolTableRecord
100
AcDbLayerTableRecord
  2
0
 70
     0
 62
     7
  6
Continuous
370
    -3
390
F
347
EE
348
0
  0
ENDTAB
  0
TABLE
  2
STYLE
  5
3
330
0
100
AcDbSymbolTable
 70
     2
  0
STYLE
  5
11
330
3
100
AcDbSymbolTableRecord
100
AcDbTextStyleTableRecord
  2
Standard
 70
     0
 40
0.0
 41
1.0
 50
0.0
 71
     0
 42
2.5
  3
arial.ttf
  4

1001
ACAD
1000
Arial
1071
       34
  0
STYLE
  5
132
330
3
100
AcDbSymbolTableRecord
100
AcDbTextStyleTableRecord
  2
Annotative
 70
     0
 40
0.0
 41
1.0
 50
0.0
 71
     0
 42
2.5
  3
arial.ttf
  4

1001
AcadAnnotative
1000
AnnotativeData
1002
{
1070
     1
1070
     1
1002
}
1001
ACAD
1000
Arial
1071
       34
  0
ENDTAB
  0
TABLE
  2
VIEW
  5
6
330
0
100
AcDbSymbolTable
 70
     0
  0
ENDTAB
  0
TABLE
  2
UCS
  5
7
330
0
100
AcDbSymbolTable
 70
     0
  0
ENDTAB
  0
TABLE
  2
APPID
  5
9
330
0
100
AcDbSymbolTable
 70
    13
  0
APPID
  5
12
330
9
100
AcDbSymbolTableRecord
100
AcDbRegAppTableRecord
  2
ACAD
 70
     0
  0
APPID
  5
9E
330
9
100
AcDbSymbolTableRecord
100
AcDbRegAppTableRecord
  2
ACAD_PSEXT
 70
     0
  0
APPID
  5
133
330
9
100
AcDbSymbolTableRecord
100
AcDbRegAppTableRecord
  2
AcadAnnoPO
 70
     0
  0
APPID
  5
134
330
9
100
AcDbSymbolTableRecord
100
AcDbRegAppTableRecord
  2
AcadAnnotative
 70
     0
  0
APPID
  5
135
330
9
100
AcDbSymbolTableRecord
100
AcDbRegAppTableRecord
  2
ACAD_DSTYLE_DIMJAG
 70
     0
  0
APPID
  5
136
330
9
100
AcDbSymbolTableRecord
100
AcDbRegAppTableRecord
  2
ACAD_DSTYLE_DIMTALN
 70
     0
  0
APPID
  5
165
330
9
100
AcDbSymbolTableRecord
100
AcDbRegAppTableRecord
  2
ACAD_MLEADERVER
 70
     0
  0
APPID
  5
217
330
9
100
AcDbSymbolTableRecord
100
AcDbRegAppTableRecord
  2
ACAD_NAV_VCDISPLAY
 70
     0
  0
APPID
  5
2BA
330
9
100
AcDbSymbolTableRecord
100
AcDbRegAppTableRecord
  2
AcAecLayerStandard
 70
     0
  0
APPID
  5
2BB
330
9
100
AcDbSymbolTableRecord
100
AcDbRegAppTableRecord
  2
AcCmTransparency
 70
     0
  0
APPID
  5
2BC
330
9
100
AcDbSymbolTableRecord
100
AcDbRegAppTableRecord
  2
PLOTTRANSPARENCY
 70
     0
  0
APPID
  5
8F9
330
9
100
AcDbSymbolTableRecord
100
AcDbRegAppTableRecord
  2
ACAD_EXEMPT_FROM_CAD_STANDARDS
 70
     0
  0
APPID
  5
902
330
9
100
AcDbSymbolTableRecord
100
AcDbRegAppTableRecord
  2
Acad_TC
 70
     0
  0
ENDTAB
  0
TABLE
  2
DIMSTYLE
  5
A
330
0
100
AcDbSymbolTable
 70
     4
100
AcDbDimStyleTable
 71
     3
340
1B0
340
27
340
137
  0
DIMSTYLE
105
1B0
330
A
100
AcDbSymbolTableRecord
100
AcDbDimStyleTableRecord
  2
Standard
 70
     0
340
11
  0
DIMSTYLE
105
137
330
A
100
AcDbSymbolTableRecord
100
AcDbDimStyleTableRecord
  2
Annotative
 70
     0
 40
0.0
 41
2.5
 42
0.625
 43
3.75
 44
1.25
 73
     0
 74
     0
 77
     1
 78
     8
140
2.5
141
2.5
143
0.03937007874016
147
0.625
171
     3
172
     1
271
     2
272
     2
274
     3
278
    44
283
     0
284
     8
340
11
1001
AcadAnnotative
1000
AnnotativeData
1002
{
1070
     1
1070
     1
1002
}
1001
ACAD_DSTYLE_DIMJAG
1070
   388
1040
1.5
1001
ACAD_DSTYLE_DIMTALN
1070
   392
1070
     0
  0
DIMSTYLE
105
27
330
A
100
AcDbSymbolTableRecord
100
AcDbDimStyleTableRecord
  2
ISO-25
 70
     0
 41
2.5
 42
0.625
 43
3.75
 44
1.25
 73
     0
 74
     0
 77
     1
 78
     8
140
2.5
141
2.5
143
0.03937007874016
147
0.625
171
     3
172
     1
271
     2
272
     2
274
     3
278
    44
283
     0
284
     8
340
11
  0
ENDTAB
  0
TABLE
  2
BLOCK_RECORD
  5
1
330
0
100
AcDbSymbolTable
 70
     3
  0
BLOCK_RECORD
  5
1F
102
{ACAD_XDICTIONARY
360
1CE
102
}
330
1
100
AcDbSymbolTableRecord
100
AcDbBlockTableRecord
  2
*Model_Space
340
22
 70
     0
280
     1
281
     0
  0
BLOCK_RECORD
  5
D2
330
1
100
AcDbSymbolTableRecord
100
AcDbBlockTableRecord
  2
*Paper_Space
340
D3
 70
     0
280
     1
281
     0
  0
BLOCK_RECORD
  5
D6
330
1
100
AcDbSymbolTableRecord
100
AcDbBlockTableRecord
  2
*Paper_Space0
340
D7
 70
     0
280
     1
281
     0
  0
ENDTAB
  0
ENDSEC
  0
SECTION
  2
BLOCKS
  0
BLOCK
  5
20
330
1F
100
AcDbEntity
  8
0
100
AcDbBlockBegin
  2
*Model_Space
 70
     0
 10
0.0
 20
0.0
 30
0.0
  3
*Model_Space
  1

  0
ENDBLK
  5
21
330
1F
100
AcDbEntity
  8
0
100
AcDbBlockEnd
  0
BLOCK
  5
D4
330
D2
100
AcDbEntity
 67
     1
  8
0
100
AcDbBlockBegin
  2
*Paper_Space
 70
     0
 10
0.0
 20
0.0
 30
0.0
  3
*Paper_Space
  1

  0
ENDBLK
  5
D5
330
D2
100
AcDbEntity
 67
     1
  8
0
100
AcDbBlockEnd
  0
BLOCK
  5
D8
330
D6
100
AcDbEntity
 67
     1
  8
0
100
AcDbBlockBegin
  2
*Paper_Space0
 70
     0
 10
0.0
 20
0.0
 30
0.0
  3
*Paper_Space0
  1

  0
ENDBLK
  5
D9
330
D6
100
AcDbEntity
 67
     1
  8
0
100
AcDbBlockEnd
  0
ENDSEC
  0
SECTION
  2
ENTITIES
  0
LINE
  5
5DE
330
1F
100
AcDbEntity
  8
0
  6
SLD-實線
 62
     7
100
AcDbLine
 10
2212.329939372294
 20
1771.39265501697
 30
0.0
 11
2212.329939372294
 21
1771.492654847097
 31
0.0
  0
LINE
  5
5DF
330
1F
100
AcDbEntity
  8
0
  6
SLD-實線
 62
     7
100
AcDbLine
 10
2209.979939406194
 20
1771.492654847097
 30
0.0
 11
2209.979939406194
 21
1771.39265501697
 31
0.0
  0
LINE
  5
5E0
330
1F
100
AcDbEntity
  8
0
  6
SLD-實線
 62
     7
100
AcDbLine
 10
2190.794599956289
 20
1764.79265412141
 30
0.0
 11
2195.154938629285
 21
1764.79265412141
 31
0.0
  0
LWPOLYLINE
  5
5E1
330
1F
100
AcDbEntity
  8
0
  6
SLD-實線
 62
     7
100
AcDbPolyline
 90
       10
 70
     0
 43
0.0
 10
2195.154938629285
 20
1764.79265412141
 10
2195.156674614564
 20
1764.789616147172
 10
2195.161824828401
 20
1764.780592562746
 10
2195.170236533895
 20
1764.765859970938
 10
2195.18165082337
 20
1764.745863543939
 10
2195.195723107472
 20
1764.721212366711
 10
2195.212026840463
 20
1764.692654291283
 10
2195.230064696088
 20
1764.661058241617
 10
2195.249287194029
 20
1764.627384411286
 10
2195.269113188997
 20
1764.592654461156
  0
ARC
  5
5E2
330
1F
100
AcDbEntity
  8
0
  6
SLD-實線
 62
     7
100
AcDbCircle
 10
2197.154939389244
 20
1761.692654456686
 30
0.0
 40
0.2000000000000174
100
AcDbArc
 50
209.7208601076868
 51
330.2791398923132
  0
LINE
  5
5E3
330
1F
100
AcDbEntity
  8
0
  6
SLD-實線
 62
     7
100
AcDbLine
 10
2195.269113188997
 20
1764.592654461156
 30
0.0
 11
2196.981249159589
 21
1761.593499610316
 31
0.0
  0
LINE
  5
5E4
330
1F
100
AcDbEntity
  8
0
  6
SLD-實線
 62
     7
100
AcDbLine
 10
2197.328629685953
 20
1761.593499610316
 30
0.0
 11
2199.040764725223
 21
1764.592654461156
 31
0.0
  0
LINE
  5
5E5
330
1F
100
AcDbEntity
  8
0
  6
SLD-實線
 62
     7
100
AcDbLine
 10
2199.154939284936
 20
1764.79265412141
 30
0.0
 11
2203.515278423592
 21
1764.79265412141
 31
0.0
  0
LWPOLYLINE
  5
5E6
330
1F
100
AcDbEntity
  8
0
  6
SLD-實線
 62
     7
100
AcDbPolyline
 90
       10
 70
     0
 43
0.0
 10
2199.040764725223
 20
1764.592654461156
 10
2199.060590720192
 20
1764.627384411286
 10
2199.079815080777
 20
1764.661058241617
 10
2199.097852005079
 20
1764.692654291283
 10
2199.114154806748
 20
1764.721212366711
 10
2199.128228022173
 20
1764.745863543939
 10
2199.13964324297
 20
1764.765859970938
 10
2199.148054017141
 20
1764.780592562746
 10
2199.153205162302
 20
1764.789616147172
 10
2199.154939284936
 20
1764.79265412141
  0
LINE
  5
5E7
330
1F
100
AcDbEntity
  8
0
  6
SLD-實線
 62
     7
100
AcDbLine
 10
2199.154939284936
 20
1764.79265412141
 30
0.0
 11
2195.154938629285
 21
1764.79265412141
 31
0.0
  0
LINE
  5
5E8
330
1F
100
AcDbEntity
  8
0
  6
SLD-實線
 62
     7
100
AcDbLine
 10
2223.269114053264
 20
1764.592654461156
 30
0.0
 11
2224.981249092534
 21
1761.593499610316
 31
0.0
  0
ARC
  5
5E9
330
1F
100
AcDbEntity
  8
0
  6
SLD-實線
 62
     7
100
AcDbCircle
 10
2225.154939389244
 20
1761.692654456686
 30
0.0
 40
0.2000000000000174
100
AcDbArc
 50
209.7208601076868
 51
330.2791398923132
  0
LINE
  5
5EA
330
1F
100
AcDbEntity
  8
0
  6
SLD-實線
 62
     7
100
AcDbLine
 10
2225.328629618898
 20
1761.593499610316
 30
0.0
 11
2227.040765589491
 21
1764.592654461156
 31
0.0
  0
LINE
  5
5EB
330
1F
100
AcDbEntity
  8
0
  6
SLD-實線
 62
     7
100
AcDbLine
 10
2227.154940149203
 20
1764.79265412141
 30
0.0
 11
2231.515278822199
 21
1764.79265412141
 31
0.0
  0
LWPOLYLINE
  5
5EC
330
1F
100
AcDbEntity
  8
0
  6
SLD-實線
 62
     7
100
AcDbPolyline
 90
        9
 70
     0
 43
0.0
 10
2227.040765589491
 20
1764.592654461156
 10
2227.063039100185
 20
1764.63167222042
 10
2227.084457656756
 20
1764.669191481661
 10
2227.104196107402
 20
1764.703768694889
 10
2227.121498218194
 20
1764.734075794112
 10
2227.135697162166
 20
1764.758948626112
 10
2227.146249046937
 20
1764.777430722605
 10
2227.152745953217
 20
1764.788811484467
 10
2227.154940149203
 20
1764.79265412141
  0
LINE
  5
5ED
330
1F
100
AcDbEntity
  8
0
  6
SLD-實線
 62
     7
100
AcDbLine
 10
2218.794600354895
 20
1764.79265412141
 30
0.0
 11
2223.154939493552
 21
1764.79265412141
 31
0.0
  0
LWPOLYLINE
  5
5EE
330
1F
100
AcDbEntity
  8
0
  6
SLD-實線
 62
     7
100
AcDbPolyline
 90
       10
 70
     0
 43
0.0
 10
2223.154939493552
 20
1764.79265412141
 10
2223.156673616186
 20
1764.789616147172
 10
2223.161824761346
 20
1764.780592562746
 10
2223.170235535517
 20
1764.765859970938
 10
2223.181650756314
 20
1764.745863543939
 10
2223.195723971739
 20
1764.721212366711
 10
2223.212026773408
 20
1764.692654291283
 10
2223.230063697711
 20
1764.661058241617
 10
2223.249288058296
 20
1764.627384411286
 10
2223.269114053264
 20
1764.592654461156
  0
LINE
  5
5EF
330
1F
100
AcDbEntity
  8
0
  6
SLD-實線
 62
     7
100
AcDbLine
 10
2227.154940149203
 20
1764.79265412141
 30
0.0
 11
2223.154939493552
 21
1764.79265412141
 31
0.0
  0
ELLIPSE
  5
5F0
330
1F
100
AcDbEntity
  8
0
  6
SLD-實線
 62
     7
100
AcDbEllipse
 10
2203.102498947001
 20
1770.817654456686
 30
0.0
 11
0.0
 21
0.1000000000000227
 31
0.0
210
0.0
220
0.0
230
1.0
 40
0.0468749999998757
 41
0.0670572361361971
 42
3.074535417453592
  0
ARC
  5
5F1
330
1F
100
AcDbEntity
  8
0
  6
SLD-實線
 62
     7
100
AcDbCircle
 10
2202.701385231183
 20
1770.71958026396
 30
0.0
 40
0.4008035558409542
100
AcDbArc
 50
270.1770242670797
 51
359.7566973710044
  0
ELLIPSE
  5
5F2
330
1F
100
AcDbEntity
  8
0
  6
SLD-實線
 62
     7
100
AcDbEllipse
 10
2202.702937677253
 20
1770.817654456686
 30
0.0
 11
0.0
 21
0.5
 31
0.0
210
0.0
220
0.0
230
1.0
 40
0.0093750000000057
 41
0.0670572361360402
 42
3.074535417453754
  0
ARC
  5
5F3
330
1F
100
AcDbEntity
  8
0
  6
SLD-實線
 62
     7
100
AcDbCircle
 10
2202.701384454003
 20
1770.915728159417
 30
0.0
 40
0.4008043283763224
100
AcDbArc
 50
0.2431459823971851
 51
89.82286497417673
  0
LINE
  5
5F4
330
1F
100
AcDbEntity
  8
0
  6
SLD-實線
 62
     7
100
AcDbLine
 10
2202.702623574451
 20
1770.318778621148
 30
0.0
 11
2191.607255271092
 21
1770.318778621148
 31
0.0
  0
ELLIPSE
  5
5F5
330
1F
100
AcDbEntity
  8
0
  6
SLD-實線
 62
     7
100
AcDbEllipse
 10
2191.606941101235
 20
1770.817654456686
 30
0.0
 11
0.0
 21
0.5
 31
0.0
210
0.0
220
0.0
230
1.0
 40
0.0093749999999915
 41
3.208649889725907
 42
6.216128071043432
  0
LINE
  5
5F6
330
1F
100
AcDbEntity
  8
0
  6
SLD-實線
 62
     7
100
AcDbLine
 10
2202.702623574451
 20
1771.316530572366
 30
0.0
 11
2191.607255271092
 21
1771.316530572366
 31
0.0
  0
ARC
  5
5F7
330
1F
100
AcDbEntity
  8
0
  6
SLD-實線
 62
     7
100
AcDbCircle
 10
2191.608494949027
 20
1770.719581600172
 30
0.0
 40
0.4008048961723775
100
AcDbArc
 50
180.2434928309774
 51
269.8227855309512
  0
ELLIPSE
  5
5F8
330
1F
100
AcDbEntity
  8
0
  6
SLD-實線
 62
     7
100
AcDbEllipse
 10
2191.207379831487
 20
1770.817654456686
 30
0.0
 11
0.0
 21
0.1000000000000227
 31
0.0
210
0.0
220
0.0
230
1.0
 40
0.0468749999999467
 41
3.208649889725887
 42
6.216128071043494
  0
ARC
  5
5F9
330
1F
100
AcDbEntity
  8
0
  6
SLD-實線
 62
     7
100
AcDbCircle
 10
2191.608495726218
 20
1770.9157268232
 30
0.0
 40
0.4008056687151293
100
AcDbArc
 50
90.17732522862727
 51
179.7566638147634
  0
LINE
  5
5FA
330
1F
100
AcDbEntity
  8
0
  6
SLD-實線
 62
     7
100
AcDbLine
 10
2191.154939836279
 20
1770.993011461686
 30
0.0
 11
2191.154939836279
 21
1770.992653833818
 31
0.0
  0
LINE
  5
5FB
330
1F
100
AcDbEntity
  8
0
  6
SLD-實線
 62
     7
100
AcDbLine
 10
2191.207693672195
 20
1770.917429046821
 30
0.0
 11
2191.154939836279
 21
1770.993011461686
 31
0.0
  0
LINE
  5
5FC
330
1F
100
AcDbEntity
  8
0
  6
SLD-實線
 62
     7
100
AcDbLine
 10
2191.154939836279
 20
1770.642292143892
 30
0.0
 11
2191.207693672195
 21
1770.717878284048
 31
0.0
  0
LINE
  5
5FD
330
1F
100
AcDbEntity
  8
0
  6
SLD-實線
 62
     7
100
AcDbLine
 10
2191.154939836279
 20
1770.992653833818
 30
0.0
 11
2191.154939836279
 21
1770.642292143892
 31
0.0
  0
LINE
  5
5FE
330
1F
100
AcDbEntity
  8
0
  6
SLD-實線
 62
     7
100
AcDbLine
 10
2203.154939009264
 20
1770.993011461686
 30
0.0
 11
2203.102185173348
 21
1770.917429046821
 31
0.0
  0
LINE
  5
5FF
330
1F
100
AcDbEntity
  8
0
  6
SLD-實線
 62
     7
100
AcDbLine
 10
2203.154939009264
 20
1770.993011461686
 30
0.0
 11
2203.154939009264
 21
1770.992653833818
 31
0.0
  0
LINE
  5
600
330
1F
100
AcDbEntity
  8
0
  6
SLD-實線
 62
     7
100
AcDbLine
 10
2203.154939009264
 20
1770.992653833818
 30
0.0
 11
2203.154939009264
 21
1770.642292143892
 31
0.0
  0
LINE
  5
601
330
1F
100
AcDbEntity
  8
0
  6
SLD-實線
 62
     7
100
AcDbLine
 10
2203.102185173348
 20
1770.717878284048
 30
0.0
 11
2203.154939009264
 21
1770.642292143892
 31
0.0
  0
LINE
  5
602
330
1F
100
AcDbEntity
  8
0
  6
SLD-實線
 62
     7
100
AcDbLine
 10
2202.702623574451
 20
1771.316530572366
 30
0.0
 11
2202.755755527332
 21
1771.392653154325
 31
0.0
  0
SPLINE
  5
603
330
1F
100
AcDbEntity
  8
0
  6
SLD-實線
 62
     7
100
AcDbSpline
210
0.0
220
0.0
230
1.0
 70
     8
 71
     3
 72
    12
 73
     8
 74
     0
 42
0.000000001
 43
0.0000000001
 40
0.0
 40
0.0
 40
0.0
 40
0.0
 40
0.1402381666154779
 40
0.3551629141777136
 40
0.5700662834067253
 40
0.785034871180847
 40
1.0
 40
1.0
 40
1.0
 40
1.0
 10
2203.154939009264
 20
1770.993011461686
 30
0.0
 10
2203.153006877229
 20
1771.022233349925
 30
0.0
 10
2203.148113618419
 20
1771.096239815034
 30
0.0
 10
2203.100468401661
 20
1771.208446358597
 30
0.0
 10
2203.010213205065
 20
1771.310015771896
 30
0.0
 10
2202.890529145138
 20
1771.379138046626
 30
0.0
 10
2202.800679825645
 20
1771.388148142588
 30
0.0
 10
2202.755755527332
 20
1771.392653154325
 30
0.0
  0
LINE
  5
604
330
1F
100
AcDbEntity
  8
0
  6
SLD-實線
 62
     7
100
AcDbLine
 10
2191.607255271092
 20
1770.318778621148
 30
0.0
 11
2191.554121455565
 21
1770.242654176544
 31
0.0
  0
ELLIPSE
  5
605
330
1F
100
AcDbEntity
  8
0
  6
SLD-實線
 62
     7
100
AcDbEllipse
 10
2191.555378601234
 20
1770.643555479363
 30
0.0
 11
-0.2297069282019492
 21
-0.3291016858352691
 31
0.0
210
0.0
220
0.0
230
1.0
 40
0.9966630509586861
 41
5.323340663879779
 42
6.890987517679826
  0
LINE
  5
606
330
1F
100
AcDbEntity
  8
0
  6
SLD-實線
 62
     7
100
AcDbLine
 10
2191.55412331821
 20
1771.392653154325
 30
0.0
 11
2191.607255271092
 21
1771.316530572366
 31
0.0
  0
SPLINE
  5
607
330
1F
100
AcDbEntity
  8
0
  6
SLD-實線
 62
     7
100
AcDbSpline
210
0.0
220
0.0
230
1.0
 70
     8
 71
     3
 72
    12
 73
     8
 74
     0
 42
0.000000001
 43
0.0000000001
 40
0.0
 40
0.0
 40
0.0
 40
0.0
 40
0.1398843413806581
 40
0.3547895989195531
 40
0.5697924307199322
 40
0.7848994303115811
 40
1.0
 40
1.0
 40
1.0
 40
1.0
 10
2191.55412331821
 20
1771.392653154325
 30
0.0
 10
2191.524982821996
 20
1771.390697960098
 30
0.0
 10
2191.451073584821
 20
1771.385738987788
 30
0.0
 10
2191.338938289945
 20
1771.338057877693
 30
0.0
 10
2191.23738897716
 20
1771.247704374252
 30
0.0
 10
2191.16832248159
 20
1771.127902904976
 30
0.0
 10
2191.159400673601
 20
1771.037974828093
 30
0.0
 10
2191.154939836279
 20
1770.993011461686
 30
0.0
  0
ELLIPSE
  5
608
330
1F
100
AcDbEntity
  8
0
  6
SLD-實線
 62
     7
100
AcDbEllipse
 10
2202.754500177253
 20
1770.643555479363
 30
0.0
 11
-0.2297069282019492
 21
0.3291016858352691
 31
0.0
210
0.0
220
0.0
230
1.0
 40
0.9966630509587007
 41
2.533790443089559
 42
4.101437296886757
  0
LINE
  5
609
330
1F
100
AcDbEntity
  8
0
  6
SLD-實線
 62
     7
100
AcDbLine
 10
2202.755756458655
 20
1770.242654176544
 30
0.0
 11
2202.702623574451
 21
1770.318778621148
 31
0.0
  0
LINE
  5
60A
330
1F
100
AcDbEntity
  8
0
  6
SLD-實線
 62
     7
100
AcDbLine
 10
2202.755756458655
 20
1770.242654176544
 30
0.0
 11
2191.554121455565
 21
1770.242654176544
 31
0.0
  0
LINE
  5
60B
330
1F
100
AcDbEntity
  8
0
  6
SLD-實線
 62
     7
100
AcDbLine
 10
2202.754939688757
 20
1771.39265501697
 30
0.0
 11
2191.554939156786
 21
1771.39265501697
 31
0.0
  0
ARC
  5
60C
330
1F
100
AcDbEntity
  8
0
  6
SLD-實線
 62
     7
100
AcDbCircle
 10
2202.754939389244
 20
1770.992654456686
 30
0.0
 40
0.4000000000000069
100
AcDbArc
 50
89.88303240074221
 51
90.0
  0
ARC
  5
60D
330
1F
100
AcDbEntity
  8
0
  6
SLD-實線
 62
     7
100
AcDbCircle
 10
2191.554939389244
 20
1770.992654456686
 30
0.0
 40
0.4000000000000069
100
AcDbArc
 50
90.0
 51
90.11696759925779
  0
LINE
  5
60E
330
1F
100
AcDbEntity
  8
0
  6
SLD-實線
 62
     7
100
AcDbLine
 10
2191.154939836279
 20
1770.642292143892
 30
0.0
 11
2191.154939836279
 21
1770.242654176544
 31
0.0
  0
LINE
  5
60F
330
1F
100
AcDbEntity
  8
0
  6
SLD-實線
 62
     7
100
AcDbLine
 10
2195.90493921788
 20
1768.542655201744
 30
0.0
 11
2195.90493921788
 21
1766.142653690766
 31
0.0
  0
LINE
  5
610
330
1F
100
AcDbEntity
  8
0
  6
SLD-實線
 62
     7
100
AcDbLine
 10
2198.404939627662
 20
1766.142653690766
 30
0.0
 11
2198.404939627662
 21
1768.542655201744
 31
0.0
  0
LINE
  5
611
330
1F
100
AcDbEntity
  8
0
  6
SLD-實線
 62
     7
100
AcDbLine
 10
2198.404939627662
 20
1768.542655201744
 30
0.0
 11
2195.90493921788
 21
1768.542655201744
 31
0.0
  0
LINE
  5
612
330
1F
100
AcDbEntity
  8
0
  6
SLD-實線
 62
     7
100
AcDbLine
 10
2199.904938942209
 20
1766.142653690766
 30
0.0
 11
2198.404939627662
 21
1766.142653690766
 31
0.0
  0
LINE
  5
613
330
1F
100
AcDbEntity
  8
0
  6
SLD-實線
 62
     7
100
AcDbLine
 10
2203.154939009264
 20
1770.642292143892
 30
0.0
 11
2203.154939009264
 21
1770.242654176544
 31
0.0
  0
LINE
  5
614
330
1F
100
AcDbEntity
  8
0
  6
SLD-實線
 62
     7
100
AcDbLine
 10
2195.90493921788
 20
1766.142653690766
 30
0.0
 11
2194.404938972011
 21
1766.142653690766
 31
0.0
  0
LINE
  5
615
330
1F
100
AcDbEntity
  8
0
  6
SLD-實線
 62
     7
100
AcDbLine
 10
2194.404938972011
 20
1766.142653690766
 30
0.0
 11
2195.187939113393
 21
1764.79265412141
 31
0.0
  0
LINE
  5
616
330
1F
100
AcDbEntity
  8
0
  6
SLD-實線
 62
     7
100
AcDbLine
 10
2199.121939732149
 20
1764.79265412141
 30
0.0
 11
2199.904938942209
 21
1766.142653690766
 31
0.0
  0
LINE
  5
617
330
1F
100
AcDbEntity
  8
0
  6
SLD-實線
 62
     7
100
AcDbLine
 10
2203.529546751097
 20
1770.242654176544
 30
0.0
 11
2203.154939009264
 21
1770.242654176544
 31
0.0
  0
LINE
  5
618
330
1F
100
AcDbEntity
  8
0
  6
SLD-實線
 62
     7
100
AcDbLine
 10
2191.154939836279
 20
1770.242654176544
 30
0.0
 11
2190.780332094446
 21
1770.242654176544
 31
0.0
  0
ELLIPSE
  5
619
330
1F
100
AcDbEntity
  8
0
  6
SLD-實線
 62
     7
100
AcDbEllipse
 10
2231.102498947
 20
1770.817654456686
 30
0.0
 11
0.0
 21
0.1000000000000227
 31
0.0
210
0.0
220
0.0
230
1.0
 40
0.0468749999998757
 41
0.0670572361361971
 42
3.074535417453592
  0
ARC
  5
61A
330
1F
100
AcDbEntity
  8
0
  6
SLD-實線
 62
     7
100
AcDbCircle
 10
2230.70138382946
 20
1770.719581600172
 30
0.0
 40
0.4008048961723917
100
AcDbArc
 50
270.1772144690488
 51
359.7565071690226
  0
ELLIPSE
  5
61B
330
1F
100
AcDbEntity
  8
0
  6
SLD-實線
 62
     7
100
AcDbEllipse
 10
2230.702937677253
 20
1770.817654456686
 30
0.0
 11
0.0
 21
0.5
 31
0.0
210
0.0
220
0.0
230
1.0
 40
0.0093750000000057
 41
0.0670572361360402
 42
3.074535417453754
  0
ARC
  5
61C
330
1F
100
AcDbEntity
  8
0
  6
SLD-實線
 62
     7
100
AcDbCircle
 10
2230.70138305227
 20
1770.9157268232
 30
0.0
 40
0.4008056687151561
100
AcDbArc
 50
0.243336185236631
 51
89.82267477137273
  0
ELLIPSE
  5
61D
330
1F
100
AcDbEntity
  8
0
  6
SLD-實線
 62
     7
100
AcDbEllipse
 10
2219.606941101235
 20
1770.817654456686
 30
0.0
 11
0.0
 21
0.5
 31
0.0
210
0.0
220
0.0
230
1.0
 40
0.0093750000000057
 41
3.208649889725805
 42
6.216128071043534
  0
ARC
  5
61E
330
1F
100
AcDbEntity
  8
0
  6
SLD-實線
 62
     7
100
AcDbCircle
 10
2219.608493547305
 20
1770.71958026396
 30
0.0
 40
0.4008035558409542
100
AcDbArc
 50
180.2433026289956
 51
269.8229757329203
  0
ELLIPSE
  5
61F
330
1F
100
AcDbEntity
  8
0
  6
SLD-實線
 62
     7
100
AcDbEllipse
 10
2219.207379831487
 20
1770.817654456686
 30
0.0
 11
0.0
 21
0.1000000000000227
 31
0.0
210
0.0
220
0.0
230
1.0
 40
0.0468749999998757
 41
3.208649889725988
 42
6.216128071043392
  0
ARC
  5
620
330
1F
100
AcDbEntity
  8
0
  6
SLD-實線
 62
     7
100
AcDbCircle
 10
2219.608494324484
 20
1770.915728159417
 30
0.0
 40
0.4008043283763223
100
AcDbArc
 50
90.1771350258233
 51
179.7568540176028
  0
LINE
  5
621
330
1F
100
AcDbEntity
  8
0
  6
SLD-實線
 62
     7
100
AcDbLine
 10
2230.702623507395
 20
1770.318778621148
 30
0.0
 11
2219.607255204037
 21
1770.318778621148
 31
0.0
  0
LINE
  5
622
330
1F
100
AcDbEntity
  8
0
  6
SLD-實線
 62
     7
100
AcDbLine
 10
2230.702623507395
 20
1771.316530572366
 30
0.0
 11
2219.607255204037
 21
1771.316530572366
 31
0.0
  0
LINE
  5
623
330
1F
100
AcDbEntity
  8
0
  6
SLD-實線
 62
     7
100
AcDbLine
 10
2231.154938942209
 20
1770.993011461686
 30
0.0
 11
2231.102185106292
 21
1770.917429046821
 31
0.0
  0
LINE
  5
624
330
1F
100
AcDbEntity
  8
0
  6
SLD-實線
 62
     7
100
AcDbLine
 10
2231.154938942209
 20
1770.993011461686
 30
0.0
 11
2231.154938942209
 21
1770.992653833818
 31
0.0
  0
LINE
  5
625
330
1F
100
AcDbEntity
  8
0
  6
SLD-實線
 62
     7
100
AcDbLine
 10
2231.154938942209
 20
1770.992653833818
 30
0.0
 11
2231.154938942209
 21
1770.642292143892
 31
0.0
  0
LINE
  5
626
330
1F
100
AcDbEntity
  8
0
  6
SLD-實線
 62
     7
100
AcDbLine
 10
2231.102185106292
 20
1770.717878284048
 30
0.0
 11
2231.154938942209
 21
1770.642292143892
 31
0.0
  0
LINE
  5
627
330
1F
100
AcDbEntity
  8
0
  6
SLD-實線
 62
     7
100
AcDbLine
 10
2219.154939769223
 20
1770.993011461686
 30
0.0
 11
2219.154939769223
 21
1770.992653833818
 31
0.0
  0
LINE
  5
628
330
1F
100
AcDbEntity
  8
0
  6
SLD-實線
 62
     7
100
AcDbLine
 10
2219.20769360514
 20
1770.917429046821
 30
0.0
 11
2219.154939769223
 21
1770.993011461686
 31
0.0
  0
LINE
  5
629
330
1F
100
AcDbEntity
  8
0
  6
SLD-實線
 62
     7
100
AcDbLine
 10
2219.154939769223
 20
1770.642292143892
 30
0.0
 11
2219.20769360514
 21
1770.717878284048
 31
0.0
  0
LINE
  5
62A
330
1F
100
AcDbEntity
  8
0
  6
SLD-實線
 62
     7
100
AcDbLine
 10
2219.154939769223
 20
1770.992653833818
 30
0.0
 11
2219.154939769223
 21
1770.642292143892
 31
0.0
  0
LINE
  5
62B
330
1F
100
AcDbEntity
  8
0
  6
SLD-實線
 62
     7
100
AcDbLine
 10
2219.554123251155
 20
1771.392653154325
 30
0.0
 11
2219.607255204037
 21
1771.316530572366
 31
0.0
  0
SPLINE
  5
62C
330
1F
100
AcDbEntity
  8
0
  6
SLD-實線
 62
     7
100
AcDbSpline
210
0.0
220
0.0
230
1.0
 70
     8
 71
     3
 72
    12
 73
     8
 74
     0
 42
0.000000001
 43
0.0000000001
 40
0.0
 40
0.0
 40
0.0
 40
0.0
 40
0.1398843157550623
 40
0.3547909135109662
 40
0.5697937059246949
 40
0.7848992180863062
 40
1.0
 40
1.0
 40
1.0
 40
1.0
 10
2219.554123251155
 20
1771.392653154325
 30
0.0
 10
2219.524982757238
 20
1771.390697938898
 30
0.0
 10
2219.451073238495
 20
1771.385738893537
 30
0.0
 10
2219.338937635801
 20
1771.338058084258
 30
0.0
 10
2219.23738761146
 20
1771.247704865269
 30
0.0
 10
2219.168323984995
 20
1771.127902262374
 30
0.0
 10
2219.159401141778
 20
1771.037974732322
 30
0.0
 10
2219.154939769223
 20
1770.993011461686
 30
0.0
  0
LINE
  5
62D
330
1F
100
AcDbEntity
  8
0
  6
SLD-實線
 62
     7
100
AcDbLine
 10
2219.607255204037
 20
1770.318778621148
 30
0.0
 11
2219.554122319832
 21
1770.242654176544
 31
0.0
  0
ELLIPSE
  5
62E
330
1F
100
AcDbEntity
  8
0
  6
SLD-實線
 62
     7
100
AcDbEllipse
 10
2219.555378601235
 20
1770.643555479363
 30
0.0
 11
-0.2297069282019492
 21
-0.3291016858352691
 31
0.0
210
0.0
220
0.0
230
1.0
 40
0.9966630509587007
 41
5.323340663879786
 42
6.890987517679819
  0
LINE
  5
62F
330
1F
100
AcDbEntity
  8
0
  6
SLD-實線
 62
     7
100
AcDbLine
 10
2230.702623507395
 20
1771.316530572366
 30
0.0
 11
2230.755755460277
 21
1771.392653154325
 31
0.0
  0
SPLINE
  5
630
330
1F
100
AcDbEntity
  8
0
  6
SLD-實線
 62
     7
100
AcDbSpline
210
0.0
220
0.0
230
1.0
 70
     8
 71
     3
 72
    12
 73
     8
 74
     0
 42
0.000000001
 43
0.0000000001
 40
0.0
 40
0.0
 40
0.0
 40
0.0
 40
0.1402380837536521
 40
0.3551621390892658
 40
0.5700663712799865
 40
0.7850335289196879
 40
1.0
 40
1.0
 40
1.0
 40
1.0
 10
2231.154938942209
 20
1770.993011461686
 30
0.0
 10
2231.153006756966
 20
1771.022233322983
 30
0.0
 10
2231.148113371192
 20
1771.096239602081
 30
0.0
 10
2231.100469609269
 20
1771.208446962274
 30
0.0
 10
2231.01021315392
 20
1771.310015122411
 30
0.0
 10
2230.890529620298
 20
1771.379138458442
 30
0.0
 10
2230.800680132457
 20
1771.388148260493
 30
0.0
 10
2230.755755460277
 20
1771.392653154325
 30
0.0
  0
ELLIPSE
  5
631
330
1F
100
AcDbEntity
  8
0
  6
SLD-實線
 62
     7
100
AcDbEllipse
 10
2230.754500177253
 20
1770.643555479363
 30
0.0
 11
-0.2297069282019635
 21
0.3291016858352691
 31
0.0
210
0.0
220
0.0
230
1.0
 40
0.9966630509586513
 41
2.533790443089507
 42
4.10143729688675
  0
LINE
  5
632
330
1F
100
AcDbEntity
  8
0
  6
SLD-實線
 62
     7
100
AcDbLine
 10
2230.755757322922
 20
1770.242654176544
 30
0.0
 11
2230.702623507395
 21
1770.318778621148
 31
0.0
  0
LINE
  5
633
330
1F
100
AcDbEntity
  8
0
  6
SLD-實線
 62
     7
100
AcDbLine
 10
2230.754939621702
 20
1771.39265501697
 30
0.0
 11
2219.55493908973
 21
1771.39265501697
 31
0.0
  0
ARC
  5
634
330
1F
100
AcDbEntity
  8
0
  6
SLD-實線
 62
     7
100
AcDbCircle
 10
2230.754939389244
 20
1770.992654456686
 30
0.0
 40
0.4000000000000069
100
AcDbArc
 50
89.88303240074221
 51
90.0
  0
ARC
  5
635
330
1F
100
AcDbEntity
  8
0
  6
SLD-實線
 62
     7
100
AcDbCircle
 10
2219.554939389244
 20
1770.992654456686
 30
0.0
 40
0.4000000000000069
100
AcDbArc
 50
90.0
 51
90.11696759925779
  0
LINE
  5
636
330
1F
100
AcDbEntity
  8
0
  6
SLD-實線
 62
     7
100
AcDbLine
 10
2230.755757322922
 20
1770.242654176544
 30
0.0
 11
2219.554122319832
 21
1770.242654176544
 31
0.0
  0
LINE
  5
637
330
1F
100
AcDbEntity
  8
0
  6
SLD-實線
 62
     7
100
AcDbLine
 10
2226.404939560607
 20
1766.142653690766
 30
0.0
 11
2226.404939560607
 21
1768.542655201744
 31
0.0
  0
LINE
  5
638
330
1F
100
AcDbEntity
  8
0
  6
SLD-實線
 62
     7
100
AcDbLine
 10
2226.404939560607
 20
1768.542655201744
 30
0.0
 11
2223.904939150825
 21
1768.542655201744
 31
0.0
  0
LINE
  5
639
330
1F
100
AcDbEntity
  8
0
  6
SLD-實線
 62
     7
100
AcDbLine
 10
2223.904939150825
 20
1766.142653690766
 30
0.0
 11
2222.404939836279
 21
1766.142653690766
 31
0.0
  0
LINE
  5
63A
330
1F
100
AcDbEntity
  8
0
  6
SLD-實線
 62
     7
100
AcDbLine
 10
2223.904939150825
 20
1768.542655201744
 30
0.0
 11
2223.904939150825
 21
1766.142653690766
 31
0.0
  0
LINE
  5
63B
330
1F
100
AcDbEntity
  8
0
  6
SLD-實線
 62
     7
100
AcDbLine
 10
2222.404939836279
 20
1766.142653690766
 30
0.0
 11
2223.187939046338
 21
1764.79265412141
 31
0.0
  0
LINE
  5
63C
330
1F
100
AcDbEntity
  8
0
  6
SLD-實線
 62
     7
100
AcDbLine
 10
2231.154938942209
 20
1770.642292143892
 30
0.0
 11
2231.154938942209
 21
1770.242654176544
 31
0.0
  0
LINE
  5
63D
330
1F
100
AcDbEntity
  8
0
  6
SLD-實線
 62
     7
100
AcDbLine
 10
2227.121939665094
 20
1764.79265412141
 30
0.0
 11
2227.904939806476
 21
1766.142653690766
 31
0.0
  0
LINE
  5
63E
330
1F
100
AcDbEntity
  8
0
  6
SLD-實線
 62
     7
100
AcDbLine
 10
2227.904939806476
 20
1766.142653690766
 30
0.0
 11
2226.404939560607
 21
1766.142653690766
 31
0.0
  0
LINE
  5
63F
330
1F
100
AcDbEntity
  8
0
  6
SLD-實線
 62
     7
100
AcDbLine
 10
2219.154939769223
 20
1770.642292143892
 30
0.0
 11
2219.154939769223
 21
1770.242654176544
 31
0.0
  0
LINE
  5
640
330
1F
100
AcDbEntity
  8
0
  6
SLD-實線
 62
     7
100
AcDbLine
 10
2231.529546684042
 20
1770.242654176544
 30
0.0
 11
2231.154938942209
 21
1770.242654176544
 31
0.0
  0
LINE
  5
641
330
1F
100
AcDbEntity
  8
0
  6
SLD-實線
 62
     7
100
AcDbLine
 10
2219.154939769223
 20
1770.242654176544
 30
0.0
 11
2218.780332027391
 21
1770.242654176544
 31
0.0
  0
SPLINE
  5
642
330
1F
100
AcDbEntity
  8
0
  6
SLD-實線
 62
     7
100
AcDbSpline
210
0.0
220
0.0
230
1.0
 70
     8
 71
     3
 72
     9
 73
     5
 74
     0
 42
0.000000001
 43
0.0000000001
 40
0.0
 40
0.0
 40
0.0
 40
0.0
 40
0.500957116691949
 40
1.0
 40
1.0
 40
1.0
 40
1.0
 10
2183.067334598318
 20
1770.501381175708
 30
0.0
 10
2183.078209183171
 20
1770.614525225895
 30
0.0
 10
2183.099916799433
 20
1770.840380985635
 30
0.0
 10
2183.226931603182
 20
1771.028367154912
 30
0.0
 10
2183.290317437068
 20
1771.12218031485
 30
0.0
  0
LWPOLYLINE
  5
643
330
1F
100
AcDbEntity
  8
0
  6
SLD-實線
 62
     7
100
AcDbPolyline
 90
        4
 70
     0
 43
0.0
 10
2183.067334598318
 20
1770.501381175708
 10
2183.013330927506
 20
1764.313131028902
 10
2182.959181970373
 20
1758.10834059317
 10
2182.904939880982
 20
1751.892654381808
  0
LINE
  5
644
330
1F
100
AcDbEntity
  8
0
  6
SLD-實線
 62
     7
100
AcDbLine
 10
2182.904939880982
 20
1751.892654381808
 30
0.0
 11
2181.154940059796
 21
1751.892654381808
 31
0.0
  0
LINE
  5
645
330
1F
100
AcDbEntity
  8
0
  6
SLD-實線
 62
     7
100
AcDbLine
 10
2181.154940059796
 20
1751.892654381808
 30
0.0
 11
2181.544113686696
 21
1774.188397841643
 31
0.0
  0
SPLINE
  5
646
330
1F
100
AcDbEntity
  8
0
  6
SLD-實線
 62
     7
100
AcDbSpline
210
0.0
220
0.0
230
1.0
 70
     8
 71
     3
 72
    15
 73
    11
 74
     0
 42
0.000000001
 43
0.0000000001
 40
0.0
 40
0.0
 40
0.0
 40
0.0
 40
0.0597216887716392
 40
0.2369310019743145
 40
0.4514154981261284
 40
0.4999744799200868
 40
0.5421492066733439
 40
0.712274252379202
 40
0.9267587956454404
 40
1.0
 40
1.0
 40
1.0
 40
1.0
 10
2183.343838682786
 20
1774.188397841643
 30
0.0
 10
2183.287748111967
 20
1774.189387962607
 30
0.0
 10
2183.065222670725
 20
1774.19331602219
 30
0.0
 10
2182.647128823146
 20
1774.199085165064
 30
0.0
 10
2182.28492565961
 20
1774.201715169705
 30
0.0
 10
2182.074635504192
 20
1774.202014441108
 30
0.0
 10
2181.907019450241
 20
1774.201789395837
 30
0.0
 10
2181.683412151473
 20
1774.19973251208
 30
0.0
 10
2181.556165094805
 20
1774.194318348046
 30
0.0
 10
2181.546558951115
 20
1774.189599128955
 30
0.0
 10
2181.544113686696
 20
1774.188397841643
 30
0.0
  0
LINE
  5
647
330
1F
100
AcDbEntity
  8
0
  6
SLD-實線
 62
     7
100
AcDbLine
 10
2183.343838682786
 20
1774.188388528418
 30
0.0
 11
2183.290317437068
 21
1771.12218031485
 31
0.0
  0
LWPOLYLINE
  5
648
330
1F
100
AcDbEntity
  8
0
  6
SLD-實線
 62
     7
100
AcDbPolyline
 90
        4
 70
     0
 43
0.0
 10
2239.404938897505
 20
1751.892654381808
 10
2239.350696808115
 20
1758.10834059317
 10
2239.296547850981
 20
1764.313131028902
 10
2239.24254418017
 20
1770.501381175708
  0
SPLINE
  5
649
330
1F
100
AcDbEntity
  8
0
  6
SLD-實線
 62
     7
100
AcDbSpline
210
0.0
220
0.0
230
1.0
 70
     8
 71
     3
 72
     9
 73
     5
 74
     0
 42
0.000000001
 43
0.0000000001
 40
0.0
 40
0.0
 40
0.0
 40
0.0
 40
0.5011074806282986
 40
1.0
 40
1.0
 40
1.0
 40
1.0
 10
2239.01956134142
 20
1771.12218031485
 30
0.0
 10
2239.083179506528
 20
1771.027947437491
 30
0.0
 10
2239.210134636052
 20
1770.83989820454
 30
0.0
 10
2239.231756963003
 20
1770.614053439517
 30
0.0
 10
2239.24254418017
 20
1770.501381175708
 30
0.0
  0
LINE
  5
64A
330
1F
100
AcDbEntity
  8
0
  6
SLD-實線
 62
     7
100
AcDbLine
 10
2239.01956134142
 20
1771.12218031485
 30
0.0
 11
2238.966040095702
 21
1774.188397841643
 31
0.0
  0
SPLINE
  5
64B
330
1F
100
AcDbEntity
  8
0
  6
SLD-實線
 62
     7
100
AcDbSpline
210
0.0
220
0.0
230
1.0
 70
     8
 71
     3
 72
    15
 73
    11
 74
     0
 42
0.000000001
 43
0.0000000001
 40
0.0
 40
0.0
 40
0.0
 40
0.0
 40
0.059721693324838
 40
0.2369303769424696
 40
0.4514154561361219
 40
0.4999735074927669
 40
0.5421491717666669
 40
0.7122742304429077
 40
0.9267587900615097
 40
0.9999999999999998
 40
0.9999999999999998
 40
0.9999999999999998
 40
0.9999999999999998
 10
2240.765765091792
 20
1774.188397841643
 30
0.0
 10
2240.764123725128
 20
1774.189387962155
 30
0.0
 10
2240.757612027273
 20
1774.193316009287
 30
0.0
 10
2240.655424310481
 20
1774.199085193014
 30
0.0
 10
2240.438816898272
 20
1774.201715161637
 30
0.0
 10
2240.243731301135
 20
1774.202014441146
 30
0.0
 10
2240.064787335498
 20
1774.201789400249
 30
0.0
 10
2239.726859065318
 20
1774.199732512127
 30
0.0
 10
2239.305022491032
 20
1774.194318348042
 30
0.0
 10
2239.034820572012
 20
1774.189599128954
 30
0.0
 10
2238.966040095702
 20
1774.188397841643
 30
0.0
  0
LINE
  5
64C
330
1F
100
AcDbEntity
  8
0
  6
SLD-實線
 62
     7
100
AcDbLine
 10
2240.765765091792
 20
1774.188388528418
 30
0.0
 11
2241.154938718691
 21
1751.892654381808
 31
0.0
  0
LINE
  5
64D
330
1F
100
AcDbEntity
  8
0
  6
SLD-實線
 62
     7
100
AcDbLine
 10
2241.154938718691
 20
1751.892654381808
 30
0.0
 11
2239.404938897505
 21
1751.892654381808
 31
0.0
  0
SPLINE
  5
64E
330
1F
100
AcDbEntity
  8
0
  6
SLD-實線
 62
     7
100
AcDbSpline
210
0.0
220
0.0
230
1.0
 70
     8
 71
     3
 72
    11
 73
     7
 74
     0
 42
0.000000001
 43
0.0000000001
 40
0.0
 40
0.0
 40
0.0
 40
0.0
 40
0.2500012321334509
 40
0.5000003609944401
 40
0.7499975864882047
 40
1.0
 40
1.0
 40
1.0
 40
1.0
 10
2238.966040095702
 20
1774.188394116353
 30
0.0
 10
2238.965742638321
 20
1774.220733360516
 30
0.0
 10
2238.965147726061
 20
1774.285411576771
 30
0.0
 10
2238.964256351874
 20
1774.37812587828
 30
0.0
 10
2238.963360968512
 20
1774.464362911265
 30
0.0
 10
2238.96276659486
 20
1774.512322606289
 30
0.0
 10
2238.962469404951
 20
1774.536302702617
 30
0.0
  0
SPLINE
  5
64F
330
1F
100
AcDbEntity
  8
0
  6
SLD-實線
 62
     7
100
AcDbSpline
210
0.0
220
0.0
230
1.0
 70
     8
 71
     3
 72
    17
 73
    13
 74
     0
 42
0.000000001
 43
0.0000000001
 40
0.0
 40
0.0
 40
0.0
 40
0.0
 40
0.0000237473381551
 40
0.0723174874031867
 40
0.2872057855475472
 40
0.4577355620620386
 40
0.5000269707407856
 40
0.5487157020229573
 40
0.7637499402753836
 40
0.9412335191850226
 40
0.9999769716076482
 40
1.0
 40
1.0
 40
1.0
 40
1.0
 10
2238.962469404951
 20
1774.536315741133
 30
0.0
 10
2238.962489894047
 20
1774.536316362067
 30
0.0
 10
2239.024885094029
 20
1774.538207287314
 30
0.0
 10
2239.272799340811
 20
1774.539856606549
 30
0.0
 10
2239.660518366783
 20
1774.546075374504
 30
0.0
 10
2239.971886558556
 20
1774.54734343279
 30
0.0
 10
2240.136771554823
 20
1774.54756419904
 30
0.0
 10
2240.316433288082
 20
1774.547269600182
 30
0.0
 10
2240.516769064349
 20
1774.545676180686
 30
0.0
 10
2240.606922116092
 20
1774.539212105453
 30
0.0
 10
2240.616267633278
 20
1774.537900963311
 30
0.0
 10
2240.616267329588
 20
1774.536316362079
 30
0.0
 10
2240.616267329469
 20
1774.536315741133
 30
0.0
  0
SPLINE
  5
650
330
1F
100
AcDbEntity
  8
0
  6
SLD-實線
 62
     7
100
AcDbSpline
210
0.0
220
0.0
230
1.0
 70
     8
 71
     3
 72
    11
 73
     7
 74
     0
 42
0.000000001
 43
0.0000000001
 40
0.0
 40
0.0
 40
0.0
 40
0.0
 40
0.2500012321334509
 40
0.5000003609944401
 40
0.7499975864882047
 40
1.0
 40
1.0
 40
1.0
 40
1.0
 10
2240.765765091792
 20
1774.188394116353
 30
0.0
 10
2240.763393985332
 20
1774.220733360516
 30
0.0
 10
2240.758651792361
 20
1774.285411576771
 30
0.0
 10
2240.727744661047
 20
1774.37812587828
 30
0.0
 10
2240.681762439208
 20
1774.464362911265
 30
0.0
 10
2240.638109117806
 20
1774.512322606289
 30
0.0
 10
2240.616282230631
 20
1774.536302702617
 30
0.0
  0
SPLINE
  5
651
330
1F
100
AcDbEntity
  8
0
  6
SLD-實線
 62
     7
100
AcDbSpline
210
0.0
220
0.0
230
1.0
 70
     8
 71
     3
 72
    11
 73
     7
 74
     0
 42
0.000000001
 43
0.0000000001
 40
0.0
 40
0.0
 40
0.0
 40
0.0
 40
0.2500012321334509
 40
0.5000003609944401
 40
0.7499975864882047
 40
1.0
 40
1.0
 40
1.0
 40
1.0
 10
2181.544113686696
 20
1774.188394116353
 30
0.0
 10
2181.546484793155
 20
1774.220733360516
 30
0.0
 10
2181.551226986126
 20
1774.285411576771
 30
0.0
 10
2181.582134117441
 20
1774.37812587828
 30
0.0
 10
2181.62811633928
 20
1774.464362911265
 30
0.0
 10
2181.671769660681
 20
1774.512322606289
 30
0.0
 10
2181.693596547857
 20
1774.536302702617
 30
0.0
  0
SPLINE
  5
652
330
1F
100
AcDbEntity
  8
0
  6
SLD-實線
 62
     7
100
AcDbSpline
210
0.0
220
0.0
230
1.0
 70
     8
 71
     3
 72
    17
 73
    13
 74
     0
 42
0.000000001
 43
0.0000000001
 40
0.0
 40
0.0
 40
0.0
 40
0.0
 40
0.0000230283903041
 40
0.0723174800780984
 40
0.2872057591158668
 40
0.4577355204678627
 40
0.5000269253863086
 40
0.5487151247122617
 40
0.7637499607752558
 40
0.9412335239041084
 40
0.9999762526639562
 40
1.0
 40
1.0
 40
1.0
 40
1.0
 10
2181.693611449018
 20
1774.536315741133
 30
0.0
 10
2181.6936114489
 20
1774.536316362067
 30
0.0
 10
2181.693611077037
 20
1774.538266322117
 30
0.0
 10
2181.707523140243
 20
1774.539771477177
 30
0.0
 10
2181.819800945939
 20
1774.54610121825
 30
0.0
 10
2182.026573257899
 20
1774.547342316693
 30
0.0
 10
2182.180923370145
 20
1774.547564204692
 30
0.0
 10
2182.374716492994
 20
1774.547271254509
 30
0.0
 10
2182.7084983313
 20
1774.545642922422
 30
0.0
 10
2183.092719807972
 20
1774.539281951902
 30
0.0
 10
2183.296685432813
 20
1774.537852989544
 30
0.0
 10
2183.347388884442
 20
1774.536316362079
 30
0.0
 10
2183.347409373537
 20
1774.536315741133
 30
0.0
  0
SPLINE
  5
653
330
1F
100
AcDbEntity
  8
0
  6
SLD-實線
 62
     7
100
AcDbSpline
210
0.0
220
0.0
230
1.0
 70
     8
 71
     3
 72
    11
 73
     7
 74
     0
 42
0.000000001
 43
0.0000000001
 40
0.0
 40
0.0
 40
0.0
 40
0.0
 40
0.2500012321334509
 40
0.5000003609944401
 40
0.7499975864882047
 40
1.0
 40
1.0
 40
1.0
 40
1.0
 10
2183.343838682786
 20
1774.188394116353
 30
0.0
 10
2183.344136140167
 20
1774.220733360516
 30
0.0
 10
2183.344731052426
 20
1774.285411576771
 30
0.0
 10
2183.345622426613
 20
1774.37812587828
 30
0.0
 10
2183.346517809976
 20
1774.464362911265
 30
0.0
 10
2183.347112183628
 20
1774.512322606289
 30
0.0
 10
2183.347409373537
 20
1774.536302702617
 30
0.0
  0
LINE
  5
654
330
1F
100
AcDbEntity
  8
0
  6
SLD-實線
 62
     7
100
AcDbLine
 10
2189.17205908002
 20
1771.492654847097
 30
0.0
 11
2184.067297509328
 21
1771.492654847097
 31
0.0
  0
LINE
  5
655
330
1F
100
AcDbEntity
  8
0
  6
SLD-實線
 62
     7
100
AcDbLine
 10
2188.496792471424
 20
1774.188388528418
 30
0.0
 11
2183.343838682786
 21
1774.188388528418
 31
0.0
  0
LINE
  5
656
330
1F
100
AcDbEntity
  8
0
  6
SLD-實線
 62
     7
100
AcDbLine
 10
2189.17205908002
 20
1771.492654847097
 30
0.0
 11
2188.496792471424
 21
1774.188388528418
 31
0.0
  0
ARC
  5
657
330
1F
100
AcDbEntity
  8
0
  6
SLD-實線
 62
     7
100
AcDbCircle
 10
2184.067297208537
 20
1770.492654456686
 30
0.0
 40
1.0
100
AcDbArc
 50
90.0
 51
140.9848327495141
  0
LINE
  5
658
330
1F
100
AcDbEntity
  8
0
  6
SLD-實線
 62
     7
100
AcDbLine
 10
2238.24258126916
 20
1771.492654847097
 30
0.0
 11
2233.137819698468
 21
1771.492654847097
 31
0.0
  0
LINE
  5
659
330
1F
100
AcDbEntity
  8
0
  6
SLD-實線
 62
     7
100
AcDbLine
 10
2233.813086307064
 20
1774.188388528418
 30
0.0
 11
2233.137819698468
 21
1771.492654847097
 31
0.0
  0
LINE
  5
65A
330
1F
100
AcDbEntity
  8
0
  6
SLD-實線
 62
     7
100
AcDbLine
 10
2238.966040095702
 20
1774.188388528418
 30
0.0
 11
2233.813086307064
 21
1774.188388528418
 31
0.0
  0
ARC
  5
65B
330
1F
100
AcDbEntity
  8
0
  6
SLD-實線
 62
     7
100
AcDbCircle
 10
2238.24258156995
 20
1770.492654456686
 30
0.0
 40
1.0
100
AcDbArc
 50
39.01516725048591
 51
90.0
  0
LINE
  5
65C
330
1F
100
AcDbEntity
  8
0
  6
SLD-實線
 62
     7
100
AcDbLine
 10
2233.137819698468
 20
1771.492654847097
 30
0.0
 11
2231.479938855782
 21
1771.492654847097
 31
0.0
  0
LINE
  5
65D
330
1F
100
AcDbEntity
  8
0
  6
SLD-實線
 62
     7
100
AcDbLine
 10
2231.479938855782
 20
1775.126729549955
 30
0.0
 11
2231.479938855782
 21
1771.492654847097
 31
0.0
  0
LINE
  5
65E
330
1F
100
AcDbEntity
  8
0
  6
SLD-實線
 62
     7
100
AcDbLine
 10
2230.065725526229
 20
1776.092654483508
 30
0.0
 11
2231.479938855782
 21
1775.126729549955
 31
0.0
  0
LINE
  5
65F
330
1F
100
AcDbEntity
  8
0
  6
SLD-實線
 62
     7
100
AcDbLine
 10
2230.065725526229
 20
1776.092654483508
 30
0.0
 11
2232.385538300887
 21
1776.092654483508
 31
0.0
  0
ELLIPSE
  5
660
330
1F
100
AcDbEntity
  8
0
  6
SLD-實線
 62
     7
100
AcDbEllipse
 10
2232.251563133317
 20
1775.592654456686
 30
0.0
 11
0.4300719524105718
 21
0.3762957911191052
 31
0.0
210
0.0
220
0.0
230
1.0
 40
0.7655551466074046
 41
6.225321181281792
 42
7.001992698419108
  0
LINE
  5
661
330
1F
100
AcDbEntity
  8
0
  6
SLD-實線
 62
     7
100
AcDbLine
 10
2233.756836286202
 20
1774.536287801456
 30
0.0
 11
2232.697576066867
 21
1775.949279235791
 31
0.0
  0
ELLIPSE
  5
662
330
1F
100
AcDbEntity
  8
0
  6
SLD-實線
 62
     7
100
AcDbEllipse
 10
2233.310823812432
 20
1774.179662925766
 30
0.0
 11
0.4300719524105715
 21
0.3762957911191335
 31
0.0
210
0.0
220
0.0
230
1.0
 40
0.7655551466074332
 41
5.448649664144291
 42
6.225321181281745
  0
ELLIPSE
  5
663
330
1F
100
AcDbEntity
  8
0
  6
SLD-實線
 62
     7
100
AcDbEllipse
 10
2190.058315645171
 20
1775.592654456686
 30
0.0
 11
0.4300719524105646
 21
-0.3762957911191336
 31
0.0
210
0.0
220
0.0
230
1.0
 40
0.7655551466074032
 41
2.422785262350318
 42
3.199456779487645
  0
LINE
  5
664
330
1F
100
AcDbEntity
  8
0
  6
SLD-實線
 62
     7
100
AcDbLine
 10
2189.924340477601
 20
1776.092654483508
 30
0.0
 11
2192.244153252259
 21
1776.092654483508
 31
0.0
  0
LINE
  5
665
330
1F
100
AcDbEntity
  8
0
  6
SLD-實線
 62
     7
100
AcDbLine
 10
2190.829939922705
 20
1775.126729549955
 30
0.0
 11
2192.244153252259
 21
1776.092654483508
 31
0.0
  0
LINE
  5
666
330
1F
100
AcDbEntity
  8
0
  6
SLD-實線
 62
     7
100
AcDbLine
 10
2190.829939922705
 20
1771.492654847097
 30
0.0
 11
2190.829939922705
 21
1775.126729549955
 31
0.0
  0
LINE
  5
667
330
1F
100
AcDbEntity
  8
0
  6
SLD-實線
 62
     7
100
AcDbLine
 10
2190.829939922705
 20
1771.492654847097
 30
0.0
 11
2189.17205908002
 21
1771.492654847097
 31
0.0
  0
ELLIPSE
  5
668
330
1F
100
AcDbEntity
  8
0
  6
SLD-實線
 62
     7
100
AcDbEllipse
 10
2188.999054966055
 20
1774.179662925766
 30
0.0
 11
0.4300719524105646
 21
-0.3762957911191336
 31
0.0
210
0.0
220
0.0
230
1.0
 40
0.7655551466074405
 41
3.199456779487642
 42
3.97612829662509
  0
LINE
  5
669
330
1F
100
AcDbEntity
  8
0
  6
SLD-實線
 62
     7
100
AcDbLine
 10
2189.612302711621
 20
1775.949279235791
 30
0.0
 11
2188.553042492285
 21
1774.536287801456
 31
0.0
  0
LINE
  5
66A
330
1F
100
AcDbEntity
  8
0
  6
SLD-實線
 62
     7
100
AcDbLine
 10
2205.137820231184
 20
1771.492654847097
 30
0.0
 11
2203.479939388499
 21
1771.492654847097
 31
0.0
  0
LINE
  5
66B
330
1F
100
AcDbEntity
  8
0
  6
SLD-實線
 62
     7
100
AcDbLine
 10
2203.479939388499
 20
1775.126729549955
 30
0.0
 11
2203.479939388499
 21
1771.492654847097
 31
0.0
  0
LINE
  5
66C
330
1F
100
AcDbEntity
  8
0
  6
SLD-實線
 62
     7
100
AcDbLine
 10
2202.065725593284
 20
1776.092654483508
 30
0.0
 11
2203.479939388499
 21
1775.126729549955
 31
0.0
  0
LINE
  5
66D
330
1F
100
AcDbEntity
  8
0
  6
SLD-實線
 62
     7
100
AcDbLine
 10
2202.065725593284
 20
1776.092654483508
 30
0.0
 11
2204.385537902281
 21
1776.092654483508
 31
0.0
  0
ELLIPSE
  5
66E
330
1F
100
AcDbEntity
  8
0
  6
SLD-實線
 62
     7
100
AcDbEllipse
 10
2204.251563133317
 20
1775.592654456686
 30
0.0
 11
0.4300719524105574
 21
0.3762957911191338
 31
0.0
210
0.0
220
0.0
230
1.0
 40
0.7655551466074103
 41
6.225321181281722
 42
7.001992698419047
  0
LINE
  5
66F
330
1F
100
AcDbEntity
  8
0
  6
SLD-實線
 62
     7
100
AcDbLine
 10
2205.756835887596
 20
1774.536287801456
 30
0.0
 11
2204.697575202599
 21
1775.949279235791
 31
0.0
  0
ELLIPSE
  5
670
330
1F
100
AcDbEntity
  8
0
  6
SLD-實線
 62
     7
100
AcDbEllipse
 10
2205.310823812432
 20
1774.179662925766
 30
0.0
 11
0.4300719524105574
 21
0.3762957911191338
 31
0.0
210
0.0
220
0.0
230
1.0
 40
0.7655551466074103
 41
5.44864966414426
 42
6.225321181281722
  0
LINE
  5
671
330
1F
100
AcDbEntity
  8
0
  6
SLD-實線
 62
     7
100
AcDbLine
 10
2205.813085908458
 20
1774.188388528418
 30
0.0
 11
2205.137820231184
 21
1771.492654847097
 31
0.0
  0
ELLIPSE
  5
672
330
1F
100
AcDbEntity
  8
0
  6
SLD-實線
 62
     7
100
AcDbEllipse
 10
2218.058315645171
 20
1775.592654456686
 30
0.0
 11
0.4300719524105715
 21
-0.3762957911191335
 31
0.0
210
0.0
220
0.0
230
1.0
 40
0.7655551466073958
 41
2.422785262350305
 42
3.199456779487635
  0
LINE
  5
673
330
1F
100
AcDbEntity
  8
0
  6
SLD-實線
 62
     7
100
AcDbLine
 10
2217.924340876207
 20
1776.092654483508
 30
0.0
 11
2220.244153185204
 21
1776.092654483508
 31
0.0
  0
LINE
  5
674
330
1F
100
AcDbEntity
  8
0
  6
SLD-實線
 62
     7
100
AcDbLine
 10
2218.829939389989
 20
1775.126729549955
 30
0.0
 11
2220.244153185204
 21
1776.092654483508
 31
0.0
  0
LINE
  5
675
330
1F
100
AcDbEntity
  8
0
  6
SLD-實線
 62
     7
100
AcDbLine
 10
2218.829939389989
 20
1771.492654847097
 30
0.0
 11
2218.829939389989
 21
1775.126729549955
 31
0.0
  0
LINE
  5
676
330
1F
100
AcDbEntity
  8
0
  6
SLD-實線
 62
     7
100
AcDbLine
 10
2217.172058547303
 20
1771.492654847097
 30
0.0
 11
2216.49679287003
 21
1774.188388528418
 31
0.0
  0
ELLIPSE
  5
677
330
1F
100
AcDbEntity
  8
0
  6
SLD-實線
 62
     7
100
AcDbEllipse
 10
2216.999054966055
 20
1774.179662925766
 30
0.0
 11
0.4300719524105715
 21
-0.3762957911191335
 31
0.0
210
0.0
220
0.0
230
1.0
 40
0.7655551466074332
 41
3.199456779487633
 42
3.976128296625087
  0
LINE
  5
678
330
1F
100
AcDbEntity
  8
0
  6
SLD-實線
 62
     7
100
AcDbLine
 10
2217.612303575888
 20
1775.949279235791
 30
0.0
 11
2216.553042890891
 21
1774.536287801456
 31
0.0
  0
LINE
  5
679
330
1F
100
AcDbEntity
  8
0
  6
SLD-實線
 62
     7
100
AcDbLine
 10
2218.829939389989
 20
1771.492654847097
 30
0.0
 11
2217.172058547303
 21
1771.492654847097
 31
0.0
  0
LINE
  5
67A
330
1F
100
AcDbEntity
  8
0
  6
SLD-實線
 62
     7
100
AcDbLine
 10
2216.49679287003
 20
1774.188388528418
 30
0.0
 11
2205.813085908458
 21
1774.188388528418
 31
0.0
  0
LINE
  5
67B
330
1F
100
AcDbEntity
  8
0
  6
SLD-實線
 62
     7
100
AcDbLine
 10
2217.172058547303
 20
1771.492654847097
 30
0.0
 11
2205.137820231184
 21
1771.492654847097
 31
0.0
  0
LINE
  5
67C
330
1F
100
AcDbEntity
  8
0
  6
SLD-實線
 62
     7
100
AcDbLine
 10
2183.347409373537
 20
1774.536287801456
 30
0.0
 11
2188.553042492285
 21
1774.536287801456
 31
0.0
  0
LINE
  5
67D
330
1F
100
AcDbEntity
  8
0
  6
SLD-實線
 62
     7
100
AcDbLine
 10
2233.756836286202
 20
1774.536287801456
 30
0.0
 11
2238.962469404951
 21
1774.536287801456
 31
0.0
  0
LINE
  5
67E
330
1F
100
AcDbEntity
  8
0
  6
SLD-實線
 62
     7
100
AcDbLine
 10
2205.756835887596
 20
1774.536287801456
 30
0.0
 11
2216.553042890891
 21
1774.536287801456
 31
0.0
  0
SPLINE
  5
67F
330
1F
100
AcDbEntity
  8
0
  6
SLD-實線
 62
     7
100
AcDbSpline
210
0.0
220
0.0
230
1.0
 70
     8
 71
     3
 72
    11
 73
     7
 74
     0
 42
0.000000001
 43
0.0000000001
 40
0.0
 40
0.0
 40
0.0
 40
0.0
 40
0.2506053309301159
 40
0.5
 40
0.7493946690698841
 40
0.9999999999999998
 40
0.9999999999999998
 40
0.9999999999999998
 40
0.9999999999999998
 10
2239.178426346198
 20
1775.949279235791
 30
0.0
 10
2239.166301158935
 20
1775.959320629987
 30
0.0
 10
2239.142109360584
 20
1775.979354908905
 30
0.0
 10
2239.090503729592
 20
1775.990603405946
 30
0.0
 10
2239.027973866052
 20
1775.979354908905
 30
0.0
 10
2238.984339443006
 20
1775.959320629987
 30
0.0
 10
2238.962469404951
 20
1775.949279235791
 30
0.0
  0
LINE
  5
680
330
1F
100
AcDbEntity
  8
0
  6
SLD-實線
 62
     7
100
AcDbLine
 10
2239.178426346198
 20
1775.949279235791
 30
0.0
 11
2240.616282230631
 21
1774.536302702617
 31
0.0
  0
LINE
  5
681
330
1F
100
AcDbEntity
  8
0
  6
SLD-實線
 62
     7
100
AcDbLine
 10
2238.962469404951
 20
1775.949243845533
 30
0.0
 11
2238.962469404951
 21
1774.536302702617
 31
0.0
  0
SPLINE
  5
682
330
1F
100
AcDbEntity
  8
0
  6
SLD-實線
 62
     7
100
AcDbSpline
210
0.0
220
0.0
230
1.0
 70
     8
 71
     3
 72
    11
 73
     7
 74
     0
 42
0.000000001
 43
0.0000000001
 40
0.0
 40
0.0
 40
0.0
 40
0.0
 40
0.2506053309301159
 40
0.5
 40
0.7493946690698841
 40
0.9999999999999998
 40
0.9999999999999998
 40
0.9999999999999998
 40
0.9999999999999998
 10
2183.347409373537
 20
1775.949279235791
 30
0.0
 10
2183.325539335482
 20
1775.959320629987
 30
0.0
 10
2183.281904912436
 20
1775.979354908905
 30
0.0
 10
2183.219375048895
 20
1775.990603405946
 30
0.0
 10
2183.167769417904
 20
1775.979354908905
 30
0.0
 10
2183.143577619553
 20
1775.959320629987
 30
0.0
 10
2183.13145243229
 20
1775.949279235791
 30
0.0
  0
LINE
  5
683
330
1F
100
AcDbEntity
  8
0
  6
SLD-實線
 62
     7
100
AcDbLine
 10
2183.347409373537
 20
1774.536302702617
 30
0.0
 11
2183.347409373537
 21
1775.949279235791
 31
0.0
  0
LINE
  5
684
330
1F
100
AcDbEntity
  8
0
  6
SLD-實線
 62
     7
100
AcDbLine
 10
2181.693596547857
 20
1774.536302702617
 30
0.0
 11
2183.131415179387
 21
1775.949243845533
 31
0.0
  0
LINE
  5
685
330
1F
100
AcDbEntity
  8
0
  6
SLD-實線
 62
     7
100
AcDbLine
 10
2189.612302711621
 20
1775.949279235791
 30
0.0
 11
2183.347409373537
 21
1775.949279235791
 31
0.0
  0
LINE
  5
686
330
1F
100
AcDbEntity
  8
0
  6
SLD-實線
 62
     7
100
AcDbLine
 10
2238.962469404951
 20
1775.949279235791
 30
0.0
 11
2232.697576066867
 21
1775.949279235791
 31
0.0
  0
LINE
  5
687
330
1F
100
AcDbEntity
  8
0
  6
SLD-實線
 62
     7
100
AcDbLine
 10
2217.612303575888
 20
1775.949279235791
 30
0.0
 11
2204.697575202599
 21
1775.949279235791
 31
0.0
  0
LINE
  5
688
330
1F
100
AcDbEntity
  8
0
  6
SLD-實線
 62
     7
100
AcDbLine
 10
2232.385538300887
 20
1776.092654483508
 30
0.0
 11
2238.827971524015
 21
1776.092654483508
 31
0.0
  0
LINE
  5
689
330
1F
100
AcDbEntity
  8
0
  6
SLD-實線
 62
     7
100
AcDbLine
 10
2238.827971524015
 20
1776.092654483508
 30
0.0
 11
2238.879818251744
 21
1776.084496097755
 31
0.0
  0
LINE
  5
68A
330
1F
100
AcDbEntity
  8
0
  6
SLD-實線
 62
     7
100
AcDbLine
 10
2183.481907254472
 20
1776.092654483508
 30
0.0
 11
2189.924340477601
 21
1776.092654483508
 31
0.0
  0
SPLINE
  5
68B
330
1F
100
AcDbEntity
  8
0
  6
SLD-實線
 62
     7
100
AcDbSpline
210
0.0
220
0.0
230
1.0
 70
     8
 71
     3
 72
    10
 73
     6
 74
     0
 42
0.000000001
 43
0.0000000001
 40
0.0
 40
0.0
 40
0.0
 40
0.0
 40
0.2521350127571415
 40
0.5007280842971365
 40
1.0
 40
1.0
 40
1.0
 40
1.0
 10
2183.347409373537
 20
1775.949279235791
 30
0.0
 10
2183.349016201646
 20
1775.972225035667
 30
0.0
 10
2183.352207285473
 20
1776.017794297501
 30
0.0
 10
2183.393321909928
 20
1776.078111112732
 30
0.0
 10
2183.446443485764
 20
1776.086832270589
 30
0.0
 10
2183.481907254472
 20
1776.092654483508
 30
0.0
  0
SPLINE
  5
68C
330
1F
100
AcDbEntity
  8
0
  6
SLD-實線
 62
     7
100
AcDbSpline
210
0.0
220
0.0
230
1.0
 70
     8
 71
     3
 72
    11
 73
     7
 74
     0
 42
0.000000001
 43
0.0000000001
 40
0.0
 40
0.0
 40
0.0
 40
0.0
 40
0.2515810844157195
 40
0.4997009277747195
 40
0.7497144071088116
 40
1.0
 40
1.0
 40
1.0
 40
1.0
 10
2183.13145243229
 20
1775.949279235791
 30
0.0
 10
2183.157957643827
 20
1775.972314396645
 30
0.0
 10
2183.210603409413
 20
1776.018067801664
 30
0.0
 10
2183.301864166823
 20
1776.062019794839
 30
0.0
 10
2183.39210601503
 20
1776.088101818541
 30
0.0
 10
2183.451962655947
 20
1776.091136378352
 30
0.0
 10
2183.481907254472
 20
1776.092654483508
 30
0.0
  0
SPLINE
  5
68D
330
1F
100
AcDbEntity
  8
0
  6
SLD-實線
 62
     7
100
AcDbSpline
210
0.0
220
0.0
230
1.0
 70
     8
 71
     3
 72
    11
 73
     7
 74
     0
 42
0.000000001
 43
0.0000000001
 40
0.0
 40
0.0
 40
0.0
 40
0.0
 40
0.2402919595494589
 40
0.4992719157167845
 40
0.7478649872498683
 40
1.0
 40
1.0
 40
1.0
 40
1.0
 10
2238.827971524015
 20
1776.092654483508
 30
0.0
 10
2238.856928370011
 20
1776.086724694958
 30
0.0
 10
2238.917094095075
 20
1776.074403946089
 30
0.0
 10
2239.006960868206
 20
1776.066145892421
 30
0.0
 10
2239.099276027903
 20
1776.017162654279
 30
0.0
 10
2239.151918782484
 20
1775.972013497377
 30
0.0
 10
2239.178426346198
 20
1775.949279235791
 30
0.0
  0
LINE
  5
68E
330
1F
100
AcDbEntity
  8
0
  6
SLD-實線
 62
     7
100
AcDbLine
 10
2204.385537902281
 20
1776.092654483508
 30
0.0
 11
2217.924340876207
 21
1776.092654483508
 31
0.0
  0
LINE
  5
68F
330
1F
100
AcDbEntity
  8
0
  6
SLD-實線
 62
     7
100
AcDbLine
 10
2203.479939388499
 20
1775.126729549955
 30
0.0
 11
2190.829939922705
 21
1775.126729549955
 31
0.0
  0
LINE
  5
690
330
1F
100
AcDbEntity
  8
0
  6
SLD-實線
 62
     7
100
AcDbLine
 10
2190.829939922705
 20
1771.492654847097
 30
0.0
 11
2203.479939388499
 21
1771.492654847097
 31
0.0
  0
LINE
  5
691
330
1F
100
AcDbEntity
  8
0
  6
SLD-實線
 62
     7
100
AcDbLine
 10
2231.479938855782
 20
1775.126729549955
 30
0.0
 11
2218.829939389989
 21
1775.126729549955
 31
0.0
  0
LINE
  5
692
330
1F
100
AcDbEntity
  8
0
  6
SLD-實線
 62
     7
100
AcDbLine
 10
2218.829939389989
 20
1771.492654847097
 30
0.0
 11
2231.479938855782
 21
1771.492654847097
 31
0.0
  0
LINE
  5
693
330
1F
100
AcDbEntity
  8
0
  6
SLD-實線
 62
     7
100
AcDbLine
 10
2220.244153185204
 20
1776.092654483508
 30
0.0
 11
2230.065725526229
 21
1776.092654483508
 31
0.0
  0
LINE
  5
694
330
1F
100
AcDbEntity
  8
0
  6
SLD-實線
 62
     7
100
AcDbLine
 10
2192.244153252259
 20
1776.092654483508
 30
0.0
 11
2202.065725593284
 21
1776.092654483508
 31
0.0
  0
LINE
  5
695
330
1F
100
AcDbEntity
  8
0
  6
SLD-實線
 62
     7
100
AcDbLine
 10
2236.454939252153
 20
1776.592653634142
 30
0.0
 11
2236.588913729802
 21
1776.592653634142
 31
0.0
  0
ARC
  5
696
330
1F
100
AcDbEntity
  8
0
  6
SLD-實線
 62
     7
100
AcDbCircle
 10
2236.58891398546
 20
1775.592654456686
 30
0.0
 40
1.000000000000008
100
AcDbArc
 50
29.99999999999729
 51
90.0
  0
LINE
  5
697
330
1F
100
AcDbEntity
  8
0
  6
SLD-實線
 62
     7
100
AcDbLine
 10
2236.454939252153
 20
1776.592653634142
 30
0.0
 11
2236.454939252153
 21
1776.092654483508
 31
0.0
  0
LINE
  5
698
330
1F
100
AcDbEntity
  8
0
  6
SLD-實線
 62
     7
100
AcDbLine
 10
2185.720965048686
 20
1776.592653634142
 30
0.0
 11
2185.854939526334
 21
1776.592653634142
 31
0.0
  0
LINE
  5
699
330
1F
100
AcDbEntity
  8
0
  6
SLD-實線
 62
     7
100
AcDbLine
 10
2185.854939526334
 20
1776.592653634142
 30
0.0
 11
2185.854939526334
 21
1776.092654483508
 31
0.0
  0
ARC
  5
69A
330
1F
100
AcDbEntity
  8
0
  6
SLD-實線
 62
     7
100
AcDbCircle
 10
2185.720964793028
 20
1775.592654456686
 30
0.0
 40
1.0
100
AcDbArc
 50
90.0
 51
150.0000000000027
  0
LINE
  5
69B
330
1F
100
AcDbEntity
  8
0
  6
SLD-實線
 62
     7
100
AcDbLine
 10
2185.854939526334
 20
1776.592653634142
 30
0.0
 11
2236.454939252153
 21
1776.592653634142
 31
0.0
  0
LINE
  5
69C
330
1F
100
AcDbEntity
  8
0
  6
SLD-實線
 62
     7
100
AcDbLine
 10
2226.116478225604
 20
1776.602654175948
 30
0.0
 11
2226.116478225604
 21
1776.592653634142
 31
0.0
  0
LINE
  5
69D
330
1F
100
AcDbEntity
  8
0
  6
SLD-實線
 62
     7
100
AcDbLine
 10
2226.116478225604
 20
1776.602654175948
 30
0.0
 11
2224.154939657465
 21
1776.602654175948
 31
0.0
  0
LINE
  5
69E
330
1F
100
AcDbEntity
  8
0
  6
SLD-實線
 62
     7
100
AcDbLine
 10
2224.154939657465
 20
1776.602654175948
 30
0.0
 11
2224.154939657465
 21
1776.592653634142
 31
0.0
  0
LINE
  5
69F
330
1F
100
AcDbEntity
  8
0
  6
SLD-實線
 62
     7
100
AcDbLine
 10
2197.039554609373
 20
1776.602654175948
 30
0.0
 11
2197.039554609373
 21
1776.592653634142
 31
0.0
  0
LINE
  5
6A0
330
1F
100
AcDbEntity
  8
0
  6
SLD-實線
 62
     7
100
AcDbLine
 10
2197.616478210703
 20
1776.602654175948
 30
0.0
 11
2197.616478210703
 21
1776.592653634142
 31
0.0
  0
LINE
  5
6A1
330
1F
100
AcDbEntity
  8
0
  6
SLD-實線
 62
     7
100
AcDbLine
 10
2197.616478210703
 20
1776.602654175948
 30
0.0
 11
2197.039554609373
 21
1776.602654175948
 31
0.0
  0
LINE
  5
6A2
330
1F
100
AcDbEntity
  8
0
  6
SLD-實線
 62
     7
100
AcDbLine
 10
2196.308785831943
 20
1776.602654175948
 30
0.0
 11
2196.308785831943
 21
1776.592653634142
 31
0.0
  0
LINE
  5
6A3
330
1F
100
AcDbEntity
  8
0
  6
SLD-實線
 62
     7
100
AcDbLine
 10
2182.990433430687
 20
1755.959825048338
 30
0.0
 11
2182.940508952752
 21
1755.968627443652
 31
0.0
  0
LINE
  5
6A4
330
1F
100
AcDbEntity
  8
0
  6
SLD-實線
 62
     7
100
AcDbLine
 10
2182.954938864723
 20
1754.342654643696
 30
0.0
 11
2182.976545548454
 21
1754.368402918916
 31
0.0
  0
LINE
  5
6A5
330
1F
100
AcDbEntity
  8
0
  6
SLD-實線
 62
     7
100
AcDbLine
 10
2182.926319322005
 20
1754.342654643696
 30
0.0
 11
2182.954938864723
 21
1754.342654643696
 31
0.0
  0
LINE
  5
6A6
330
1F
100
AcDbEntity
  8
0
  6
SLD-實線
 62
     7
100
AcDbLine
 10
2239.369369825736
 20
1755.968627443652
 30
0.0
 11
2239.319445347801
 21
1755.959825048338
 31
0.0
  0
LINE
  5
6A7
330
1F
100
AcDbEntity
  8
0
  6
SLD-實線
 62
     7
100
AcDbLine
 10
2239.354939913765
 20
1754.342654643696
 30
0.0
 11
2239.383559456483
 21
1754.342654643696
 31
0.0
  0
LINE
  5
6A8
330
1F
100
AcDbEntity
  8
0
  6
SLD-實線
 62
     7
100
AcDbLine
 10
2239.333333230034
 20
1754.368402918916
 30
0.0
 11
2239.354939913765
 21
1754.342654643696
 31
0.0
  0
LINE
  5
6A9
330
1F
100
AcDbEntity
  8
0
  6
SLD-實線
 62
     7
100
AcDbLine
 10
2189.952740228191
 20
1767.893007414531
 30
0.0
 11
2189.236471211925
 21
1771.39265501697
 31
0.0
  0
LINE
  5
6AA
330
1F
100
AcDbEntity
  8
0
  6
SLD-實線
 62
     7
100
AcDbLine
 10
2189.952740228191
 20
1767.893007414531
 30
0.0
 11
2189.975255882755
 21
1759.292654151212
 31
0.0
  0
LINE
  5
6AB
330
1F
100
AcDbEntity
  8
0
  6
SLD-實線
 62
     7
100
AcDbLine
 10
2204.334623428449
 20
1759.292654151212
 30
0.0
 11
2189.975255882755
 21
1759.292654151212
 31
0.0
  0
LINE
  5
6AC
330
1F
100
AcDbEntity
  8
0
  6
SLD-實線
 62
     7
100
AcDbLine
 10
2204.357139548674
 20
1767.893007414531
 30
0.0
 11
2204.334623428449
 21
1759.292654151212
 31
0.0
  0
LINE
  5
6AD
330
1F
100
AcDbEntity
  8
0
  6
SLD-實線
 62
     7
100
AcDbLine
 10
2205.073408099279
 20
1771.39265501697
 30
0.0
 11
2204.357139548674
 21
1767.893007414531
 31
0.0
  0
LINE
  5
6AE
330
1F
100
AcDbEntity
  8
0
  6
SLD-實線
 62
     7
100
AcDbLine
 10
2205.073408099279
 20
1771.39265501697
 30
0.0
 11
2217.236470679209
 21
1771.39265501697
 31
0.0
  0
LINE
  5
6AF
330
1F
100
AcDbEntity
  8
0
  6
SLD-實線
 62
     7
100
AcDbLine
 10
2217.952739229813
 20
1767.893007414531
 30
0.0
 11
2217.236470679209
 21
1771.39265501697
 31
0.0
  0
LINE
  5
6B0
330
1F
100
AcDbEntity
  8
0
  6
SLD-實線
 62
     7
100
AcDbLine
 10
2217.952739229813
 20
1767.893007414531
 30
0.0
 11
2217.975255350038
 21
1759.292654151212
 31
0.0
  0
LINE
  5
6B1
330
1F
100
AcDbEntity
  8
0
  6
SLD-實線
 62
     7
100
AcDbLine
 10
2217.975255350038
 20
1759.292654151212
 30
0.0
 11
2232.334622895733
 21
1759.292654151212
 31
0.0
  0
LINE
  5
6B2
330
1F
100
AcDbEntity
  8
0
  6
SLD-實線
 62
     7
100
AcDbLine
 10
2232.357138550296
 20
1767.893007414531
 30
0.0
 11
2232.334622895733
 21
1759.292654151212
 31
0.0
  0
LINE
  5
6B3
330
1F
100
AcDbEntity
  8
0
  6
SLD-實線
 62
     7
100
AcDbLine
 10
2233.073407566562
 20
1771.39265501697
 30
0.0
 11
2232.357138550296
 21
1767.893007414531
 31
0.0
  0
LINE
  5
6B4
330
1F
100
AcDbEntity
  8
0
  6
SLD-實線
 62
     7
100
AcDbLine
 10
2233.073407566562
 20
1771.39265501697
 30
0.0
 11
2238.193454003349
 21
1771.39265501697
 31
0.0
  0
ARC
  5
6B5
330
1F
100
AcDbEntity
  8
0
  6
SLD-實線
 62
     7
100
AcDbCircle
 10
2238.193454256729
 20
1770.392654456686
 30
0.0
 40
1.000000000000005
100
AcDbArc
 50
0.5000000000044885
 51
90.0
  0
LINE
  5
6B6
330
1F
100
AcDbEntity
  8
0
  6
SLD-實線
 62
     7
100
AcDbLine
 10
2239.354939913765
 20
1751.892654381808
 30
0.0
 11
2182.954938864723
 21
1751.892654381808
 31
0.0
  0
LINE
  5
6B7
330
1F
100
AcDbEntity
  8
0
  6
SLD-實線
 62
     7
100
AcDbLine
 10
2182.954938864723
 20
1751.892654381808
 30
0.0
 11
2183.116461864129
 21
1770.401381345581
 31
0.0
  0
ARC
  5
6B8
330
1F
100
AcDbEntity
  8
0
  6
SLD-實線
 62
     7
100
AcDbCircle
 10
2184.116424521759
 20
1770.392654456686
 30
0.0
 40
1.000000000000005
100
AcDbArc
 50
90.0
 51
179.4999999999955
  0
LINE
  5
6B9
330
1F
100
AcDbEntity
  8
0
  6
SLD-實線
 62
     7
100
AcDbLine
 10
2184.116424775139
 20
1771.39265501697
 30
0.0
 11
2189.236471211925
 21
1771.39265501697
 31
0.0
  0
LINE
  5
6BA
330
1F
100
AcDbEntity
  8
0
  6
SLD-實線
 62
     7
100
AcDbLine
 10
2239.354939913765
 20
1751.892654381808
 30
0.0
 11
2239.193416914359
 21
1770.401381345581
 31
0.0
  0
SPLINE
  5
6BB
330
1F
100
AcDbEntity
  8
0
  6
SLD-實線
 62
     7
100
AcDbSpline
210
0.0
220
0.0
230
1.0
 70
     8
 71
     3
 72
     8
 73
     4
 74
     0
 42
0.000000001
 43
0.0000000001
 40
0.0
 40
0.0
 40
0.0
 40
0.0
 40
0.0000043634832559
 40
0.0000043634832559
 40
0.0000043634832559
 40
0.0000043634832559
 10
2239.354939389244
 20
1751.392654456686
 30
0.0
 10
2239.356393883662
 20
1751.392654456686
 30
0.0
 10
2239.35784837915
 20
1751.392652693717
 30
0.0
 10
2239.359302869294
 20
1751.392649167817
 30
0.0
  0
LINE
  5
6BC
330
1F
100
AcDbEntity
  8
0
  6
SLD-實線
 62
     7
100
AcDbLine
 10
2182.954938864723
 20
1751.392654416267
 30
0.0
 11
2239.354939913765
 21
1751.392654416267
 31
0.0
  0
SPLINE
  5
6BD
330
1F
100
AcDbEntity
  8
0
  6
SLD-實線
 62
     7
100
AcDbSpline
210
0.0
220
0.0
230
1.0
 70
     8
 71
     3
 72
     8
 73
     4
 74
     0
 42
0.000000001
 43
0.0000000001
 40
0.0
 40
0.0
 40
0.0
 40
0.0
 40
0.0000043634832559
 40
0.0000043634832559
 40
0.0000043634832559
 40
0.0000043634832559
 10
2182.950575909193
 20
1751.392649167816
 30
0.0
 10
2182.952030399338
 20
1751.392652693717
 30
0.0
 10
2182.953484894825
 20
1751.392654456686
 30
0.0
 10
2182.954939389244
 20
1751.392654456686
 30
0.0
  0
LINE
  5
6BE
330
1F
100
AcDbEntity
  8
0
  6
SLD-實線
 62
     7
100
AcDbLine
 10
2182.954938864723
 20
1751.892654381808
 30
0.0
 11
2182.950576549783
 21
1751.392649177577
 31
0.0
  0
LINE
  5
6BF
330
1F
100
AcDbEntity
  8
0
  6
SLD-實線
 62
     7
100
AcDbLine
 10
2239.354939913765
 20
1751.892654381808
 30
0.0
 11
2239.359302228704
 21
1751.392649177577
 31
0.0
  0
LINE
  5
6C0
330
1F
100
AcDbEntity
  8
0
  6
SLD-實線
 62
     7
100
AcDbLine
 10
2182.954938864723
 20
1751.392654416267
 30
0.0
 11
2182.954938864723
 21
1749.792654456686
 31
0.0
  0
LINE
  5
6C1
330
1F
100
AcDbEntity
  8
0
  6
SLD-實線
 62
     7
100
AcDbLine
 10
2182.954938864723
 20
1749.792654456686
 30
0.0
 11
2181.154940059796
 21
1749.792654456686
 31
0.0
  0
LINE
  5
6C2
330
1F
100
AcDbEntity
  8
0
  6
SLD-實線
 62
     7
100
AcDbLine
 10
2181.154940059796
 20
1749.792654456686
 30
0.0
 11
2181.154940059796
 21
1751.392654416267
 31
0.0
  0
LWPOLYLINE
  5
6C3
330
1F
100
AcDbEntity
  8
0
  6
SLD-實線
 62
     7
100
AcDbPolyline
 90
        9
 70
     0
 43
0.0
 10
2182.950576549783
 20
1751.392649177577
 10
2182.600032320634
 20
1751.392649293993
 10
2182.263085401073
 20
1751.392649526823
 10
2181.952643921986
 20
1751.3926501089
 10
2181.680600872651
 20
1751.392650690976
 10
2181.457381477967
 20
1751.392651505884
 10
2181.291533416525
 20
1751.392652437206
 10
2181.189413896218
 20
1751.392653368529
 10
2181.154940059796
 20
1751.392654416267
  0
LINE
  5
6C4
330
1F
100
AcDbEntity
  8
0
  6
SLD-實線
 62
     7
100
AcDbLine
 10
2239.354939913765
 20
1749.792654456686
 30
0.0
 11
2239.354939913765
 21
1751.392654416267
 31
0.0
  0
LWPOLYLINE
  5
6C5
330
1F
100
AcDbEntity
  8
0
  6
SLD-實線
 62
     7
100
AcDbPolyline
 90
        9
 70
     0
 43
0.0
 10
2239.359302228704
 20
1751.392649177577
 10
2239.709846457854
 20
1751.392649293993
 10
2240.046793377414
 20
1751.392649526823
 10
2240.357234856501
 20
1751.3926501089
 10
2240.629277905837
 20
1751.392650690976
 10
2240.852497300521
 20
1751.392651505884
 10
2241.018345361963
 20
1751.392652437206
 10
2241.12046488227
 20
1751.392653368529
 10
2241.154938718691
 20
1751.392654416267
  0
LINE
  5
6C6
330
1F
100
AcDbEntity
  8
0
  6
SLD-實線
 62
     7
100
AcDbLine
 10
2241.154938718691
 20
1751.392654416267
 30
0.0
 11
2241.154938718691
 21
1749.792654456686
 31
0.0
  0
LINE
  5
6C7
330
1F
100
AcDbEntity
  8
0
  6
SLD-實線
 62
     7
100
AcDbLine
 10
2241.154938718691
 20
1749.792654456686
 30
0.0
 11
2239.354939913765
 21
1749.792654456686
 31
0.0
  0
LINE
  5
6C8
330
1F
100
AcDbEntity
  8
0
  6
SLD-實線
 62
     7
100
AcDbLine
 10
2239.354939913765
 20
1751.892654381808
 30
0.0
 11
2239.404938897505
 21
1751.892654381808
 31
0.0
  0
LINE
  5
6C9
330
1F
100
AcDbEntity
  8
0
  6
SLD-實線
 62
     7
100
AcDbLine
 10
2240.654939568058
 20
1751.892654381808
 30
0.0
 11
2241.154938718691
 21
1751.392654416267
 31
0.0
  0
LINE
  5
6CA
330
1F
100
AcDbEntity
  8
0
  6
SLD-實線
 62
     7
100
AcDbLine
 10
2239.354939913765
 20
1749.792654456686
 30
0.0
 11
2182.954938864723
 21
1749.792654456686
 31
0.0
  0
LINE
  5
6CB
330
1F
100
AcDbEntity
  8
0
  6
SLD-實線
 62
     7
100
AcDbLine
 10
2182.904939880982
 20
1751.892654381808
 30
0.0
 11
2182.954938864723
 21
1751.892654381808
 31
0.0
  0
LINE
  5
6CC
330
1F
100
AcDbEntity
  8
0
  6
SLD-實線
 62
     7
100
AcDbLine
 10
2181.65493921043
 20
1751.892654381808
 30
0.0
 11
2181.154940059796
 21
1751.392654416267
 31
0.0
  0
LINE
  5
6CD
330
1F
100
AcDbEntity
  8
0
  6
SLD-實線
 62
     7
100
AcDbLine
 10
2203.500879710928
 20
1759.292654151212
 30
0.0
 11
2203.523395365492
 21
1767.893007414531
 31
0.0
  0
LINE
  5
6CE
330
1F
100
AcDbEntity
  8
0
  6
SLD-實線
 62
     7
100
AcDbLine
 10
2204.357139548674
 20
1767.893007414531
 30
0.0
 11
2203.523395365492
 21
1767.893007414531
 31
0.0
  0
LINE
  5
6CF
330
1F
100
AcDbEntity
  8
0
  6
SLD-實線
 62
     7
100
AcDbLine
 10
2231.523396229759
 20
1767.893007414531
 30
0.0
 11
2231.50087871255
 21
1759.292654151212
 31
0.0
  0
LINE
  5
6D0
330
1F
100
AcDbEntity
  8
0
  6
SLD-實線
 62
     7
100
AcDbLine
 10
2232.357138550296
 20
1767.893007414531
 30
0.0
 11
2231.523396229759
 21
1767.893007414531
 31
0.0
  0
LINE
  5
6D1
330
1F
100
AcDbEntity
  8
0
  6
SLD-實線
 62
     7
100
AcDbLine
 10
2190.786482548729
 20
1767.893007414531
 30
0.0
 11
2189.952740228191
 21
1767.893007414531
 31
0.0
  0
LINE
  5
6D2
330
1F
100
AcDbEntity
  8
0
  6
SLD-實線
 62
     7
100
AcDbLine
 10
2190.786482548729
 20
1767.893007414531
 30
0.0
 11
2190.809000065938
 21
1759.292654151212
 31
0.0
  0
LINE
  5
6D3
330
1F
100
AcDbEntity
  8
0
  6
SLD-實線
 62
     7
100
AcDbLine
 10
2218.786483412996
 20
1767.893007414531
 30
0.0
 11
2217.952739229813
 21
1767.893007414531
 31
0.0
  0
LINE
  5
6D4
330
1F
100
AcDbEntity
  8
0
  6
SLD-實線
 62
     7
100
AcDbLine
 10
2218.80899906756
 20
1759.292654151212
 30
0.0
 11
2218.786483412996
 21
1767.893007414531
 31
0.0
  0
LINE
  5
6D5
330
1F
100
AcDbEntity
  8
0
  6
SLD-實線
 62
     7
100
AcDbLine
 10
2203.523395365492
 20
1767.893007414531
 30
0.0
 11
2203.529939303562
 21
1770.392654853057
 31
0.0
  0
LINE
  5
6D6
330
1F
100
AcDbEntity
  8
0
  6
SLD-實線
 62
     7
100
AcDbLine
 10
2203.529939303562
 20
1770.392654853057
 30
0.0
 11
2203.529939303562
 21
1771.39265501697
 31
0.0
  0
LINE
  5
6D7
330
1F
100
AcDbEntity
  8
0
  6
SLD-實線
 62
     7
100
AcDbLine
 10
2203.529939303562
 20
1771.39265501697
 30
0.0
 11
2205.073408099279
 21
1771.39265501697
 31
0.0
  0
LINE
  5
6D8
330
1F
100
AcDbEntity
  8
0
  6
SLD-實線
 62
     7
100
AcDbLine
 10
2217.236470679209
 20
1771.39265501697
 30
0.0
 11
2218.779939474925
 21
1771.39265501697
 31
0.0
  0
LINE
  5
6D9
330
1F
100
AcDbEntity
  8
0
  6
SLD-實線
 62
     7
100
AcDbLine
 10
2218.779939474925
 20
1771.39265501697
 30
0.0
 11
2218.779939474925
 21
1770.392654853057
 31
0.0
  0
LINE
  5
6DA
330
1F
100
AcDbEntity
  8
0
  6
SLD-實線
 62
     7
100
AcDbLine
 10
2218.779939474925
 20
1770.392654853057
 30
0.0
 11
2218.786483412996
 21
1767.893007414531
 31
0.0
  0
LINE
  5
6DB
330
1F
100
AcDbEntity
  8
0
  6
SLD-實線
 62
     7
100
AcDbLine
 10
2189.236471211925
 20
1771.39265501697
 30
0.0
 11
2190.779939076319
 21
1771.39265501697
 31
0.0
  0
LINE
  5
6DC
330
1F
100
AcDbEntity
  8
0
  6
SLD-實線
 62
     7
100
AcDbLine
 10
2190.779939076319
 20
1771.39265501697
 30
0.0
 11
2190.779939076319
 21
1770.392654853057
 31
0.0
  0
LINE
  5
6DD
330
1F
100
AcDbEntity
  8
0
  6
SLD-實線
 62
     7
100
AcDbLine
 10
2190.779939076319
 20
1770.392654853057
 30
0.0
 11
2190.786482548729
 21
1767.893007414531
 31
0.0
  0
LINE
  5
6DE
330
1F
100
AcDbEntity
  8
0
  6
SLD-實線
 62
     7
100
AcDbLine
 10
2231.523396229759
 20
1767.893007414531
 30
0.0
 11
2231.529939702168
 21
1770.392654853057
 31
0.0
  0
LINE
  5
6DF
330
1F
100
AcDbEntity
  8
0
  6
SLD-實線
 62
     7
100
AcDbLine
 10
2231.529939702168
 20
1770.392654853057
 30
0.0
 11
2231.529939702168
 21
1771.39265501697
 31
0.0
  0
LINE
  5
6E0
330
1F
100
AcDbEntity
  8
0
  6
SLD-實線
 62
     7
100
AcDbLine
 10
2231.529939702168
 20
1771.39265501697
 30
0.0
 11
2233.073407566562
 21
1771.39265501697
 31
0.0
  0
LINE
  5
6E1
330
1F
100
AcDbEntity
  8
0
  6
SLD-實線
 62
     7
100
AcDbLine
 10
2205.715798089668
 20
1771.492654847097
 30
0.0
 11
2205.716234414294
 21
1771.39265501697
 31
0.0
  0
LINE
  5
6E2
330
1F
100
AcDbEntity
  8
0
  6
SLD-實線
 62
     7
100
AcDbLine
 10
2203.529939303562
 20
1771.39265501697
 30
0.0
 11
2202.810904724911
 21
1771.39265501697
 31
0.0
  0
LINE
  5
6E3
330
1F
100
AcDbEntity
  8
0
  6
SLD-實線
 62
     7
100
AcDbLine
 10
2191.510459190622
 20
1771.39265501697
 30
0.0
 11
2190.779939076319
 21
1771.39265501697
 31
0.0
  0
LINE
  5
6E4
330
1F
100
AcDbEntity
  8
0
  6
SLD-實線
 62
     7
100
AcDbLine
 10
2188.593644431248
 20
1771.39265501697
 30
0.0
 11
2188.594080290213
 21
1771.492654847097
 31
0.0
  0
LINE
  5
6E5
330
1F
100
AcDbEntity
  8
0
  6
SLD-實線
 62
     7
100
AcDbLine
 10
2218.779939474925
 20
1771.39265501697
 30
0.0
 11
2219.510459123567
 21
1771.39265501697
 31
0.0
  0
LINE
  5
6E6
330
1F
100
AcDbEntity
  8
0
  6
SLD-實線
 62
     7
100
AcDbLine
 10
2230.810904657856
 20
1771.39265501697
 30
0.0
 11
2231.529939702168
 21
1771.39265501697
 31
0.0
  0
LINE
  5
6E7
330
1F
100
AcDbEntity
  8
0
  6
SLD-實線
 62
     7
100
AcDbLine
 10
2233.715798488274
 20
1771.492654847097
 30
0.0
 11
2233.716234347239
 21
1771.39265501697
 31
0.0
  0
LINE
  5
6E8
330
1F
100
AcDbEntity
  8
0
  6
SLD-實線
 62
     7
100
AcDbLine
 10
2216.593644364193
 20
1771.39265501697
 30
0.0
 11
2216.594080688819
 21
1771.492654847097
 31
0.0
  0
LINE
  5
6E9
330
1F
100
AcDbEntity
  8
0
  6
SLD-實線
 62
     7
100
AcDbLine
 10
2181.154940059796
 20
1751.392654416267
 30
0.0
 11
2181.154940059796
 21
1751.548165728453
 31
0.0
  0
LINE
  5
6EA
330
1F
100
AcDbEntity
  8
0
  6
SLD-實線
 62
     7
100
AcDbLine
 10
2241.154938718691
 20
1751.548165728453
 30
0.0
 11
2241.154938718691
 21
1751.392654416267
 31
0.0
  0
SPLINE
  5
6EB
330
1F
100
AcDbEntity
  8
0
  6
SLD-實線
 62
     7
100
AcDbSpline
210
0.0
220
0.0
230
1.0
 70
    24
 71
     3
 72
    12
 73
     8
 74
     0
 42
0.000000001
 43
0.0000000001
 40
0.0
 40
0.0
 40
0.0
 40
0.0
 40
0.2002710858179882
 40
0.4001111571779095
 40
0.5998155159963657
 40
0.7996800657408667
 40
1.0
 40
1.0
 40
1.0
 40
1.0
 10
2181.154939389244
 20
1751.548165776278
 30
0.0
 10
2181.154939389244
 20
1751.565452084068
 30
0.0
 10
2181.154939389244
 20
1751.599987496832
 30
0.0
 10
2181.154939389244
 20
1751.661646088033
 30
0.0
 10
2181.154939389244
 20
1751.730587974552
 30
0.0
 10
2181.154939389244
 20
1751.806858937901
 30
0.0
 10
2181.154939389244
 20
1751.864036086482
 30
0.0
 10
2181.154939389244
 20
1751.892657192755
 30
0.0
  0
SPLINE
  5
6EC
330
1F
100
AcDbEntity
  8
0
  6
SLD-實線
 62
     7
100
AcDbSpline
210
0.0
220
0.0
230
1.0
 70
    24
 71
     3
 72
    12
 73
     8
 74
     0
 42
0.000000001
 43
0.0000000001
 40
0.0
 40
0.0
 40
0.0
 40
0.0
 40
0.2003199342591511
 40
0.4001844840036568
 40
0.5998888428221081
 40
0.7997289141820204
 40
1.0
 40
1.0
 40
1.0
 40
1.0
 10
2241.154939389244
 20
1751.892657192755
 30
0.0
 10
2241.154939389244
 20
1751.864036086482
 30
0.0
 10
2241.154939389244
 20
1751.8068589379
 30
0.0
 10
2241.154939389244
 20
1751.730587974551
 30
0.0
 10
2241.154939389244
 20
1751.661646088031
 30
0.0
 10
2241.154939389244
 20
1751.59998749683
 30
0.0
 10
2241.154939389244
 20
1751.565452084067
 30
0.0
 10
2241.154939389244
 20
1751.548165776276
 30
0.0
  0
LINE
  5
6ED
330
1F
100
AcDbEntity
  8
0
  6
SLD-實線
 62
     7
100
AcDbLine
 10
2182.947700625673
 20
1756.792654672753
 30
0.0
 11
2182.997701472059
 21
1756.792654672753
 31
0.0
  0
LINE
  5
6EE
330
1F
100
AcDbEntity
  8
0
  6
SLD-實線
 62
     7
100
AcDbLine
 10
2239.312177306429
 20
1756.792654672753
 30
0.0
 11
2239.362178152815
 21
1756.792654672753
 31
0.0
  0
LINE
  5
6EF
330
1F
100
AcDbEntity
  8
0
  6
SLD-實線
 62
     7
100
AcDbLine
 10
2239.354939913765
 20
1756.792654672753
 30
0.0
 11
2239.337485066071
 21
1757.792654836666
 31
0.0
  0
LINE
  5
6F0
330
1F
100
AcDbEntity
  8
0
  6
SLD-實線
 62
     7
100
AcDbLine
 10
2239.337485066071
 20
1757.792654836666
 30
0.0
 11
2239.303450813904
 21
1757.792654836666
 31
0.0
  0
LINE
  5
6F1
330
1F
100
AcDbEntity
  8
0
  6
SLD-實線
 62
     7
100
AcDbLine
 10
2182.954938864723
 20
1756.792654672753
 30
0.0
 11
2182.972393712416
 21
1757.792654836666
 31
0.0
  0
LINE
  5
6F2
330
1F
100
AcDbEntity
  8
0
  6
SLD-實線
 62
     7
100
AcDbLine
 10
2183.006427964583
 20
1757.792654836666
 30
0.0
 11
2182.972393712416
 21
1757.792654836666
 31
0.0
  0
LINE
  5
6F3
330
1F
100
AcDbEntity
  8
0
  6
SLD-實線
 62
     8
100
AcDbLine
 10
2195.269113188997
 20
1764.592654461156
 30
0.0
 11
2190.795123359576
 21
1764.592654461156
 31
0.0
  0
LINE
  5
6F4
330
1F
100
AcDbEntity
  8
0
  6
SLD-實線
 62
     8
100
AcDbLine
 10
2203.514755020306
 20
1764.592654461156
 30
0.0
 11
2199.040764725223
 21
1764.592654461156
 31
0.0
  0
LINE
  5
6F5
330
1F
100
AcDbEntity
  8
0
  6
SLD-實線
 62
     8
100
AcDbLine
 10
2223.269114053264
 20
1764.592654461156
 30
0.0
 11
2218.795123758182
 21
1764.592654461156
 31
0.0
  0
LINE
  5
6F6
330
1F
100
AcDbEntity
  8
0
  6
SLD-實線
 62
     8
100
AcDbLine
 10
2231.514755418912
 20
1764.592654461156
 30
0.0
 11
2227.040765589491
 21
1764.592654461156
 31
0.0
  0
SPLINE
  5
6F7
330
1F
100
AcDbEntity
  8
0
  6
SLD-實線
 62
     8
100
AcDbSpline
210
0.0
220
0.0
230
1.0
 70
     8
 71
     3
 72
    10
 73
     6
 74
     0
 42
0.000000001
 43
0.0000000001
 40
0.0
 40
0.0
 40
0.0
 40
0.0
 40
0.3334817519348831
 40
0.6644325149088287
 40
0.9999999999999998
 40
0.9999999999999998
 40
0.9999999999999998
 40
0.9999999999999998
 10
2238.879818251744
 20
1776.084496097755
 30
0.0
 10
2238.895617625713
 20
1776.077302716805
 30
0.0
 10
2238.927096462921
 20
1776.0629705497
 30
0.0
 10
2238.957595186459
 20
1776.017827064803
 30
0.0
 10
2238.960837180095
 20
1775.972233781325
 30
0.0
 10
2238.962469404951
 20
1775.949279235791
 30
0.0
  0
LINE
  5
6F8
330
1F
100
AcDbEntity
  8
0
  6
SLD-實線
 62
     8
100
AcDbLine
 10
2237.747406369463
 20
1771.39265501697
 30
0.0
 11
2237.746545827404
 21
1771.492654847097
 31
0.0
  0
LWPOLYLINE
  5
6F9
330
1F
100
AcDbEntity
  8
0
  6
SLD-實線
 62
     8
100
AcDbPolyline
 90
        3
 70
     0
 43
0.0
 10
2239.22313728036
 20
1766.995728405308
 10
2239.245367950216
 20
1766.908975707482
 10
2239.276269233242
 20
1766.636815311503
  0
LINE
  5
6FA
330
1F
100
AcDbEntity
  8
0
  6
SLD-實線
 62
     8
100
AcDbLine
 10
2184.563332951084
 20
1771.492654847097
 30
0.0
 11
2184.562472409025
 21
1771.39265501697
 31
0.0
  0
LWPOLYLINE
  5
6FB
330
1F
100
AcDbEntity
  8
0
  6
SLD-實線
 62
     8
100
AcDbPolyline
 90
        3
 70
     0
 43
0.0
 10
2183.086741498128
 20
1766.995728405308
 10
2183.064510828272
 20
1766.908975707482
 10
2183.033609545246
 20
1766.636815311503
  0
LWPOLYLINE
  5
6FC
330
1F
100
AcDbEntity
  8
0
  6
SLD-實線
 62
     8
100
AcDbPolyline
 90
        3
 70
     0
 43
0.0
 10
2239.226244172469
 20
1766.639730351161
 10
2239.247428035751
 20
1766.639117540907
 10
2239.276269233242
 20
1766.636815311503
  0
LWPOLYLINE
  5
6FD
330
1F
100
AcDbEntity
  8
0
  6
SLD-實線
 62
     8
100
AcDbPolyline
 90
        3
 70
     0
 43
0.0
 10
2183.033609545246
 20
1766.636815311503
 10
2183.062450742736
 20
1766.639117540907
 10
2183.083634606019
 20
1766.639730351161
  0
LINE
  5
6FE
330
1F
100
AcDbEntity
  8
0
  6
SLD-實線
 62
     8
100
AcDbLine
 10
2181.562931990638
 20
1751.892654381808
 30
0.0
 11
2181.154940059796
 21
1751.548165728453
 31
0.0
  0
LINE
  5
6FF
330
1F
100
AcDbEntity
  8
0
  6
SLD-實線
 62
     8
100
AcDbLine
 10
2240.746944925204
 20
1751.892654381808
 30
0.0
 11
2241.154938718691
 21
1751.548165728453
 31
0.0
  0
LINE
  5
700
330
1F
100
AcDbEntity
  8
0
  6
SLD-實線
 62
     7
100
AcDbLine
 10
2275.177400119306
 20
1751.892654381808
 30
0.0
 11
2275.177400119306
 21
1752.892654545721
 31
0.0
  0
LINE
  5
701
330
1F
100
AcDbEntity
  8
0
  6
SLD-實線
 62
     7
100
AcDbLine
 10
2275.177400119306
 20
1752.892654545721
 30
0.0
 11
2268.177399903239
 21
1752.892654545721
 31
0.0
  0
LINE
  5
702
330
1F
100
AcDbEntity
  8
0
  6
SLD-實線
 62
     7
100
AcDbLine
 10
2268.177399903239
 20
1752.892654545721
 30
0.0
 11
2268.177399903239
 21
1751.892654381808
 31
0.0
  0
LINE
  5
703
330
1F
100
AcDbEntity
  8
0
  6
SLD-實線
 62
     7
100
AcDbLine
 10
2254.327125407459
 20
1751.892654381808
 30
0.0
 11
2268.177399903239
 21
1751.892654381808
 31
0.0
  0
LINE
  5
704
330
1F
100
AcDbEntity
  8
0
  6
SLD-實線
 62
     7
100
AcDbLine
 10
2254.716299034358
 20
1774.188388528418
 30
0.0
 11
2254.327125407459
 21
1751.892654381808
 31
0.0
  0
LINE
  5
705
330
1F
100
AcDbEntity
  8
0
  6
SLD-實線
 62
     7
100
AcDbLine
 10
2277.021267011465
 20
1774.188388528418
 30
0.0
 11
2254.716299034358
 21
1774.188388528418
 31
0.0
  0
SPLINE
  5
706
330
1F
100
AcDbEntity
  8
0
  6
SLD-實線
 62
     7
100
AcDbSpline
210
0.0
220
0.0
230
1.0
 70
     8
 71
     3
 72
    14
 73
    10
 74
     0
 42
0.000000001
 43
0.0000000001
 40
0.0
 40
0.0
 40
0.0
 40
0.0
 40
0.1344284639298788
 40
0.2690235584287557
 40
0.4036187154889276
 40
0.5518051979663003
 40
0.6999917290646436
 40
0.8499958690132094
 40
1.0
 40
1.0
 40
1.0
 40
1.0
 10
2312.454144961835
 20
1767.563142271828
 30
0.0
 10
2310.931035381099
 20
1768.128361897947
 30
0.0
 10
2307.882928251789
 20
1769.259501767191
 30
0.0
 10
2303.20995281008
 20
1770.665637049654
 30
0.0
 10
2298.317302621304
 20
1771.894575398058
 30
0.0
 10
2293.203655896135
 20
1772.894195931458
 30
0.0
 10
2287.859093176684
 20
1773.634221496199
 30
0.0
 10
2282.459451866117
 20
1774.101128586394
 30
0.0
 10
2278.833995260249
 20
1774.159301881656
 30
0.0
 10
2277.021267011465
 20
1774.188388528418
 30
0.0
  0
LINE
  5
707
330
1F
100
AcDbEntity
  8
0
  6
SLD-實線
 62
     7
100
AcDbLine
 10
2312.642143599392
 20
1756.792654672753
 30
0.0
 11
2312.454144961835
 21
1767.563142271828
 31
0.0
  0
LINE
  5
708
330
1F
100
AcDbEntity
  8
0
  6
SLD-實線
 62
     7
100
AcDbLine
 10
2286.73561455466
 20
1756.792654672753
 30
0.0
 11
2312.642143599392
 21
1756.792654672753
 31
0.0
  0
ARC
  5
709
330
1F
100
AcDbEntity
  8
0
  6
SLD-實線
 62
     7
100
AcDbCircle
 10
2286.735614460966
 20
1753.792654456686
 30
0.0
 40
3.000000000000001
100
AcDbArc
 50
90.0
 51
157.6819980528334
  0
ARC
  5
70A
330
1F
100
AcDbEntity
  8
0
  6
SLD-實線
 62
     7
100
AcDbCircle
 10
2279.427399904729
 20
1756.792654456686
 30
0.0
 40
4.900000000000015
100
AcDbArc
 50
270.0
 51
337.6819980528235
  0
LINE
  5
70B
330
1F
100
AcDbEntity
  8
0
  6
SLD-實線
 62
     7
100
AcDbLine
 10
2275.177400119306
 20
1751.892654381808
 30
0.0
 11
2279.427399884613
 21
1751.892654381808
 31
0.0
  0
SPLINE
  5
70C
330
1F
100
AcDbEntity
  8
0
  6
SLD-實線
 62
     7
100
AcDbSpline
210
0.0
220
0.0
230
1.0
 70
    24
 71
     3
 72
    11
 73
     7
 74
     0
 42
0.000000001
 43
0.0000000001
 40
0.0
 40
0.0
 40
0.0
 40
0.0
 40
0.250000990652072
 40
0.5000024756923041
 40
0.7500006691625888
 40
1.0
 40
1.0
 40
1.0
 40
1.0
 10
2277.021267011465
 20
1774.188388528418
 30
0.0
 10
2277.021267011465
 20
1774.220726454835
 30
0.0
 10
2277.021267011465
 20
1774.285402371618
 30
0.0
 10
2277.021267011465
 20
1774.378114535869
 30
0.0
 10
2277.021267011465
 20
1774.464349126972
 30
0.0
 10
2277.021267011465
 20
1774.51230820693
 30
0.0
 10
2277.021267011465
 20
1774.536287801456
 30
0.0
  0
SPLINE
  5
70D
330
1F
100
AcDbEntity
  8
0
  6
SLD-實線
 62
     7
100
AcDbSpline
210
0.0
220
0.0
230
1.0
 70
     8
 71
     3
 72
    14
 73
    10
 74
     0
 42
0.000000001
 43
0.0000000001
 40
0.0
 40
0.0
 40
0.0
 40
0.0
 40
0.1500040831991885
 40
0.3000081778055468
 40
0.4481946798185095
 40
0.5963811200779763
 40
0.7309763426537389
 40
0.8655715348288946
 40
0.9999999999999998
 40
0.9999999999999998
 40
0.9999999999999998
 40
0.9999999999999998
 10
2277.021267011465
 20
1774.536287801456
 30
0.0
 10
2278.840475014821
 20
1774.507098218155
 30
0.0
 10
2282.478891159875
 20
1774.448719049334
 30
0.0
 10
2287.897835028912
 20
1773.980155226167
 30
0.0
 10
2293.261505869541
 20
1773.237508244059
 30
0.0
 10
2298.393439282965
 20
1772.234344843771
 30
0.0
 10
2303.30359080483
 20
1771.001048951676
 30
0.0
 10
2307.993286648316
 20
1769.589929419218
 30
0.0
 10
2311.052303780935
 20
1768.454777696575
 30
0.0
 10
2312.580864436628
 20
1767.887553589534
 30
0.0
  0
ARC
  5
70E
330
1F
100
AcDbEntity
  8
0
  6
SLD-實線
 62
     7
100
AcDbCircle
 10
2367.114587278811
 20
1746.398984600923
 30
0.0
 40
58.61472105372776
100
AcDbArc
 50
158.4934842142486
 51
158.8339299627229
  0
SPLINE
  5
70F
330
1F
100
AcDbEntity
  8
0
  6
SLD-實線
 62
     7
100
AcDbSpline
210
0.0
220
0.0
230
1.0
 70
     8
 71
     3
 72
    15
 73
    11
 74
     0
 42
0.000000001
 43
0.0000000001
 40
0.0
 40
0.0
 40
0.0
 40
0.0
 40
0.13521849010449
 40
0.2705998264363809
 40
0.4059811359015424
 40
0.5413624018931701
 40
0.6767436479159748
 40
0.8121248875087381
 40
0.9475061295282316
 40
1.0
 40
1.0
 40
1.0
 40
1.0
 10
2312.402808598877
 20
1769.470662267994
 30
0.0
 10
2310.870263518611
 20
1770.026732490677
 30
0.0
 10
2307.803327684574
 20
1771.139542622102
 30
0.0
 10
2303.105234817661
 20
1772.520587291342
 30
0.0
 10
2298.348731659534
 20
1773.686904084211
 30
0.0
 10
2293.539226640088
 20
1774.6137032975
 30
0.0
 10
2288.690490418457
 20
1775.305952689416
 30
0.0
 10
2283.813596077149
 20
1775.756303721931
 30
0.0
 10
2279.91883553734
 20
1775.932351730431
 30
0.0
 10
2277.654063244179
 20
1775.945582459848
 30
0.0
 10
2277.021267011465
 20
1775.949279235791
 30
0.0
  0
SPLINE
  5
710
330
1F
100
AcDbEntity
  8
0
  6
SLD-實線
 62
     7
100
AcDbSpline
210
0.0
220
0.0
230
1.0
 70
     8
 71
     3
 72
    10
 73
     6
 74
     0
 42
0.000000001
 43
0.0000000001
 40
0.0
 40
0.0
 40
0.0
 40
0.0
 40
0.4054754938029399
 40
0.7019219184562319
 40
1.0
 40
1.0
 40
1.0
 40
1.0
 10
2313.726549528242
 20
1768.177833797525
 30
0.0
 10
2313.621347147609
 20
1768.385700474404
 30
0.0
 10
2313.439230452596
 20
1768.745540165944
 30
0.0
 10
2312.9625628917
 20
1769.204999027509
 30
0.0
 10
2312.589734435786
 20
1769.381945979079
 30
0.0
 10
2312.402808598877
 20
1769.470662267994
 30
0.0
  0
SPLINE
  5
711
330
1F
100
AcDbEntity
  8
0
  6
SLD-實線
 62
     7
100
AcDbSpline
210
0.0
220
0.0
230
1.0
 70
     8
 71
     3
 72
    12
 73
     8
 74
     0
 42
0.000000001
 43
0.0000000001
 40
0.0
 40
0.0
 40
0.0
 40
0.0
 40
0.2014688123401163
 40
0.4036304645486236
 40
0.5940892972386449
 40
0.8501968577895654
 40
1.0
 40
1.0
 40
1.0
 40
1.0
 10
2312.580864436628
 20
1767.887553589534
 30
0.0
 10
2312.678012538777
 20
1767.856166352439
 30
0.0
 10
2312.872642829914
 20
1767.793283939315
 30
0.0
 10
2313.162336711939
 20
1767.792642395337
 30
0.0
 10
2313.430717020084
 20
1767.872954285424
 30
0.0
 10
2313.615868107075
 20
1768.013015650305
 30
0.0
 10
2313.696713264803
 20
1768.133403959093
 30
0.0
 10
2313.726549528242
 20
1768.177833797525
 30
0.0
  0
LINE
  5
712
330
1F
100
AcDbEntity
  8
0
  6
SLD-實線
 62
     7
100
AcDbLine
 10
2277.021267011465
 20
1775.949279235791
 30
0.0
 11
2277.021267011465
 21
1774.536287801456
 31
0.0
  0
LINE
  5
713
330
1F
100
AcDbEntity
  8
0
  6
SLD-實線
 62
     7
100
AcDbLine
 10
2254.327125407459
 20
1751.892654381808
 30
0.0
 11
2252.528085864784
 21
1751.892654381808
 31
0.0
  0
ELLIPSE
  5
714
330
1F
100
AcDbEntity
  8
0
  6
SLD-實線
 62
     7
100
AcDbEllipse
 10
2254.227133371252
 20
1746.132680238955
 30
0.0
 11
3.599999979126101
 21
206.259567840844
 31
0.0
210
0.0
220
0.0
230
1.0
 40
0.0087255388489138
 41
1.452526229893894
 42
1.543019137159296
  0
SPLINE
  5
715
330
1F
100
AcDbEntity
  8
0
  6
SLD-實線
 62
     7
100
AcDbSpline
210
0.0
220
0.0
230
1.0
 70
     8
 71
     3
 72
     9
 73
     5
 74
     0
 42
0.000000001
 43
0.0000000001
 40
0.0
 40
0.0
 40
0.0
 40
0.0
 40
0.5011074806282986
 40
1.0
 40
1.0
 40
1.0
 40
1.0
 10
2252.86305279255
 20
1771.12218031485
 30
0.0
 10
2252.863891640805
 20
1771.027947437491
 30
0.0
 10
2252.865565629496
 20
1770.83989820454
 30
0.0
 10
2252.865028705511
 20
1770.614053439517
 30
0.0
 10
2252.864760838152
 20
1770.501381175708
 30
0.0
  0
LINE
  5
716
330
1F
100
AcDbEntity
  8
0
  6
SLD-實線
 62
     7
100
AcDbLine
 10
2252.86305279255
 20
1771.12218031485
 30
0.0
 11
2252.916574038268
 21
1774.188397841643
 31
0.0
  0
SPLINE
  5
717
330
1F
100
AcDbEntity
  8
0
  6
SLD-實線
 62
     7
100
AcDbSpline
210
0.0
220
0.0
230
1.0
 70
     8
 71
     3
 72
    15
 73
    11
 74
     0
 42
0.000000001
 43
0.0000000001
 40
0.0
 40
0.0
 40
0.0
 40
0.0
 40
0.059721693324838
 40
0.2369303769424696
 40
0.4514154561361219
 40
0.4999735074927669
 40
0.5421491717666669
 40
0.7122742304429077
 40
0.9267587900615097
 40
0.9999999999999998
 40
0.9999999999999998
 40
0.9999999999999998
 40
0.9999999999999998
 10
2254.716299034358
 20
1774.188397841643
 30
0.0
 10
2254.660208458645
 20
1774.189387962155
 30
0.0
 10
2254.437683601984
 20
1774.193316009287
 30
0.0
 10
2254.019590212477
 20
1774.199085193014
 30
0.0
 10
2253.657387132197
 20
1774.201715161637
 30
0.0
 10
2253.447096485435
 20
1774.202014441146
 30
0.0
 10
2253.279480286808
 20
1774.201789400249
 30
0.0
 10
2253.055872505382
 20
1774.199732512127
 30
0.0
 10
2252.928625446193
 20
1774.194318348042
 30
0.0
 10
2252.91901930265
 20
1774.189599128954
 30
0.0
 10
2252.916574038268
 20
1774.188397841643
 30
0.0
  0
LINE
  5
718
330
1F
100
AcDbEntity
  8
0
  6
SLD-實線
 62
     7
100
AcDbLine
 10
2314.263093776704
 20
1767.034706117701
 30
0.0
 11
2314.441870458127
 21
1756.792654672753
 31
0.0
  0
SPLINE
  5
719
330
1F
100
AcDbEntity
  8
0
  6
SLD-實線
 62
     7
100
AcDbSpline
210
0.0
220
0.0
230
1.0
 70
     8
 71
     3
 72
    12
 73
     8
 74
     0
 42
0.000000001
 43
0.0000000001
 40
0.0
 40
0.0
 40
0.0
 40
0.0
 40
0.1419438497189866
 40
0.3934414000423215
 40
0.5875518239246138
 40
0.796066878550226
 40
1.0
 40
1.0
 40
1.0
 40
1.0
 10
2314.037978209258
 20
1767.857732640695
 30
0.0
 10
2313.996109915011
 20
1767.813233060356
 30
0.0
 10
2313.880058953039
 20
1767.68988867295
 30
0.0
 10
2313.620234587675
 20
1767.551137617743
 30
0.0
 10
2313.253252972023
 20
1767.472104861896
 30
0.0
 10
2312.860807856579
 20
1767.470554858794
 30
0.0
 10
2312.588691603396
 20
1767.532509220139
 30
0.0
 10
2312.454144961835
 20
1767.563142271828
 30
0.0
  0
SPLINE
  5
71A
330
1F
100
AcDbEntity
  8
0
  6
SLD-實線
 62
     7
100
AcDbSpline
210
0.0
220
0.0
230
1.0
 70
     8
 71
     3
 72
    13
 73
     9
 74
     0
 42
0.000000001
 43
0.0000000001
 40
0.0
 40
0.0
 40
0.0
 40
0.0
 40
0.0080436200738035
 40
0.0375189725210348
 40
0.0941373356950323
 40
0.2370209523186923
 40
0.6112968392296459
 40
1.0
 40
1.0
 40
1.0
 40
1.0
 10
2314.263093776704
 20
1767.034706117701
 30
0.0
 10
2314.263052048236
 20
1767.036953758291
 30
0.0
 10
2314.262857408355
 20
1767.047437739979
 30
0.0
 10
2314.26208519282
 20
1767.073734686008
 30
0.0
 10
2314.258894212513
 20
1767.137674115124
 30
0.0
 10
2314.24253158081
 20
1767.297560383419
 30
0.0
 10
2314.187531644913
 20
1767.549083075759
 30
0.0
 10
2314.088453846302
 20
1767.753560621208
 30
0.0
 10
2314.037978209258
 20
1767.857732640695
 30
0.0
  0
LINE
  5
71B
330
1F
100
AcDbEntity
  8
0
  6
SLD-實線
 62
     7
100
AcDbLine
 10
2314.441870458127
 20
1756.792654672753
 30
0.0
 11
2312.642143599392
 21
1756.792654672753
 31
0.0
  0
ARC
  5
71C
330
1F
100
AcDbEntity
  8
0
  6
SLD-實線
 62
     7
100
AcDbCircle
 10
2313.466593378028
 20
1767.613374456754
 30
0.0
 40
0.6214431168003653
100
AcDbArc
 50
23.15443676282691
 51
65.27203495466628
  0
SPLINE
  5
71D
330
1F
100
AcDbEntity
  8
0
  6
SLD-實線
 62
     7
100
AcDbSpline
210
0.0
220
0.0
230
1.0
 70
     8
 71
     3
 72
    11
 73
     7
 74
     0
 42
0.000000001
 43
0.0000000001
 40
0.0
 40
0.0
 40
0.0
 40
0.0
 40
0.2500012321334509
 40
0.5000003609944401
 40
0.7499975864882047
 40
1.0
 40
1.0
 40
1.0
 40
1.0
 10
2252.916574038268
 20
1774.188394116353
 30
0.0
 10
2252.918945144728
 20
1774.220733360516
 30
0.0
 10
2252.923687337698
 20
1774.285411576771
 30
0.0
 10
2252.954594469013
 20
1774.37812587828
 30
0.0
 10
2253.000576690852
 20
1774.464362911265
 30
0.0
 10
2253.044230012254
 20
1774.512322606289
 30
0.0
 10
2253.06605689943
 20
1774.536302702617
 30
0.0
  0
SPLINE
  5
71E
330
1F
100
AcDbEntity
  8
0
  6
SLD-實線
 62
     7
100
AcDbSpline
210
0.0
220
0.0
230
1.0
 70
     8
 71
     3
 72
    17
 73
    13
 74
     0
 42
0.000000001
 43
0.0000000001
 40
0.0
 40
0.0
 40
0.0
 40
0.0
 40
0.0000237473381551
 40
0.0723174874031867
 40
0.2872057855475472
 40
0.4577355620620386
 40
0.5000269707407856
 40
0.5487157020229573
 40
0.7637499402753836
 40
0.9412335191850226
 40
0.9999769716076482
 40
1.0
 40
1.0
 40
1.0
 40
1.0
 10
2253.066071800591
 20
1774.536315741133
 30
0.0
 10
2253.066071800465
 20
1774.536316362067
 30
0.0
 10
2253.066071416991
 20
1774.538207287314
 30
0.0
 10
2253.079983747109
 20
1774.539856606549
 30
0.0
 10
2253.192261153017
 20
1774.546075374504
 30
0.0
 10
2253.399033849195
 20
1774.54734343279
 30
0.0
 10
2253.553383828521
 20
1774.54756419904
 30
0.0
 10
2253.747179467177
 20
1774.547269600182
 30
0.0
 10
2254.080959504655
 20
1774.545676180686
 30
0.0
 10
2254.465178678408
 20
1774.539212105453
 30
0.0
 10
2254.669147882183
 20
1774.537900963311
 30
0.0
 10
2254.719849856896
 20
1774.536316362079
 30
0.0
 10
2254.719869725109
 20
1774.536315741133
 30
0.0
  0
SPLINE
  5
71F
330
1F
100
AcDbEntity
  8
0
  6
SLD-實線
 62
     7
100
AcDbSpline
210
0.0
220
0.0
230
1.0
 70
     8
 71
     3
 72
    11
 73
     7
 74
     0
 42
0.000000001
 43
0.0000000001
 40
0.0
 40
0.0
 40
0.0
 40
0.0
 40
0.2500012321334509
 40
0.5000003609944401
 40
0.7499975864882047
 40
1.0
 40
1.0
 40
1.0
 40
1.0
 10
2254.716299034358
 20
1774.188394116353
 30
0.0
 10
2254.716596491739
 20
1774.220733360516
 30
0.0
 10
2254.717191403999
 20
1774.285411576771
 30
0.0
 10
2254.718082778186
 20
1774.37812587828
 30
0.0
 10
2254.718978161548
 20
1774.464362911265
 30
0.0
 10
2254.7195725352
 20
1774.512322606289
 30
0.0
 10
2254.719869725109
 20
1774.536302702617
 30
0.0
  0
LINE
  5
720
330
1F
100
AcDbEntity
  8
0
  6
SLD-實線
 62
     7
100
AcDbLine
 10
2254.719869725109
 20
1774.536287801456
 30
0.0
 11
2277.021267011465
 21
1774.536287801456
 31
0.0
  0
SPLINE
  5
721
330
1F
100
AcDbEntity
  8
0
  6
SLD-實線
 62
     7
100
AcDbSpline
210
0.0
220
0.0
230
1.0
 70
     8
 71
     3
 72
    11
 73
     7
 74
     0
 42
0.000000001
 43
0.0000000001
 40
0.0
 40
0.0
 40
0.0
 40
0.0
 40
0.2506053309301159
 40
0.5
 40
0.7493946690698841
 40
0.9999999999999998
 40
0.9999999999999998
 40
0.9999999999999998
 40
0.9999999999999998
 10
2254.719869725109
 20
1775.949279235791
 30
0.0
 10
2254.697999687055
 20
1775.959320629987
 30
0.0
 10
2254.654365264009
 20
1775.979354908905
 30
0.0
 10
2254.591835400468
 20
1775.990603405946
 30
0.0
 10
2254.540229769476
 20
1775.979354908905
 30
0.0
 10
2254.516037971125
 20
1775.959320629987
 30
0.0
 10
2254.503912783862
 20
1775.949279235791
 30
0.0
  0
LINE
  5
722
330
1F
100
AcDbEntity
  8
0
  6
SLD-實線
 62
     7
100
AcDbLine
 10
2254.719869725109
 20
1775.949279235791
 30
0.0
 11
2254.719869725109
 21
1774.536302702617
 31
0.0
  0
LINE
  5
723
330
1F
100
AcDbEntity
  8
0
  6
SLD-實線
 62
     7
100
AcDbLine
 10
2254.503875530959
 20
1775.949243845533
 30
0.0
 11
2253.06605689943
 21
1774.536302702617
 31
0.0
  0
LINE
  5
724
330
1F
100
AcDbEntity
  8
0
  6
SLD-實線
 62
     7
100
AcDbLine
 10
2277.021267011465
 20
1775.949279235791
 30
0.0
 11
2254.719869725109
 21
1775.949279235791
 31
0.0
  0
SPLINE
  5
725
330
1F
100
AcDbEntity
  8
0
  6
SLD-實線
 62
     7
100
AcDbSpline
210
0.0
220
0.0
230
1.0
 70
     8
 71
     3
 72
    10
 73
     6
 74
     0
 42
0.000000001
 43
0.0000000001
 40
0.0
 40
0.0
 40
0.0
 40
0.0
 40
0.3048637853365305
 40
0.6027709868504936
 40
1.0
 40
1.0
 40
1.0
 40
1.0
 10
2312.455685369374
 20
1769.60416177113
 30
0.0
 10
2312.681747768395
 20
1769.497000178099
 30
0.0
 10
2313.128714124853
 20
1769.285122276261
 30
0.0
 10
2313.706161721859
 20
1768.732262482997
 30
0.0
 10
2313.931567049805
 20
1768.287223823261
 30
0.0
 10
2314.060372791888
 20
1768.03291069169
 30
0.0
  0
ARC
  5
726
330
1F
100
AcDbEntity
  8
0
  6
SLD-實線
 62
     7
100
AcDbCircle
 10
2313.789882510744
 20
1767.866783907979
 30
0.0
 40
0.3174320406940483
100
AcDbArc
 50
31.55696231174623
 51
101.5086964176507
  0
ARC
  5
727
330
1F
100
AcDbEntity
  8
0
  6
SLD-實線
 62
     7
100
AcDbCircle
 10
2315.624828074961
 20
1768.27169938413
 30
0.0
 40
3.437865835244604
100
AcDbArc
 50
157.1957371252067
 51
159.5889938506985
  0
ARC
  5
728
330
1F
100
AcDbEntity
  8
0
  6
SLD-實線
 62
     7
100
AcDbCircle
 10
2313.867194114003
 20
1767.968585980274
 30
0.0
 40
0.203606655313081
100
AcDbArc
 50
327.0130153894485
 51
18.41674692636672
  0
SPLINE
  5
729
330
1F
100
AcDbEntity
  8
0
  6
SLD-實線
 62
     7
100
AcDbSpline
210
0.0
220
0.0
230
1.0
 70
     8
 71
     3
 72
    12
 73
     8
 74
     0
 42
0.000000001
 43
0.0000000001
 40
0.0
 40
0.0
 40
0.0
 40
0.0
 40
0.3882940136307055
 40
0.8598042382940798
 40
0.9654843632694712
 40
0.991054110274103
 40
1.0
 40
1.0
 40
1.0
 40
1.0
 10
2314.060372791888
 20
1768.03291069169
 30
0.0
 10
2314.105286812619
 20
1767.906360834474
 30
0.0
 10
2314.204740484395
 20
1767.626139919987
 30
0.0
 10
2314.251428615221
 20
1767.300285939543
 30
0.0
 10
2314.261618897733
 20
1767.096773028047
 30
0.0
 10
2314.262821992189
 20
1767.049396301231
 30
0.0
 10
2314.263037834023
 20
1767.03772986704
 30
0.0
 10
2314.263093776704
 20
1767.034706117701
 30
0.0
  0
SPLINE
  5
72A
330
1F
100
AcDbEntity
  8
0
  6
SLD-實線
 62
     7
100
AcDbSpline
210
0.0
220
0.0
230
1.0
 70
     8
 71
     3
 72
    15
 73
    11
 74
     0
 42
0.000000001
 43
0.0000000001
 40
0.0
 40
0.0
 40
0.0
 40
0.0
 40
0.0524938504247195
 40
0.1877122616867221
 40
0.3232564560612811
 40
0.4584748610730856
 40
0.5940190355942193
 40
0.7292374267259644
 40
0.8647815854534435
 40
1.0
 40
1.0
 40
1.0
 40
1.0
 10
2277.021267011465
 20
1776.092654483508
 30
0.0
 10
2277.655009547721
 20
1776.088949589234
 30
0.0
 10
2279.921203470345
 20
1776.075701292953
 30
0.0
 10
2283.821800779572
 20
1775.899657040319
 30
0.0
 10
2288.704032325757
 20
1775.448732155085
 30
0.0
 10
2293.562013189668
 20
1774.755508684102
 30
0.0
 10
2298.376771781045
 20
1773.827601185075
 30
0.0
 10
2303.142368796702
 20
1772.659383063783
 30
0.0
 10
2307.84748277941
 20
1771.276216976907
 30
0.0
 10
2310.920850323356
 20
1770.161066307899
 30
0.0
 10
2312.455685369374
 20
1769.60416177113
 30
0.0
  0
SPLINE
  5
72B
330
1F
100
AcDbEntity
  8
0
  6
SLD-實線
 62
     7
100
AcDbSpline
210
0.0
220
0.0
230
1.0
 70
    24
 71
     3
 72
    11
 73
     7
 74
     0
 42
0.000000001
 43
0.0000000001
 40
0.0
 40
0.0
 40
0.0
 40
0.0
 40
0.2500011486095852
 40
0.5000014792706147
 40
0.7499994533238558
 40
1.0
 40
1.0
 40
1.0
 40
1.0
 10
2277.021267011465
 20
1776.092654483508
 30
0.0
 10
2277.021267011465
 20
1776.090848577211
 30
0.0
 10
2277.021267011465
 20
1776.087236770525
 30
0.0
 10
2277.021267011465
 20
1776.057954467107
 30
0.0
 10
2277.021267011465
 20
1776.01348964509
 30
0.0
 10
2277.021267011465
 20
1775.970682778975
 30
0.0
 10
2277.021267011465
 20
1775.949279235791
 30
0.0
  0
LINE
  5
72C
330
1F
100
AcDbEntity
  8
0
  6
SLD-實線
 62
     7
100
AcDbLine
 10
2254.854367606045
 20
1776.092654483508
 30
0.0
 11
2277.021267011465
 21
1776.092654483508
 31
0.0
  0
SPLINE
  5
72D
330
1F
100
AcDbEntity
  8
0
  6
SLD-實線
 62
     7
100
AcDbSpline
210
0.0
220
0.0
230
1.0
 70
     8
 71
     3
 72
    10
 73
     6
 74
     0
 42
0.000000001
 43
0.0000000001
 40
0.0
 40
0.0
 40
0.0
 40
0.0
 40
0.4992719157028636
 40
0.7478649872428586
 40
1.0
 40
1.0
 40
1.0
 40
1.0
 10
2254.854367606045
 20
1776.092654483508
 30
0.0
 10
2254.818903837337
 20
1776.086832270589
 30
0.0
 10
2254.7657822615
 20
1776.078111112732
 30
0.0
 10
2254.724667637046
 20
1776.017794297501
 30
0.0
 10
2254.721476553219
 20
1775.972225035667
 30
0.0
 10
2254.719869725109
 20
1775.949279235791
 30
0.0
  0
SPLINE
  5
72E
330
1F
100
AcDbEntity
  8
0
  6
SLD-實線
 62
     7
100
AcDbSpline
210
0.0
220
0.0
230
1.0
 70
     8
 71
     3
 72
    11
 73
     7
 74
     0
 42
0.000000001
 43
0.0000000001
 40
0.0
 40
0.0
 40
0.0
 40
0.0
 40
0.2502817198803467
 40
0.5002990853922562
 40
0.7484189222133697
 40
0.9999999999999998
 40
0.9999999999999998
 40
0.9999999999999998
 40
0.9999999999999998
 10
2254.854367606045
 20
1776.092654483508
 30
0.0
 10
2254.824423720892
 20
1776.091136284257
 30
0.0
 10
2254.764567578134
 20
1776.088101489316
 30
0.0
 10
2254.674324796444
 20
1776.062020133818
 30
0.0
 10
2254.583063810577
 20
1776.018067773611
 30
0.0
 10
2254.530418012006
 20
1775.972314387251
 30
0.0
 10
2254.503912783862
 20
1775.949279235791
 30
0.0
  0
LINE
  5
72F
330
1F
100
AcDbEntity
  8
0
  6
SLD-實線
 62
     7
100
AcDbLine
 10
2277.021267011465
 20
1776.592653634142
 30
0.0
 11
2277.021267011465
 21
1776.092654483508
 31
0.0
  0
ARC
  5
730
330
1F
100
AcDbEntity
  8
0
  6
SLD-實線
 62
     7
100
AcDbCircle
 10
2277.021267072884
 20
1676.092654456686
 30
0.0
 40
100.5
100
AcDbArc
 50
75.68669816892708
 51
90.0
  0
SPLINE
  5
731
330
1F
100
AcDbEntity
  8
0
  6
SLD-實線
 62
     7
100
AcDbSpline
210
0.0
220
0.0
230
1.0
 70
     8
 71
     3
 72
    12
 73
     8
 74
     0
 42
0.000000001
 43
0.0000000001
 40
0.0
 40
0.0
 40
0.0
 40
0.0
 40
0.0062988473808027
 40
0.0900299243505416
 40
0.4451594170350212
 40
0.8002708596246453
 40
1.0
 40
1.0
 40
1.0
 40
1.0
 10
2301.867275990249
 20
1773.472970740985
 30
0.0
 10
2301.887548883365
 20
1773.467788847707
 30
0.0
 10
2302.177310949863
 20
1773.393723636786
 30
0.0
 10
2303.60671143394
 20
1773.014376061576
 30
0.0
 10
2306.125622883005
 20
1772.223845742948
 30
0.0
 10
2308.949636738594
 20
1771.125544736205
 30
0.0
 10
2310.624492133238
 20
1770.342348376718
 30
0.0
 10
2311.227399415971
 20
1770.060416700434
 30
0.0
  0
LINE
  5
732
330
1F
100
AcDbEntity
  8
0
  6
SLD-實線
 62
     7
100
AcDbLine
 10
2258.577400378586
 20
1776.592653634142
 30
0.0
 11
2277.021267011465
 21
1776.592653634142
 31
0.0
  0
LINE
  5
733
330
1F
100
AcDbEntity
  8
0
  6
SLD-實線
 62
     7
100
AcDbLine
 10
2258.577400378586
 20
1776.592653634142
 30
0.0
 11
2258.577400378586
 21
1776.092654483508
 31
0.0
  0
LINE
  5
734
330
1F
100
AcDbEntity
  8
0
  6
SLD-實線
 62
     7
100
AcDbLine
 10
2258.443425900937
 20
1776.592653634142
 30
0.0
 11
2258.577400378586
 21
1776.592653634142
 31
0.0
  0
ARC
  5
735
330
1F
100
AcDbEntity
  8
0
  6
SLD-實線
 62
     7
100
AcDbCircle
 10
2258.443425308513
 20
1775.592654456686
 30
0.0
 40
1.000000000000008
100
AcDbArc
 50
90.0
 51
150.0000000000027
  0
LINE
  5
736
330
1F
100
AcDbEntity
  8
0
  6
SLD-實線
 62
     7
100
AcDbLine
 10
2262.344307757617
 20
1776.602654175948
 30
0.0
 11
2262.344307757617
 21
1776.592653634142
 31
0.0
  0
LINE
  5
737
330
1F
100
AcDbEntity
  8
0
  6
SLD-實線
 62
     7
100
AcDbLine
 10
2263.160412691237
 20
1776.602654175948
 30
0.0
 11
2263.160412691237
 21
1776.592653634142
 31
0.0
  0
LINE
  5
738
330
1F
100
AcDbEntity
  8
0
  6
SLD-實線
 62
     7
100
AcDbLine
 10
2261.591903425456
 20
1776.602654175948
 30
0.0
 11
2261.591903425456
 21
1776.592653634142
 31
0.0
  0
LINE
  5
739
330
1F
100
AcDbEntity
  8
0
  6
SLD-實線
 62
     7
100
AcDbLine
 10
2260.160412199498
 20
1776.602654175948
 30
0.0
 11
2260.160412199498
 21
1776.592653634142
 31
0.0
  0
LINE
  5
73A
330
1F
100
AcDbEntity
  8
0
  6
SLD-實線
 62
     7
100
AcDbLine
 10
2260.737334869505
 20
1776.602654175948
 30
0.0
 11
2260.737334869505
 21
1776.592653634142
 31
0.0
  0
LINE
  5
73B
330
1F
100
AcDbEntity
  8
0
  6
SLD-實線
 62
     7
100
AcDbLine
 10
2260.737334869505
 20
1776.602654175948
 30
0.0
 11
2260.160412199498
 21
1776.602654175948
 31
0.0
  0
ARC
  5
73C
330
1F
100
AcDbEntity
  8
0
  6
SLD-實線
 62
     7
100
AcDbCircle
 10
2293.727399904729
 20
1775.194395742119
 30
0.0
 40
0.2500000000000101
100
AcDbArc
 50
350.3600311455032
 51
170.50255799703
  0
ARC
  5
73D
330
1F
100
AcDbEntity
  8
0
  6
SLD-實線
 62
     7
100
AcDbCircle
 10
2254.854367876706
 20
1775.592654456686
 30
0.0
 40
0.5
100
AcDbArc
 50
90.0
 51
134.5000000000229
  0
ARC
  5
73E
330
1F
100
AcDbEntity
  8
0
  6
SLD-實線
 62
     7
100
AcDbCircle
 10
2253.416497248634
 20
1774.179662925766
 30
0.0
 40
0.499999999999993
100
AcDbArc
 50
134.5000000000229
 51
178.9999999999982
  0
SPLINE
  5
73F
330
1F
100
AcDbEntity
  8
0
  6
SLD-實線
 62
     7
100
AcDbSpline
210
0.0
220
0.0
230
1.0
 70
     8
 71
     3
 72
    10
 73
     6
 74
     0
 42
0.000000001
 43
0.0000000001
 40
0.0
 40
0.0
 40
0.0
 40
0.0
 40
0.3336820612788319
 40
0.6669684314133546
 40
1.0
 40
1.0
 40
1.0
 40
1.0
 10
2280.913999485427
 20
1751.548165776276
 30
0.0
 10
2280.870008762275
 20
1751.596060207336
 30
0.0
 10
2280.782079481615
 20
1751.691792274669
 30
0.0
 10
2280.64221394663
 20
1751.832015279109
 30
0.0
 10
2280.545038720373
 20
1751.924244082739
 30
0.0
 10
2280.496469687263
 20
1751.970340850299
 30
0.0
  0
SPLINE
  5
740
330
1F
100
AcDbEntity
  8
0
  6
SLD-實線
 62
     7
100
AcDbSpline
210
0.0
220
0.0
230
1.0
 70
     8
 71
     3
 72
    23
 73
    19
 74
     0
 42
0.000000001
 43
0.0000000001
 40
0.0
 40
0.0
 40
0.0
 40
0.0
 40
0.0438770727812469
 40
0.0880709339369102
 40
0.1325816132471169
 40
0.1774091398289873
 40
0.2225535421549668
 40
0.2680148480705211
 40
0.3137930848112298
 40
0.3598882790192885
 40
0.4063004567594513
 40
0.4530296435344459
 40
0.5000758642998584
 40
0.6223167910108823
 40
0.7499870160871668
 40
0.8292089640641316
 40
0.9125467264451586
 40
1.0
 40
1.0
 40
1.0
 40
1.0
 10
2280.496469850371
 20
1751.97033992634
 30
0.0
 10
2280.567037716781
 20
1751.983985825995
 30
0.0
 10
2280.708682943018
 20
1752.011376147427
 30
0.0
 10
2280.919345503632
 20
1752.0644851096
 30
0.0
 10
2281.129077062168
 20
1752.126678101757
 30
0.0
 10
2281.337244987144
 20
1752.198893264713
 30
0.0
 10
2281.543401993248
 20
1752.280949432767
 30
0.0
 10
2281.74703606928
 20
1752.372938098137
 30
0.0
 10
2281.947639415053
 20
1752.474844799334
 30
0.0
 10
2282.144691796289
 20
1752.586651052023
 30
0.0
 10
2282.33766456759
 20
1752.708302423937
 30
0.0
 10
2282.526029101776
 20
1752.839727164193
 30
0.0
 10
2282.80641791202
 20
1753.055623557768
 30
0.0
 10
2283.166127624665
 20
1753.384843971898
 30
0.0
 10
2283.516339670342
 20
1753.79671195508
 30
0.0
 10
2283.78464487954
 20
1754.189430545671
 30
0.0
 10
2283.989817593857
 20
1754.544604821904
 30
0.0
 10
2284.102595411413
 20
1754.800740898978
 30
0.0
 10
2284.16034311038
 20
1754.931894962731
 30
0.0
  0
LINE
  5
741
330
1F
100
AcDbEntity
  8
0
  6
SLD-實線
 62
     7
100
AcDbLine
 10
2284.160343082791
 20
1754.931894986074
 30
0.0
 11
2284.636496941262
 21
1754.745291004073
 31
0.0
  0
SPLINE
  5
742
330
1F
100
AcDbEntity
  8
0
  6
SLD-實線
 62
     7
100
AcDbSpline
210
0.0
220
0.0
230
1.0
 70
     8
 71
     3
 72
    21
 73
    17
 74
     0
 42
0.000000001
 43
0.0000000001
 40
0.0
 40
0.0
 40
0.0
 40
0.0
 40
0.0500997717367925
 40
0.1000844180250445
 40
0.1500232638537089
 40
0.1999858248618375
 40
0.2500415178840835
 40
0.3124929441515047
 40
0.3750559144822302
 40
0.5000345993032181
 40
0.6250114995608318
 40
0.7499866743742789
 40
0.8124068175839148
 40
0.8749941406964556
 40
0.9374067284983183
 40
1.0
 40
1.0
 40
1.0
 40
1.0
 10
2284.636493975773
 20
1754.745291971381
 30
0.0
 10
2284.61021802297
 20
1754.683212620799
 30
0.0
 10
2284.557726497496
 20
1754.559196573241
 30
0.0
 10
2284.470359662138
 20
1754.377166350414
 30
0.0
 10
2284.376836081953
 20
1754.198467569034
 30
0.0
 10
2284.276524764537
 20
1754.023360145051
 30
0.0
 10
2284.16090740225
 20
1753.83779730959
 30
0.0
 10
2284.02802158825
 20
1753.643206408363
 30
0.0
 10
2283.825531517542
 20
1753.37451786767
 30
0.0
 10
2283.549201992934
 20
1753.056706371397
 30
0.0
 10
2283.183704196532
 20
1752.708007752599
 30
0.0
 10
2282.853397947557
 20
1752.447050685482
 30
0.0
 10
2282.575513173508
 20
1752.257355382353
 30
0.0
 10
2282.36066008106
 20
1752.125188707921
 30
0.0
 10
2282.140039551709
 20
1752.002282802873
 30
0.0
 10
2281.988498189918
 20
1751.929234287003
 30
0.0
 10
2281.91261798994
 20
1751.892657236838
 30
0.0
  0
SPLINE
  5
743
330
1F
100
AcDbEntity
  8
0
  6
SLD-實線
 62
     7
100
AcDbSpline
210
0.0
220
0.0
230
1.0
 70
     8
 71
     3
 72
    12
 73
     8
 74
     0
 42
0.000000001
 43
0.0000000001
 40
0.0
 40
0.0
 40
0.0
 40
0.0
 40
0.2003199342591511
 40
0.4001844840036568
 40
0.5998888428221081
 40
0.7997289141820204
 40
1.0
 40
1.0
 40
1.0
 40
1.0
 10
2281.912618010068
 20
1751.892657192755
 30
0.0
 10
2281.848025163608
 20
1751.864036086482
 30
0.0
 10
2281.718986308704
 20
1751.8068589379
 30
0.0
 10
2281.521577816958
 20
1751.730587974551
 30
0.0
 10
2281.321728192215
 20
1751.661646088031
 30
0.0
 10
2281.119306197736
 20
1751.59998749683
 30
0.0
 10
2280.982484186099
 20
1751.565452084067
 30
0.0
 10
2280.913999485428
 20
1751.548165776276
 30
0.0
  0
ARC
  5
744
330
1F
100
AcDbEntity
  8
0
  6
SLD-實線
 62
     7
100
AcDbCircle
 10
2279.627399904729
 20
1756.792654456686
 30
0.0
 40
4.900000000000005
100
AcDbArc
 50
270.0
 51
280.2160955229807
  0
ARC
  5
745
330
1F
100
AcDbEntity
  8
0
  6
SLD-實線
 62
     7
100
AcDbCircle
 10
2279.627399904729
 20
1756.792654456686
 30
0.0
 40
5.400000000000011
100
AcDbArc
 50
270.0
 51
283.7838186017464
  0
LINE
  5
746
330
1F
100
AcDbEntity
  8
0
  6
SLD-實線
 62
     7
100
AcDbLine
 10
2279.627400010527
 20
1751.892654381808
 30
0.0
 11
2279.627400010527
 21
1751.392654416267
 31
0.0
  0
LINE
  5
747
330
1F
100
AcDbEntity
  8
0
  6
SLD-實線
 62
     7
100
AcDbLine
 10
2312.727400593163
 20
1751.892654381808
 30
0.0
 11
2312.727674402
 21
1751.892654381808
 31
0.0
  0
LINE
  5
748
330
1F
100
AcDbEntity
  8
0
  6
SLD-實線
 62
     7
100
AcDbLine
 10
2281.912617993244
 20
1751.892654381808
 30
0.0
 11
2312.727400593163
 21
1751.892654381808
 31
0.0
  0
SPLINE
  5
749
330
1F
100
AcDbEntity
  8
0
  6
SLD-實線
 62
     7
100
AcDbSpline
210
0.0
220
0.0
230
1.0
 70
     8
 71
     3
 72
    19
 73
    15
 74
     0
 42
0.000000001
 43
0.0000000001
 40
0.0
 40
0.0
 40
0.0
 40
0.0
 40
0.0357698151047416
 40
0.0714648427946484
 40
0.1250588205359956
 40
0.2500193471517655
 40
0.3749814334185089
 40
0.4999456888066545
 40
0.6249125349559214
 40
0.7498821691767215
 40
0.8123169090974386
 40
0.8749399684303273
 40
0.9373348010206402
 40
1.0
 40
1.0
 40
1.0
 40
1.0
 10
2286.935614460967
 20
1756.286799444306
 30
0.0
 10
2286.900628214901
 20
1756.286363408398
 30
0.0
 10
2286.830728871902
 20
1756.285492248245
 30
0.0
 10
2286.708623865955
 20
1756.277509925726
 30
0.0
 10
2286.500378870328
 20
1756.253378203425
 30
0.0
 10
2286.209620522504
 20
1756.187842523311
 30
0.0
 10
2285.866467790173
 20
1756.055098600347
 30
0.0
 10
2285.546536377779
 20
1755.873261158463
 30
0.0
 10
2285.256856064611
 20
1755.64638662941
 30
0.0
 10
2285.045913531672
 20
1755.423769800694
 30
0.0
 10
2284.898148096902
 20
1755.228711046536
 30
0.0
 10
2284.798694439246
 20
1755.074555781229
 30
0.0
 10
2284.709853553749
 20
1754.913666686609
 30
0.0
 10
2284.660984328346
 20
1754.801496911967
 30
0.0
 10
2284.63649689063
 20
1754.745290775129
 30
0.0
  0
LINE
  5
74A
330
1F
100
AcDbEntity
  8
0
  6
SLD-實線
 62
     7
100
AcDbLine
 10
2312.650974400045
 20
1756.28679936577
 30
0.0
 11
2286.935614447744
 21
1756.28679936577
 31
0.0
  0
LINE
  5
74B
330
1F
100
AcDbEntity
  8
0
  6
SLD-實線
 62
     7
100
AcDbLine
 10
2312.727674402
 20
1751.892654381808
 30
0.0
 11
2312.650974400045
 21
1756.28679936577
 31
0.0
  0
LINE
  5
74C
330
1F
100
AcDbEntity
  8
0
  6
SLD-實線
 62
     7
100
AcDbLine
 10
2312.727400593163
 20
1751.392654416267
 30
0.0
 11
2312.727400593163
 21
1751.892654381808
 31
0.0
  0
LINE
  5
74D
330
1F
100
AcDbEntity
  8
0
  6
SLD-實線
 62
     7
100
AcDbLine
 10
2312.727400593163
 20
1751.392654416267
 30
0.0
 11
2279.627400010527
 21
1751.392654416267
 31
0.0
  0
ELLIPSE
  5
74E
330
1F
100
AcDbEntity
  8
0
  6
SLD-實線
 62
     7
100
AcDbEllipse
 10
2312.727399904729
 20
1751.876946094663
 30
0.0
 11
1.799999994781592
 21
0.0157083619778579
 31
0.0
210
0.0
220
0.0
230
1.0
 40
0.0087255388489256
 41
0.0
 42
1.570567863728437
  0
SPLINE
  5
74F
330
1F
100
AcDbEntity
  8
0
  6
SLD-實線
 62
     7
100
AcDbSpline
210
0.0
220
0.0
230
1.0
 70
     8
 71
     3
 72
    20
 73
    16
 74
     0
 42
0.000000001
 43
0.0000000001
 40
0.0
 40
0.0
 40
0.0
 40
0.0
 40
0.0432206446803085
 40
0.085834145568404
 40
0.1278405287845025
 40
0.1692398221602453
 40
0.2100320553323508
 40
0.2502172598433261
 40
0.3759465625795097
 40
0.5000670784293452
 40
0.624170238506113
 40
0.7499168948308098
 40
0.8308450901678876
 40
0.9142061247308783
 40
1.0
 40
1.0
 40
1.0
 40
1.0
 10
2314.450699818666
 20
1756.286799444306
 30
0.0
 10
2314.449900213046
 20
1756.286995884081
 30
0.0
 10
2314.448312234301
 20
1756.287386004134
 30
0.0
 10
2314.435669032183
 20
1756.287914853254
 30
0.0
 10
2314.415970640511
 20
1756.288394272055
 30
0.0
 10
2314.388906944457
 20
1756.288820353145
 30
0.0
 10
2314.355101244037
 20
1756.289194554434
 30
0.0
 10
2314.286317696399
 20
1756.289750105297
 30
0.0
 10
2314.156547953909
 20
1756.290309737179
 30
0.0
 10
2313.931644712611
 20
1756.290543094404
 30
0.0
 10
2313.657968464107
 20
1756.290309490258
 30
0.0
 10
2313.381529653051
 20
1756.289672461223
 30
0.0
 10
2313.122533674199
 20
1756.288835900142
 30
0.0
 10
2312.89114791031
 20
1756.287937271675
 30
0.0
 10
2312.731795899107
 20
1756.287182339323
 30
0.0
 10
2312.650973967385
 20
1756.286799444306
 30
0.0
  0
LINE
  5
750
330
1F
100
AcDbEntity
  8
0
  6
SLD-實線
 62
     7
100
AcDbLine
 10
2314.450699396135
 20
1756.28679936577
 30
0.0
 11
2314.52739939809
 21
1751.892654381808
 31
0.0
  0
LINE
  5
751
330
1F
100
AcDbEntity
  8
0
  6
SLD-實線
 62
     7
100
AcDbLine
 10
2314.52739939809
 20
1751.892654381808
 30
0.0
 11
2314.52739939809
 21
1751.392654416267
 31
0.0
  0
LINE
  5
752
330
1F
100
AcDbEntity
  8
0
  6
SLD-實線
 62
     7
100
AcDbLine
 10
2312.727400593163
 20
1751.392654416267
 30
0.0
 11
2314.52739939809
 21
1751.392654416267
 31
0.0
  0
LINE
  5
753
330
1F
100
AcDbEntity
  8
0
  6
SLD-實線
 62
     7
100
AcDbLine
 10
2312.727400593163
 20
1749.792654456686
 30
0.0
 11
2312.727400593163
 21
1751.392654416267
 31
0.0
  0
LINE
  5
754
330
1F
100
AcDbEntity
  8
0
  6
SLD-實線
 62
     7
100
AcDbLine
 10
2314.52739939809
 20
1751.392654416267
 30
0.0
 11
2314.52739939809
 21
1749.792654456686
 31
0.0
  0
LINE
  5
755
330
1F
100
AcDbEntity
  8
0
  6
SLD-實線
 62
     7
100
AcDbLine
 10
2314.52739939809
 20
1749.792654456686
 30
0.0
 11
2312.727400593163
 21
1749.792654456686
 31
0.0
  0
LINE
  5
756
330
1F
100
AcDbEntity
  8
0
  6
SLD-實線
 62
     7
100
AcDbLine
 10
2254.327399216295
 20
1751.392654416267
 30
0.0
 11
2254.327399216295
 21
1749.792654456686
 31
0.0
  0
LINE
  5
757
330
1F
100
AcDbEntity
  8
0
  6
SLD-實線
 62
     7
100
AcDbLine
 10
2279.627400010527
 20
1751.392654416267
 30
0.0
 11
2254.327399216295
 21
1751.392654416267
 31
0.0
  0
LINE
  5
758
330
1F
100
AcDbEntity
  8
0
  6
SLD-實線
 62
     7
100
AcDbLine
 10
2254.327399216295
 20
1749.792654456686
 30
0.0
 11
2312.727400593163
 21
1749.792654456686
 31
0.0
  0
LINE
  5
759
330
1F
100
AcDbEntity
  8
0
  6
SLD-實線
 62
     7
100
AcDbLine
 10
2268.177399903239
 20
1751.892654381808
 30
0.0
 11
2275.177400119306
 21
1751.892654381808
 31
0.0
  0
LINE
  5
75A
330
1F
100
AcDbEntity
  8
0
  6
SLD-實線
 62
     7
100
AcDbLine
 10
2279.427399884613
 20
1751.892654381808
 30
0.0
 11
2279.627400010527
 21
1751.892654381808
 31
0.0
  0
LINE
  5
75B
330
1F
100
AcDbEntity
  8
0
  6
SLD-實線
 62
     7
100
AcDbLine
 10
2254.327399216295
 20
1751.892654381808
 30
0.0
 11
2254.327399216295
 21
1751.392654416267
 31
0.0
  0
LINE
  5
75C
330
1F
100
AcDbEntity
  8
0
  6
SLD-實線
 62
     7
100
AcDbLine
 10
2252.527400411369
 20
1749.792654456686
 30
0.0
 11
2252.527400411369
 21
1751.392654416267
 31
0.0
  0
LWPOLYLINE
  5
75D
330
1F
100
AcDbEntity
  8
0
  6
SLD-實線
 62
     7
100
AcDbPolyline
 90
        9
 70
     0
 43
0.0
 10
2252.527400411369
 20
1751.392649177577
 10
2252.562729201914
 20
1751.392649293993
 10
2252.665666423441
 20
1751.392649526823
 10
2252.832266993524
 20
1751.3926501089
 10
2253.056147627236
 20
1751.392650690976
 10
2253.328730843664
 20
1751.392651505884
 10
2253.639576516749
 20
1751.392652437206
 10
2253.976771168114
 20
1751.392653368529
 10
2254.327399216295
 20
1751.392654416267
  0
LINE
  5
75E
330
1F
100
AcDbEntity
  8
0
  6
SLD-實線
 62
     7
100
AcDbLine
 10
2254.327399216295
 20
1749.792654456686
 30
0.0
 11
2252.527400411369
 21
1749.792654456686
 31
0.0
  0
LINE
  5
75F
330
1F
100
AcDbEntity
  8
0
  6
SLD-實線
 62
     7
100
AcDbLine
 10
2252.527400411369
 20
1751.392649177577
 30
0.0
 11
2253.025108508469
 21
1751.890362629782
 31
0.0
  0
SPLINE
  5
760
330
1F
100
AcDbEntity
  8
0
  6
SLD-實線
 62
     7
100
AcDbSpline
210
0.0
220
0.0
230
1.0
 70
     8
 71
     3
 72
    20
 73
    16
 74
     0
 42
0.000000001
 43
0.0000000001
 40
0.0
 40
0.0
 40
0.0
 40
0.0
 40
0.0445582082504204
 40
0.0879678610027486
 40
0.1302289430997451
 40
0.1713414403141485
 40
0.2113053393949205
 40
0.2501206281203391
 40
0.3778674944014842
 40
0.5000317952676784
 40
0.6024334188521358
 40
0.7036308472991259
 40
0.8036242795054537
 40
0.9024139241212512
 40
1.0
 40
1.0
 40
1.0
 40
1.0
 10
2284.160343110496
 20
1754.931894963015
 30
0.0
 10
2284.181059518276
 20
1754.98026131764
 30
0.0
 10
2284.221958336956
 20
1755.075747310633
 30
0.0
 10
2284.291729981703
 20
1755.212865100028
 30
0.0
 10
2284.365808875642
 20
1755.342980660294
 30
0.0
 10
2284.444142401128
 20
1755.465797864663
 30
0.0
 10
2284.525883047101
 20
1755.581421895062
 30
0.0
 10
2284.675774147785
 20
1755.773795171748
 30
0.0
 10
2284.911679038748
 20
1756.021869733661
 30
0.0
 10
2285.240697003033
 20
1756.278691089428
 30
0.0
 10
2285.573308332507
 20
1756.473590449086
 30
0.0
 10
2285.902843239218
 20
1756.616944209721
 30
0.0
 10
2286.242913299858
 20
1756.718186199946
 30
0.0
 10
2286.588350269762
 20
1756.781074339595
 30
0.0
 10
2286.820333665533
 20
1756.788810221826
 30
0.0
 10
2286.935614460967
 20
1756.792654456686
 30
0.0
  0
LINE
  5
761
330
1F
100
AcDbEntity
  8
0
  6
SLD-實線
 62
     7
100
AcDbLine
 10
2286.935614447744
 20
1756.792654672753
 30
0.0
 11
2286.935614447744
 21
1756.28679936577
 31
0.0
  0
LINE
  5
762
330
1F
100
AcDbEntity
  8
0
  6
SLD-實線
 62
     7
100
AcDbLine
 10
2313.943368874193
 20
1756.792654672753
 30
0.0
 11
2314.450699396135
 21
1756.28679936577
 31
0.0
  0
LINE
  5
763
330
1F
100
AcDbEntity
  8
0
  6
SLD-實線
 62
     7
100
AcDbLine
 10
2312.650974400045
 20
1756.792654672753
 30
0.0
 11
2312.650974400045
 21
1756.28679936577
 31
0.0
  0
LINE
  5
764
330
1F
100
AcDbEntity
  8
0
  6
SLD-實線
 62
     7
100
AcDbLine
 10
2252.527400411369
 20
1751.892654381808
 30
0.0
 11
2252.527400411369
 21
1751.392649177577
 31
0.0
  0
LINE
  5
765
330
1F
100
AcDbEntity
  8
0
  6
SLD-實線
 62
     7
100
AcDbLine
 10
2252.527400411369
 20
1751.892654381808
 30
0.0
 11
2252.850470624567
 21
1770.401381345581
 31
0.0
  0
LWPOLYLINE
  5
766
330
1F
100
AcDbEntity
  8
0
  6
SLD-實線
 62
     7
100
AcDbPolyline
 90
        6
 70
     0
 43
0.0
 10
2252.850470624567
 20
1770.401381345581
 10
2252.853855050803
 20
1770.595228688907
 10
2252.857103503944
 20
1770.781375857185
 10
2252.860094912053
 20
1770.952752249431
 10
2252.862715653778
 20
1771.102840470265
 10
2252.86305279255
 20
1771.12218031485
  0
LINE
  5
767
330
1F
100
AcDbEntity
  8
0
  6
SLD-實線
 62
     7
100
AcDbLine
 10
2273.17739979148
 20
1752.19894146372
 30
0.0
 11
2273.17739979148
 21
1751.892654381808
 31
0.0
  0
ARC
  5
768
330
1F
100
AcDbEntity
  8
0
  6
SLD-實線
 62
     7
100
AcDbCircle
 10
2273.677399904729
 20
1752.198941513325
 30
0.0
 40
0.5000000000000121
100
AcDbArc
 50
71.56505117708623
 51
180.0
  0
LINE
  5
769
330
1F
100
AcDbEntity
  8
0
  6
SLD-實線
 62
     7
100
AcDbLine
 10
2275.177400119306
 20
1752.225987769779
 30
0.0
 11
2273.835514232219
 21
1752.673283143084
 31
0.0
  0
LINE
  5
76A
330
1F
100
AcDbEntity
  8
0
  6
SLD-實線
 62
     8
100
AcDbLine
 10
2252.862911231519
 20
1770.401381345581
 30
0.0
 11
2252.850470624567
 21
1770.401381345581
 31
0.0
  0
LINE
  5
76B
330
1F
100
AcDbEntity
  8
0
  6
SLD-實線
 62
     8
100
AcDbLine
 10
2274.706950902642
 20
1752.382804097723
 30
0.0
 11
2274.684690430464
 21
1752.892654545721
 31
0.0
  0
ARC
  5
76C
330
1F
100
AcDbEntity
  8
0
  6
SLD-實線
 62
     7
100
AcDbCircle
 10
2220.000802898687
 20
1800.918633546149
 30
0.0
 40
0.4000000000000126
100
AcDbArc
 50
182.6837751594967
 51
269.8010978496892
  0
ARC
  5
76D
330
1F
100
AcDbEntity
  8
0
  6
SLD-實線
 62
     7
100
AcDbCircle
 10
2231.087424474705
 20
1800.918633546149
 30
0.0
 40
0.4000000000000052
100
AcDbArc
 50
270.1142361547905
 51
357.3162248405033
  0
LINE
  5
76E
330
1F
100
AcDbEntity
  8
0
  6
SLD-實線
 62
     7
100
AcDbLine
 10
2220.000802992299
 20
1800.518633540189
 30
0.0
 11
2231.087424314037
 21
1800.518633540189
 31
0.0
  0
ARC
  5
76F
330
1F
100
AcDbEntity
  8
0
  6
SLD-實線
 62
     7
100
AcDbCircle
 10
2203.087424474705
 20
1800.918633546148
 30
0.0
 40
0.4000000000000052
100
AcDbArc
 50
270.1142361547905
 51
357.3162248405033
  0
ARC
  5
770
330
1F
100
AcDbEntity
  8
0
  6
SLD-實線
 62
     7
100
AcDbCircle
 10
2192.000802898687
 20
1800.918633546148
 30
0.0
 40
0.4000000000000126
100
AcDbArc
 50
182.6837751594967
 51
269.8010978496892
  0
LINE
  5
771
330
1F
100
AcDbEntity
  8
0
  6
SLD-實線
 62
     7
100
AcDbLine
 10
2192.000803059355
 20
1800.518633540188
 30
0.0
 11
2203.087424381092
 21
1800.518633540188
 31
0.0
  0
ARC
  5
772
330
1F
100
AcDbEntity
  8
0
  6
SLD-實線
 62
     7
100
AcDbCircle
 10
2221.294113686695
 20
1840.868633546149
 30
0.0
 40
0.25
100
AcDbArc
 50
0.8746039791650053
 51
90.0
  0
ARC
  5
773
330
1F
100
AcDbEntity
  8
0
  6
SLD-實線
 62
     7
100
AcDbCircle
 10
2201.794113686695
 20
1840.868633546149
 30
0.0
 40
0.25
100
AcDbArc
 50
90.0
 51
182.3997732267511
  0
LINE
  5
774
330
1F
100
AcDbEntity
  8
0
  6
SLD-實線
 62
     7
100
AcDbLine
 10
2221.294113887861
 20
1841.118633489525
 30
0.0
 11
2201.794113485529
 21
1841.118633489525
 31
0.0
  0
LINE
  5
775
330
1F
100
AcDbEntity
  8
0
  6
SLD-實線
 62
     7
100
AcDbLine
 10
2203.844113728419
 20
1801.118634383594
 30
0.0
 11
2203.844113728419
 21
1800.918632860695
 31
0.0
  0
LINE
  5
776
330
1F
100
AcDbEntity
  8
0
  6
SLD-實線
 62
     7
100
AcDbLine
 10
2191.244112780705
 20
1800.918632860695
 30
0.0
 11
2191.600364154592
 21
1800.918632860695
 31
0.0
  0
LINE
  5
777
330
1F
100
AcDbEntity
  8
0
  6
SLD-實線
 62
     7
100
AcDbLine
 10
2203.487863285855
 20
1800.918632860695
 30
0.0
 11
2203.844113728419
 21
1800.918632860695
 31
0.0
  0
LINE
  5
778
330
1F
100
AcDbEntity
  8
0
  6
SLD-實線
 62
     7
100
AcDbLine
 10
2191.244112780705
 20
1800.918632860695
 30
0.0
 11
2191.244112780705
 21
1801.118634383594
 31
0.0
  0
LINE
  5
779
330
1F
100
AcDbEntity
  8
0
  6
SLD-實線
 62
     7
100
AcDbLine
 10
2231.844114592687
 20
1801.118634383594
 30
0.0
 11
2231.844114592687
 21
1800.918632860696
 31
0.0
  0
LINE
  5
77A
330
1F
100
AcDbEntity
  8
0
  6
SLD-實線
 62
     7
100
AcDbLine
 10
2219.244113644973
 20
1800.918632860696
 30
0.0
 11
2219.600364087537
 21
1800.918632860696
 31
0.0
  0
LINE
  5
77B
330
1F
100
AcDbEntity
  8
0
  6
SLD-實線
 62
     7
100
AcDbLine
 10
2231.487863218799
 20
1800.918632860696
 30
0.0
 11
2231.844114592687
 21
1800.918632860696
 31
0.0
  0
LINE
  5
77C
330
1F
100
AcDbEntity
  8
0
  6
SLD-實線
 62
     7
100
AcDbLine
 10
2219.244113644973
 20
1800.918632860696
 30
0.0
 11
2219.244113644973
 21
1801.118634383594
 31
0.0
  0
LINE
  5
77D
330
1F
100
AcDbEntity
  8
0
  6
SLD-實線
 62
     7
100
AcDbLine
 10
2219.590988463179
 20
1801.118634383594
 30
0.0
 11
2219.184298055634
 21
1801.118634383594
 31
0.0
  0
LINE
  5
77E
330
1F
100
AcDbEntity
  8
0
  6
SLD-實線
 62
     7
100
AcDbLine
 10
2231.903929716364
 20
1801.118634383594
 30
0.0
 11
2231.497237911836
 21
1801.118634383594
 31
0.0
  0
LINE
  5
77F
330
1F
100
AcDbEntity
  8
0
  6
SLD-實線
 62
     7
100
AcDbLine
 10
2191.590989461556
 20
1801.118634383594
 30
0.0
 11
2191.184297657028
 21
1801.118634383594
 31
0.0
  0
LINE
  5
780
330
1F
100
AcDbEntity
  8
0
  6
SLD-實線
 62
     7
100
AcDbLine
 10
2203.903929317758
 20
1801.118634383594
 30
0.0
 11
2203.497238910213
 21
1801.118634383594
 31
0.0
  0
LINE
  5
781
330
1F
100
AcDbEntity
  8
0
  6
SLD-實線
 62
     7
100
AcDbLine
 10
2231.523020645991
 20
1801.668634380614
 30
0.0
 11
2231.491359403745
 21
1800.993203859245
 31
0.0
  0
ARC
  5
782
330
1F
100
AcDbEntity
  8
0
  6
SLD-實線
 62
     7
100
AcDbCircle
 10
2231.261315407698
 20
1802.486709618965
 30
0.0
 40
1.511118689724787
100
AcDbArc
 50
263.5589899116338
 51
278.756425948516
  0
ARC
  5
783
330
1F
100
AcDbEntity
  8
0
  6
SLD-實線
 62
     7
100
AcDbCircle
 10
2219.826911758656
 20
1802.486702692096
 30
0.0
 40
1.511111822281793
100
AcDbArc
 50
261.2435393142064
 51
276.4410448255909
  0
LINE
  5
784
330
1F
100
AcDbEntity
  8
0
  6
SLD-實線
 62
     7
100
AcDbLine
 10
2219.596867902592
 20
1800.993203859245
 30
0.0
 11
2219.565207591668
 21
1801.668634380614
 31
0.0
  0
LINE
  5
785
330
1F
100
AcDbEntity
  8
0
  6
SLD-實線
 62
     7
100
AcDbLine
 10
2231.091797804848
 20
1800.985129292523
 30
0.0
 11
2219.996429501489
 21
1800.985129292523
 31
0.0
  0
LWPOLYLINE
  5
786
330
1F
100
AcDbEntity
  8
0
  6
SLD-實線
 62
     7
100
AcDbPolyline
 90
       10
 70
     0
 43
0.0
 10
2219.601231148854
 20
1800.900127481138
 10
2219.601223698274
 20
1800.900295119201
 10
2219.601077480629
 20
1800.903403873956
 10
2219.600790633276
 20
1800.909526388561
 10
2219.600371538118
 20
1800.918468947923
 10
2219.59983323367
 20
1800.929954017913
 10
2219.599192483738
 20
1800.943622108018
 10
2219.598468846098
 20
1800.959048535144
 10
2219.597686535135
 20
1800.975749011552
 10
2219.596867902592
 20
1800.993203859245
  0
LWPOLYLINE
  5
787
330
1F
100
AcDbEntity
  8
0
  6
SLD-實線
 62
     7
100
AcDbPolyline
 90
       10
 70
     0
 43
0.0
 10
2231.491359403745
 20
1800.993203859245
 10
2231.490541702524
 20
1800.975749011552
 10
2231.489757528916
 20
1800.959048535144
 10
2231.489034822598
 20
1800.943622108018
 10
2231.488394072667
 20
1800.929954017913
 10
2231.487855768219
 20
1800.918468947923
 10
2231.48743667306
 20
1800.909526388561
 10
2231.487149825707
 20
1800.903403873956
 10
2231.487004539386
 20
1800.900295119201
 10
2231.486997088805
 20
1800.900127481138
  0
LINE
  5
788
330
1F
100
AcDbEntity
  8
0
  6
SLD-實線
 62
     7
100
AcDbLine
 10
2203.523019781724
 20
1801.668634380613
 30
0.0
 11
2203.4913594708
 21
1800.993203859244
 31
0.0
  0
ARC
  5
789
330
1F
100
AcDbEntity
  8
0
  6
SLD-實線
 62
     7
100
AcDbCircle
 10
2203.261315614736
 20
1802.486702692095
 30
0.0
 40
1.511111822281791
100
AcDbArc
 50
263.558955174409
 51
278.7564606857927
  0
LINE
  5
78A
330
1F
100
AcDbEntity
  8
0
  6
SLD-實線
 62
     7
100
AcDbLine
 10
2203.091797871903
 20
1800.985129292523
 30
0.0
 11
2191.996429568544
 21
1800.985129292523
 31
0.0
  0
ARC
  5
78B
330
1F
100
AcDbEntity
  8
0
  6
SLD-實線
 62
     7
100
AcDbCircle
 10
2191.826911965693
 20
1802.486709618965
 30
0.0
 40
1.511118689724787
100
AcDbArc
 50
261.243574051484
 51
276.4410100883662
  0
LINE
  5
78C
330
1F
100
AcDbEntity
  8
0
  6
SLD-實線
 62
     7
100
AcDbLine
 10
2191.596867969647
 20
1800.993203859244
 30
0.0
 11
2191.565206727401
 21
1801.668634380613
 31
0.0
  0
LWPOLYLINE
  5
78D
330
1F
100
AcDbEntity
  8
0
  6
SLD-實線
 62
     7
100
AcDbPolyline
 90
       10
 70
     0
 43
0.0
 10
2203.4913594708
 20
1800.993203859244
 10
2203.490540838257
 20
1800.975749011551
 10
2203.489758527294
 20
1800.959048535143
 10
2203.489034889654
 20
1800.943622108017
 10
2203.488394139722
 20
1800.929954017912
 10
2203.487855835274
 20
1800.918468947922
 10
2203.487436740116
 20
1800.90952638856
 10
2203.487149892763
 20
1800.903403873955
 10
2203.487003675118
 20
1800.900295119201
 10
2203.486996224538
 20
1800.900127481137
  0
LWPOLYLINE
  5
78E
330
1F
100
AcDbEntity
  8
0
  6
SLD-實線
 62
     7
100
AcDbPolyline
 90
       10
 70
     0
 43
0.0
 10
2191.601230284587
 20
1800.900127481137
 10
2191.601222834006
 20
1800.900295119201
 10
2191.601077547685
 20
1800.903403873955
 10
2191.600790700332
 20
1800.90952638856
 10
2191.600371605173
 20
1800.918468947922
 10
2191.599833300725
 20
1800.929954017912
 10
2191.599192550794
 20
1800.943622108017
 10
2191.598469844476
 20
1800.959048535143
 10
2191.597685670868
 20
1800.975749011551
 10
2191.596867969647
 20
1800.993203859244
  0
LINE
  5
78F
330
1F
100
AcDbEntity
  8
0
  6
SLD-實線
 62
     7
100
AcDbLine
 10
2226.505652523055
 20
1814.777461554324
 30
0.0
 11
2226.505652523055
 21
1814.200538884317
 31
0.0
  0
LINE
  5
790
330
1F
100
AcDbEntity
  8
0
  6
SLD-實線
 62
     7
100
AcDbLine
 10
2226.505652523055
 20
1814.200538884317
 30
0.0
 11
2224.544113954916
 21
1814.200538884317
 31
0.0
  0
SPLINE
  5
791
330
1F
100
AcDbEntity
  8
0
  6
SLD-實線
 62
     7
100
AcDbSpline
210
0.0
220
0.0
230
1.0
 70
     8
 71
     3
 72
    10
 73
     6
 74
     0
 42
0.000000001
 43
0.0000000001
 40
0.0
 40
0.0
 40
0.0
 40
0.0
 40
0.2795769497520455
 40
0.5593379659604143
 40
1.0
 40
1.0
 40
1.0
 40
1.0
 10
2224.544113954916
 20
1814.200538884317
 30
0.0
 10
2224.572118641801
 20
1814.343187603466
 30
0.0
 10
2224.628146453154
 20
1814.628578958107
 30
0.0
 10
2224.927308996793
 20
1815.059943211772
 30
0.0
 10
2225.192935387419
 20
1815.317958112091
 30
0.0
 10
2225.355411401405
 20
1815.475778396642
 30
0.0
  0
SPLINE
  5
792
330
1F
100
AcDbEntity
  8
0
  6
SLD-實線
 62
     7
100
AcDbSpline
210
0.0
220
0.0
230
1.0
 70
     8
 71
     3
 72
     9
 73
     5
 74
     0
 42
0.000000001
 43
0.0000000001
 40
0.0
 40
0.0
 40
0.0
 40
0.0
 40
0.56023690186405
 40
1.0
 40
1.0
 40
1.0
 40
1.0
 10
2225.355411401405
 20
1815.475778396642
 30
0.0
 10
2225.44617094017
 20
1815.561520541547
 30
0.0
 10
2225.608173011905
 20
1815.714566770064
 30
0.0
 10
2225.751511154459
 20
1815.885141297232
 30
0.0
 10
2225.81454598011
 20
1815.960153679764
 30
0.0
  0
SPLINE
  5
793
330
1F
100
AcDbEntity
  8
0
  6
SLD-實線
 62
     7
100
AcDbSpline
210
0.0
220
0.0
230
1.0
 70
     8
 71
     3
 72
     9
 73
     5
 74
     0
 42
0.000000001
 43
0.0000000001
 40
0.0
 40
0.0
 40
0.0
 40
0.0
 40
0.5600600897139277
 40
1.0
 40
1.0
 40
1.0
 40
1.0
 10
2225.81454598011
 20
1815.960153679764
 30
0.0
 10
2225.849941260967
 20
1816.02053202078
 30
0.0
 10
2225.913140338185
 20
1816.128338918869
 30
0.0
 10
2225.923966195173
 20
1816.252350648257
 30
0.0
 10
2225.928728921726
 20
1816.306908357357
 30
0.0
  0
SPLINE
  5
794
330
1F
100
AcDbEntity
  8
0
  6
SLD-實線
 62
     7
100
AcDbSpline
210
0.0
220
0.0
230
1.0
 70
     8
 71
     3
 72
    11
 73
     7
 74
     0
 42
0.000000001
 43
0.0000000001
 40
0.0
 40
0.0
 40
0.0
 40
0.0
 40
0.1872361364822314
 40
0.3740847718534108
 40
0.5606978335574904
 40
1.0
 40
1.0
 40
1.0
 40
1.0
 10
2225.572959972932
 20
1816.700538362777
 30
0.0
 10
2225.531019233474
 20
1816.697761913837
 30
0.0
 10
2225.447224554486
 20
1816.692214762055
 30
0.0
 10
2225.334380914478
 20
1816.629202160237
 30
0.0
 10
2225.22201553303
 20
1816.481198828665
 30
0.0
 10
2225.207880733688
 20
1816.338884301586
 30
0.0
 10
2225.197960144296
 20
1816.239000040507
 30
0.0
  0
LINE
  5
795
330
1F
100
AcDbEntity
  8
0
  6
SLD-實線
 62
     7
100
AcDbLine
 10
2225.197960144296
 20
1816.239000040507
 30
0.0
 11
2224.621036542966
 21
1816.295490342593
 31
0.0
  0
SPLINE
  5
796
330
1F
100
AcDbEntity
  8
0
  6
SLD-實線
 62
     7
100
AcDbSpline
210
0.0
220
0.0
230
1.0
 70
     8
 71
     3
 72
     9
 73
     5
 74
     0
 42
0.000000001
 43
0.0000000001
 40
0.0
 40
0.0
 40
0.0
 40
0.0
 40
0.5607883329948757
 40
1.0
 40
1.0
 40
1.0
 40
1.0
 10
2226.214786513164
 20
1815.63202824763
 30
0.0
 10
2226.054421509034
 20
1815.478366431693
 30
0.0
 10
2225.768457991795
 20
1815.204356066469
 30
0.0
 10
2225.506099586854
 20
1814.907739160192
 30
0.0
 10
2225.390868714466
 20
1814.777461554324
 30
0.0
  0
LINE
  5
797
330
1F
100
AcDbEntity
  8
0
  6
SLD-實線
 62
     7
100
AcDbLine
 10
2225.390868714466
 20
1814.777461554324
 30
0.0
 11
2226.505652523055
 21
1814.777461554324
 31
0.0
  0
SPLINE
  5
798
330
1F
100
AcDbEntity
  8
0
  6
SLD-實線
 62
     7
100
AcDbSpline
210
0.0
220
0.0
230
1.0
 70
     8
 71
     3
 72
    11
 73
     7
 74
     0
 42
0.000000001
 43
0.0000000001
 40
0.0
 40
0.0
 40
0.0
 40
0.0
 40
0.2806198179390664
 40
0.5594960044618988
 40
0.7793822381101792
 40
1.0
 40
1.0
 40
1.0
 40
1.0
 10
2225.928728921726
 20
1816.306908357357
 30
0.0
 10
2225.925665653672
 20
1816.363425487225
 30
0.0
 10
2225.919558151183
 20
1816.476108577739
 30
0.0
 10
2225.834401884348
 20
1816.615793175479
 30
0.0
 10
2225.706087142182
 20
1816.691906806171
 30
0.0
 10
2225.617384797553
 20
1816.697657993648
 30
0.0
 10
2225.572959972932
 20
1816.700538362777
 30
0.0
  0
SPLINE
  5
799
330
1F
100
AcDbEntity
  8
0
  6
SLD-實線
 62
     7
100
AcDbSpline
210
0.0
220
0.0
230
1.0
 70
     8
 71
     3
 72
    11
 73
     7
 74
     0
 42
0.000000001
 43
0.0000000001
 40
0.0
 40
0.0
 40
0.0
 40
0.0
 40
0.2805721055207423
 40
0.5597207754627335
 40
0.7797521012285805
 40
1.0
 40
1.0
 40
1.0
 40
1.0
 10
2225.584978690758
 20
1817.200538444733
 30
0.0
 10
2225.714941741173
 20
1817.192117955176
 30
0.0
 10
2225.974208496236
 20
1817.175319696007
 30
0.0
 10
2226.287177678724
 20
1816.973001057142
 30
0.0
 10
2226.477502558295
 20
1816.689964978251
 30
0.0
 10
2226.496266124874
 20
1816.486310105168
 30
0.0
 10
2226.505652523055
 20
1816.384432579791
 30
0.0
  0
SPLINE
  5
79A
330
1F
100
AcDbEntity
  8
0
  6
SLD-實線
 62
     7
100
AcDbSpline
210
0.0
220
0.0
230
1.0
 70
     8
 71
     3
 72
     9
 73
     5
 74
     0
 42
0.000000001
 43
0.0000000001
 40
0.0
 40
0.0
 40
0.0
 40
0.0
 40
0.5585192760425589
 40
1.0
 40
1.0
 40
1.0
 40
1.0
 10
2226.505652523055
 20
1816.384432579791
 30
0.0
 10
2226.486072672939
 20
1816.230181168118
 30
0.0
 10
2226.451015959669
 20
1815.954001959468
 30
0.0
 10
2226.287136247246
 20
1815.730638784028
 30
0.0
 10
2226.214786513164
 20
1815.63202824763
 30
0.0
  0
SPLINE
  5
79B
330
1F
100
AcDbEntity
  8
0
  6
SLD-實線
 62
     7
100
AcDbSpline
210
0.0
220
0.0
230
1.0
 70
     8
 71
     3
 72
    11
 73
     7
 74
     0
 42
0.000000001
 43
0.0000000001
 40
0.0
 40
0.0
 40
0.0
 40
0.0
 40
0.2807518271682066
 40
0.5589702817224688
 40
0.7792746194055101
 40
1.0
 40
1.0
 40
1.0
 40
1.0
 10
2224.621036542966
 20
1816.295490342593
 30
0.0
 10
2224.641636014645
 20
1816.433300938733
 30
0.0
 10
2224.682649078045
 20
1816.707678592927
 30
0.0
 10
2224.930346518698
 20
1817.025773376231
 30
0.0
 10
2225.259142746789
 20
1817.178959035923
 30
0.0
 10
2225.47629760486
 20
1817.193340731817
 30
0.0
 10
2225.584978690758
 20
1817.200538444733
 30
0.0
  0
LINE
  5
79C
330
1F
100
AcDbEntity
  8
0
  6
SLD-實線
 62
     7
100
AcDbLine
 10
2198.005652508154
 20
1814.200538884317
 30
0.0
 11
2197.428728906825
 21
1814.200538884317
 31
0.0
  0
LINE
  5
79D
330
1F
100
AcDbEntity
  8
0
  6
SLD-實線
 62
     7
100
AcDbLine
 10
2197.428728906825
 20
1814.200538884317
 30
0.0
 11
2197.428728906825
 21
1816.336354914521
 31
0.0
  0
LINE
  5
79E
330
1F
100
AcDbEntity
  8
0
  6
SLD-實線
 62
     7
100
AcDbLine
 10
2196.697960129394
 20
1815.854384306286
 30
0.0
 11
2196.697960129394
 21
1816.431306976293
 31
0.0
  0
LINE
  5
79F
330
1F
100
AcDbEntity
  8
0
  6
SLD-實線
 62
     7
100
AcDbLine
 10
2197.54291184844
 20
1817.200538444732
 30
0.0
 11
2198.005652508154
 21
1817.200538444732
 31
0.0
  0
LINE
  5
7A0
330
1F
100
AcDbEntity
  8
0
  6
SLD-實線
 62
     7
100
AcDbLine
 10
2198.005652508154
 20
1817.200538444732
 30
0.0
 11
2198.005652508154
 21
1814.200538884317
 31
0.0
  0
SPLINE
  5
7A1
330
1F
100
AcDbEntity
  8
0
  6
SLD-實線
 62
     7
100
AcDbSpline
210
0.0
220
0.0
230
1.0
 70
     8
 71
     3
 72
     9
 73
     5
 74
     0
 42
0.000000001
 43
0.0000000001
 40
0.0
 40
0.0
 40
0.0
 40
0.0
 40
0.5597478358806427
 40
1.0
 40
1.0
 40
1.0
 40
1.0
 10
2197.428728906825
 20
1816.336354914521
 30
0.0
 10
2197.306955852527
 20
1816.223653217839
 30
0.0
 10
2197.089406008664
 20
1816.02230952438
 30
0.0
 10
2196.8176161867
 20
1815.905715206887
 30
0.0
 10
2196.697960129394
 20
1815.854384306286
 30
0.0
  0
SPLINE
  5
7A2
330
1F
100
AcDbEntity
  8
0
  6
SLD-實線
 62
     7
100
AcDbSpline
210
0.0
220
0.0
230
1.0
 70
     8
 71
     3
 72
     9
 73
     5
 74
     0
 42
0.000000001
 43
0.0000000001
 40
0.0
 40
0.0
 40
0.0
 40
0.0
 40
0.5609931262365647
 40
1.0
 40
1.0
 40
1.0
 40
1.0
 10
2196.697960129394
 20
1816.431306976293
 30
0.0
 10
2196.901401533172
 20
1816.527780586339
 30
0.0
 10
2197.264046624996
 20
1816.699749912761
 30
0.0
 10
2197.457836681547
 20
1817.047759738914
 30
0.0
 10
2197.54291184844
 20
1817.200538444732
 30
0.0
  0
LINE
  5
7A3
330
1F
100
AcDbEntity
  8
0
  6
SLD-實線
 62
     7
100
AcDbLine
 10
2237.844113713517
 20
1824.162500652885
 30
0.0
 11
2237.844113713517
 21
1858.368633057391
 31
0.0
  0
LINE
  5
7A4
330
1F
100
AcDbEntity
  8
0
  6
SLD-實線
 62
     7
100
AcDbLine
 10
2236.978088027253
 20
1824.162500652885
 30
0.0
 11
2237.844113713517
 21
1824.162500652885
 31
0.0
  0
LINE
  5
7A5
330
1F
100
AcDbEntity
  8
0
  6
SLD-實線
 62
     7
100
AcDbLine
 10
2236.978088027253
 20
1824.162500652885
 30
0.0
 11
2236.978088027253
 21
1849.008509631669
 31
0.0
  0
SPLINE
  5
7A6
330
1F
100
AcDbEntity
  8
0
  6
SLD-實線
 62
     7
100
AcDbSpline
210
0.0
220
0.0
230
1.0
 70
     8
 71
     3
 72
    12
 73
     8
 74
     0
 42
0.000000001
 43
0.0000000001
 40
0.0
 40
0.0
 40
0.0
 40
0.0
 40
0.0062988446335816
 40
0.0900298850842929
 40
0.4442456819967047
 40
0.8002709467358382
 40
1.0
 40
1.0
 40
1.0
 40
1.0
 10
2236.978088027253
 20
1849.008509631669
 30
0.0
 10
2236.98018598654
 20
1849.028782527305
 30
0.0
 10
2237.010172284733
 20
1849.318544629827
 30
0.0
 10
2237.158137514081
 20
1850.745004301773
 30
0.0
 10
2237.417566838655
 20
1853.26410986346
 30
0.0
 10
2237.68407117451
 20
1856.088093496351
 30
0.0
 10
2237.80180286193
 20
1857.76572103473
 30
0.0
 10
2237.844113713517
 20
1858.368633057391
 30
0.0
  0
LINE
  5
7A7
330
1F
100
AcDbEntity
  8
0
  6
SLD-實線
 62
     7
100
AcDbLine
 10
2186.110139346137
 20
1849.008509631668
 30
0.0
 11
2186.110139346137
 21
1824.162500652884
 31
0.0
  0
LINE
  5
7A8
330
1F
100
AcDbEntity
  8
0
  6
SLD-實線
 62
     7
100
AcDbLine
 10
2186.110139346137
 20
1824.162500652884
 30
0.0
 11
2185.244113659873
 21
1824.162500652884
 31
0.0
  0
LINE
  5
7A9
330
1F
100
AcDbEntity
  8
0
  6
SLD-實線
 62
     7
100
AcDbLine
 10
2185.244113659873
 20
1824.162500652884
 30
0.0
 11
2185.244113659873
 21
1858.36863305739
 31
0.0
  0
SPLINE
  5
7AA
330
1F
100
AcDbEntity
  8
0
  6
SLD-實線
 62
     7
100
AcDbSpline
210
0.0
220
0.0
230
1.0
 70
     8
 71
     3
 72
    12
 73
     8
 74
     0
 42
0.000000001
 43
0.0000000001
 40
0.0
 40
0.0
 40
0.0
 40
0.0
 40
0.1997290425957377
 40
0.5539271443023424
 40
0.9099701197246067
 40
0.9937011557028679
 40
1.0
 40
1.0
 40
1.0
 40
1.0
 10
2185.244113659873
 20
1858.36863305739
 30
0.0
 10
2185.286423300548
 20
1857.765721569767
 30
0.0
 10
2185.403764565148
 20
1856.093611023069
 30
0.0
 10
2185.670066883878
 20
1853.269862869763
 30
0.0
 10
2185.92948163736
 20
1850.750870634723
 30
0.0
 10
2186.07805508677
 20
1849.318544633683
 30
0.0
 10
2186.108041386728
 20
1849.028782527557
 30
0.0
 10
2186.110139346137
 20
1849.008509631668
 30
0.0
  0
LINE
  5
7AB
330
1F
100
AcDbEntity
  8
0
  6
SLD-實線
 62
     7
100
AcDbLine
 10
2236.978088027253
 20
1849.008509631669
 30
0.0
 11
2186.110139346137
 21
1849.008509631668
 31
0.0
  0
LINE
  5
7AC
330
1F
100
AcDbEntity
  8
0
  6
SLD-實線
 62
     7
100
AcDbLine
 10
2236.978088027253
 20
1824.162500652885
 30
0.0
 11
2186.110139346137
 21
1824.162500652884
 31
0.0
  0
SPLINE
  5
7AD
330
1F
100
AcDbEntity
  8
0
  6
SLD-實線
 62
     7
100
AcDbSpline
210
0.0
220
0.0
230
1.0
 70
     8
 71
     3
 72
    12
 73
     8
 74
     0
 42
0.000000001
 43
0.0000000001
 40
0.0
 40
0.0
 40
0.0
 40
0.0
 40
0.2146920006912997
 40
0.4293859831450136
 40
0.6440814142433485
 40
0.8587735192043115
 40
1.0
 40
1.0
 40
1.0
 40
1.0
 10
2201.794113485529
 20
1840.622060674643
 30
0.0
 10
2201.766007679052
 20
1840.624786796591
 30
0.0
 10
2201.709795806661
 20
1840.630239065652
 30
0.0
 10
2201.634877489337
 20
1840.67275886464
 30
0.0
 10
2201.5783388685
 20
1840.73533011298
 30
0.0
 10
2201.548380659707
 20
1840.804657728992
 30
0.0
 10
2201.545325987041
 20
1840.850459879905
 30
0.0
 10
2201.544113910212
 20
1840.868633914208
 30
0.0
  0
LINE
  5
7AE
330
1F
100
AcDbEntity
  8
0
  6
SLD-實線
 62
     7
100
AcDbLine
 10
2201.794113485529
 20
1840.622060674643
 30
0.0
 11
2221.294113887861
 21
1840.622060674643
 31
0.0
  0
SPLINE
  5
7AF
330
1F
100
AcDbEntity
  8
0
  6
SLD-實線
 62
     7
100
AcDbSpline
210
0.0
220
0.0
230
1.0
 70
     8
 71
     3
 72
    12
 73
     8
 74
     0
 42
0.000000001
 43
0.0000000001
 40
0.0
 40
0.0
 40
0.0
 40
0.0
 40
0.2146951247822129
 40
0.4293873320391267
 40
0.6440811707265916
 40
0.8587738873997363
 40
1.0
 40
1.0
 40
1.0
 40
1.0
 10
2221.544113463178
 20
1840.868633914208
 30
0.0
 10
2221.541349919169
 20
1840.840917605987
 30
0.0
 10
2221.535822868705
 20
1840.785485366187
 30
0.0
 10
2221.492719907499
 20
1840.711593153196
 30
0.0
 10
2221.42928410271
 20
1840.65582320017
 30
0.0
 10
2221.358990916665
 20
1840.626270467019
 30
0.0
 10
2221.312543785871
 20
1840.62325656856
 30
0.0
 10
2221.294113887861
 20
1840.622060674643
 30
0.0
  0
LINE
  5
7B0
330
1F
100
AcDbEntity
  8
0
  6
SLD-實線
 62
     7
100
AcDbLine
 10
2186.244113823787
 20
1805.584659542357
 30
0.0
 11
2236.844113549605
 21
1805.584659542357
 31
0.0
  0
ARC
  5
7B1
330
1F
100
AcDbEntity
  8
0
  6
SLD-實線
 62
     7
100
AcDbCircle
 10
2186.244113686695
 20
1805.718633546148
 30
0.0
 40
0.1339745962155661
100
AcDbArc
 50
180.0
 51
270.0
  0
LINE
  5
7B2
330
1F
100
AcDbEntity
  8
0
  6
SLD-實線
 62
     7
100
AcDbLine
 10
2186.110139346137
 20
1824.162500652884
 30
0.0
 11
2186.110139346138
 21
1805.718634020005
 31
0.0
  0
LINE
  5
7B3
330
1F
100
AcDbEntity
  8
0
  6
SLD-實線
 62
     7
100
AcDbLine
 10
2236.978088027254
 20
1805.718634020006
 30
0.0
 11
2236.978088027253
 21
1824.162500652885
 31
0.0
  0
ARC
  5
7B4
330
1F
100
AcDbEntity
  8
0
  6
SLD-實線
 62
     7
100
AcDbCircle
 10
2236.844113686696
 20
1805.718633546149
 30
0.0
 40
0.1339745962155518
100
AcDbArc
 50
270.0
 51
0.0
  0
LINE
  5
7B5
330
1F
100
AcDbEntity
  8
0
  6
SLD-實線
 62
     7
100
AcDbLine
 10
2200.644113576427
 20
1808.868633325611
 30
0.0
 11
2200.644113576426
 21
1810.668633993183
 31
0.0
  0
LINE
  5
7B6
330
1F
100
AcDbEntity
  8
0
  6
SLD-實線
 62
     7
100
AcDbLine
 10
2200.644113576426
 20
1810.668633993183
 30
0.0
 11
2194.444112932696
 21
1810.668633993183
 31
0.0
  0
LINE
  5
7B7
330
1F
100
AcDbEntity
  8
0
  6
SLD-實線
 62
     7
100
AcDbLine
 10
2194.444112932696
 20
1810.668633993183
 30
0.0
 11
2194.444112932697
 21
1808.868633325611
 31
0.0
  0
LINE
  5
7B8
330
1F
100
AcDbEntity
  8
0
  6
SLD-實線
 62
     7
100
AcDbLine
 10
2194.444112932697
 20
1808.868633325611
 30
0.0
 11
2200.644113576427
 21
1808.868633325611
 31
0.0
  0
LINE
  5
7B9
330
1F
100
AcDbEntity
  8
0
  6
SLD-實線
 62
     7
100
AcDbLine
 10
2222.444113796965
 20
1808.868633325612
 30
0.0
 11
2228.644114440695
 21
1808.868633325612
 31
0.0
  0
LINE
  5
7BA
330
1F
100
AcDbEntity
  8
0
  6
SLD-實線
 62
     7
100
AcDbLine
 10
2228.644114440695
 20
1808.868633325612
 30
0.0
 11
2228.644114440694
 21
1810.668633993184
 31
0.0
  0
LINE
  5
7BB
330
1F
100
AcDbEntity
  8
0
  6
SLD-實線
 62
     7
100
AcDbLine
 10
2228.644114440694
 20
1810.668633993184
 30
0.0
 11
2222.444113796964
 21
1810.668633993184
 31
0.0
  0
LINE
  5
7BC
330
1F
100
AcDbEntity
  8
0
  6
SLD-實線
 62
     7
100
AcDbLine
 10
2222.444113796964
 20
1810.668633993184
 30
0.0
 11
2222.444113796965
 21
1808.868633325612
 31
0.0
  0
LINE
  5
7BD
330
1F
100
AcDbEntity
  8
0
  6
SLD-實線
 62
     7
100
AcDbLine
 10
2186.110139346138
 20
1805.718634020005
 30
0.0
 11
2185.244113659874
 21
1805.718634020005
 31
0.0
  0
LINE
  5
7BE
330
1F
100
AcDbEntity
  8
0
  6
SLD-實線
 62
     7
100
AcDbLine
 10
2185.244113659874
 20
1805.718634020005
 30
0.0
 11
2185.244113659873
 21
1824.162500652884
 31
0.0
  0
LINE
  5
7BF
330
1F
100
AcDbEntity
  8
0
  6
SLD-實線
 62
     7
100
AcDbLine
 10
2237.844113713518
 20
1805.718634020006
 30
0.0
 11
2237.844113713517
 21
1824.162500652885
 31
0.0
  0
LINE
  5
7C0
330
1F
100
AcDbEntity
  8
0
  6
SLD-實線
 62
     7
100
AcDbLine
 10
2236.978088027254
 20
1805.718634020006
 30
0.0
 11
2237.844113713518
 21
1805.718634020006
 31
0.0
  0
LINE
  5
7C1
330
1F
100
AcDbEntity
  8
0
  6
SLD-實線
 62
     7
100
AcDbLine
 10
2200.576018063738
 20
1810.600537549172
 30
0.0
 11
2200.644113576426
 21
1810.668633993183
 31
0.0
  0
LINE
  5
7C2
330
1F
100
AcDbEntity
  8
0
  6
SLD-實線
 62
     7
100
AcDbLine
 10
2200.576018063738
 20
1810.600537549172
 30
0.0
 11
2194.512209376707
 21
1810.600537549172
 31
0.0
  0
LINE
  5
7C3
330
1F
100
AcDbEntity
  8
0
  6
SLD-實線
 62
     7
100
AcDbLine
 10
2194.512209376707
 20
1810.600537549172
 30
0.0
 11
2194.444112932696
 21
1810.668633993183
 31
0.0
  0
LINE
  5
7C4
330
1F
100
AcDbEntity
  8
0
  6
SLD-實線
 62
     7
100
AcDbLine
 10
2200.576018063739
 20
1808.936729769622
 30
0.0
 11
2200.644113576427
 21
1808.868633325611
 31
0.0
  0
LINE
  5
7C5
330
1F
100
AcDbEntity
  8
0
  6
SLD-實線
 62
     7
100
AcDbLine
 10
2200.576018063739
 20
1808.936729769622
 30
0.0
 11
2200.576018063738
 21
1810.600537549172
 31
0.0
  0
LINE
  5
7C6
330
1F
100
AcDbEntity
  8
0
  6
SLD-實線
 62
     7
100
AcDbLine
 10
2194.512209376707
 20
1810.600537549172
 30
0.0
 11
2194.512209376708
 21
1808.936729769622
 31
0.0
  0
LINE
  5
7C7
330
1F
100
AcDbEntity
  8
0
  6
SLD-實線
 62
     7
100
AcDbLine
 10
2194.512209376708
 20
1808.936729769622
 30
0.0
 11
2194.444112932697
 21
1808.868633325611
 31
0.0
  0
LINE
  5
7C8
330
1F
100
AcDbEntity
  8
0
  6
SLD-實線
 62
     7
100
AcDbLine
 10
2222.512209309652
 20
1810.600537549173
 30
0.0
 11
2222.444113796964
 21
1810.668633993184
 31
0.0
  0
LINE
  5
7C9
330
1F
100
AcDbEntity
  8
0
  6
SLD-實線
 62
     7
100
AcDbLine
 10
2222.512209309652
 20
1810.600537549173
 30
0.0
 11
2222.512209309653
 21
1808.936729769623
 31
0.0
  0
LINE
  5
7CA
330
1F
100
AcDbEntity
  8
0
  6
SLD-實線
 62
     7
100
AcDbLine
 10
2222.512209309653
 20
1808.936729769623
 30
0.0
 11
2222.444113796965
 21
1808.868633325612
 31
0.0
  0
LINE
  5
7CB
330
1F
100
AcDbEntity
  8
0
  6
SLD-實線
 62
     7
100
AcDbLine
 10
2228.576017996684
 20
1808.936729769623
 30
0.0
 11
2228.644114440695
 21
1808.868633325612
 31
0.0
  0
LINE
  5
7CC
330
1F
100
AcDbEntity
  8
0
  6
SLD-實線
 62
     7
100
AcDbLine
 10
2228.576017996684
 20
1808.936729769623
 30
0.0
 11
2228.576017996683
 21
1810.600537549173
 31
0.0
  0
LINE
  5
7CD
330
1F
100
AcDbEntity
  8
0
  6
SLD-實線
 62
     7
100
AcDbLine
 10
2228.576017996683
 20
1810.600537549173
 30
0.0
 11
2228.644114440694
 21
1810.668633993184
 31
0.0
  0
LINE
  5
7CE
330
1F
100
AcDbEntity
  8
0
  6
SLD-實線
 62
     7
100
AcDbLine
 10
2228.576017996683
 20
1810.600537549173
 30
0.0
 11
2222.512209309652
 21
1810.600537549173
 31
0.0
  0
LINE
  5
7CF
330
1F
100
AcDbEntity
  8
0
  6
SLD-實線
 62
     7
100
AcDbLine
 10
2222.512209309653
 20
1808.936729769623
 30
0.0
 11
2228.576017996684
 21
1808.936729769623
 31
0.0
  0
LINE
  5
7D0
330
1F
100
AcDbEntity
  8
0
  6
SLD-實線
 62
     7
100
AcDbLine
 10
2194.512209376708
 20
1808.936729769622
 30
0.0
 11
2200.576018063739
 21
1808.936729769622
 31
0.0
  0
ARC
  5
7D1
330
1F
100
AcDbEntity
  8
0
  6
SLD-實線
 62
     7
100
AcDbCircle
 10
2236.844113686696
 20
1805.718633546149
 30
0.0
 40
1.0
100
AcDbArc
 50
270.0
 51
0.0
  0
LINE
  5
7D2
330
1F
100
AcDbEntity
  8
0
  6
SLD-實線
 62
     7
100
AcDbLine
 10
2236.844113549605
 20
1805.584659542357
 30
0.0
 11
2236.844113549605
 21
1804.718633856093
 31
0.0
  0
LINE
  5
7D3
330
1F
100
AcDbEntity
  8
0
  6
SLD-實線
 62
     7
100
AcDbLine
 10
2236.844113549605
 20
1804.718633856093
 30
0.0
 11
2186.244113823787
 21
1804.718633856093
 31
0.0
  0
LINE
  5
7D4
330
1F
100
AcDbEntity
  8
0
  6
SLD-實線
 62
     7
100
AcDbLine
 10
2186.244113823787
 20
1805.584659542357
 30
0.0
 11
2186.244113823787
 21
1804.718633856093
 31
0.0
  0
ARC
  5
7D5
330
1F
100
AcDbEntity
  8
0
  6
SLD-實線
 62
     7
100
AcDbCircle
 10
2186.244113686695
 20
1805.718633546148
 30
0.0
 40
1.0
100
AcDbArc
 50
180.0
 51
270.0
  0
SPLINE
  5
7D6
330
1F
100
AcDbEntity
  8
0
  6
SLD-實線
 62
     7
100
AcDbSpline
210
0.0
220
0.0
230
1.0
 70
     8
 71
     3
 72
    15
 73
    11
 74
     0
 42
0.000000001
 43
0.0000000001
 40
0.0
 40
0.0
 40
0.0
 40
0.0
 40
0.13521849010449
 40
0.2705998264363809
 40
0.4059811359015424
 40
0.5413624018931701
 40
0.6767436479159748
 40
0.8121248875087381
 40
0.9475061295282316
 40
1.0
 40
1.0
 40
1.0
 40
1.0
 10
2239.678921630993
 20
1859.544042240297
 30
0.0
 10
2239.669364429282
 20
1858.011497160031
 30
0.0
 10
2239.650238515938
 20
1854.944561325994
 30
0.0
 10
2239.626501211288
 20
1850.246468459081
 30
0.0
 10
2239.606464770222
 20
1845.489965300953
 30
0.0
 10
2239.59054085202
 20
1840.680460281508
 30
0.0
 10
2239.578641029745
 20
1835.831724059877
 30
0.0
 10
2239.570918055033
 20
1830.954829718569
 30
0.0
 10
2239.567893186512
 20
1827.060069178759
 30
0.0
 10
2239.567664531706
 20
1824.795296885599
 30
0.0
 10
2239.567600643649
 20
1824.162500652885
 30
0.0
  0
SPLINE
  5
7D7
330
1F
100
AcDbEntity
  8
0
  6
SLD-實線
 62
     7
100
AcDbSpline
210
0.0
220
0.0
230
1.0
 70
     8
 71
     3
 72
    10
 73
     6
 74
     0
 42
0.000000001
 43
0.0000000001
 40
0.0
 40
0.0
 40
0.0
 40
0.0
 40
0.4054754938029399
 40
0.7019219184562319
 40
1.0
 40
1.0
 40
1.0
 40
1.0
 10
2240.426829537764
 20
1860.867783169662
 30
0.0
 10
2240.268836301936
 20
1860.762580789029
 30
0.0
 10
2239.995332929008
 20
1860.580464094016
 30
0.0
 10
2239.73244176382
 20
1860.10379653312
 30
0.0
 10
2239.696794286457
 20
1859.730968077206
 30
0.0
 10
2239.678921630993
 20
1859.544042240297
 30
0.0
  0
SPLINE
  5
7D8
330
1F
100
AcDbEntity
  8
0
  6
SLD-實線
 62
     7
100
AcDbSpline
210
0.0
220
0.0
230
1.0
 70
     8
 71
     3
 72
    12
 73
     8
 74
     0
 42
0.000000001
 43
0.0000000001
 40
0.0
 40
0.0
 40
0.0
 40
0.0
 40
0.2014688123401163
 40
0.4036304645486236
 40
0.5940892972386449
 40
0.8501968577895654
 40
1.0
 40
1.0
 40
1.0
 40
1.0
 10
2241.121318644299
 20
1859.722098078048
 30
0.0
 10
2241.115936448194
 20
1859.819246180197
 30
0.0
 10
2241.105153546914
 20
1860.013876471334
 30
0.0
 10
2240.999750094041
 20
1860.303570353359
 30
0.0
 10
2240.824908621179
 20
1860.571950661504
 30
0.0
 10
2240.623822272986
 20
1860.757101748495
 30
0.0
 10
2240.479932642888
 20
1860.837946906224
 30
0.0
 10
2240.426829537764
 20
1860.867783169662
 30
0.0
  0
SPLINE
  5
7D9
330
1F
100
AcDbEntity
  8
0
  6
SLD-實線
 62
     7
100
AcDbSpline
210
0.0
220
0.0
230
1.0
 70
     8
 71
     3
 72
    14
 73
    10
 74
     0
 42
0.000000001
 43
0.0000000001
 40
0.0
 40
0.0
 40
0.0
 40
0.0
 40
0.1500040831991885
 40
0.3000081778055468
 40
0.4481946798185095
 40
0.5963811200779763
 40
0.7309763426537389
 40
0.8655715348288946
 40
0.9999999999999998
 40
0.9999999999999998
 40
0.9999999999999998
 40
0.9999999999999998
 10
2241.005471429243
 20
1824.162500652885
 30
0.0
 10
2241.00598000618
 20
1825.981708656241
 30
0.0
 10
2241.00699716009
 20
1829.620124801295
 30
0.0
 10
2241.015160434855
 20
1835.039068670331
 30
0.0
 10
2241.028099945072
 20
1840.40273951096
 30
0.0
 10
2241.045580924788
 20
1845.534672924384
 30
0.0
 10
2241.067069860548
 20
1850.44482444625
 30
0.0
 10
2241.091655310007
 20
1855.134520289735
 30
0.0
 10
2241.111434952336
 20
1858.193537422355
 30
0.0
 10
2241.121318644299
 20
1859.722098078048
 30
0.0
  0
LINE
  5
7DA
330
1F
100
AcDbEntity
  8
0
  6
SLD-實線
 62
     7
100
AcDbLine
 10
2239.567600643649
 20
1824.162500652885
 30
0.0
 11
2241.005471429243
 21
1824.162500652885
 31
0.0
  0
SPLINE
  5
7DB
330
1F
100
AcDbEntity
  8
0
  6
SLD-實線
 62
     7
100
AcDbSpline
210
0.0
220
0.0
230
1.0
 70
     8
 71
     3
 72
    15
 73
    11
 74
     0
 42
0.000000001
 43
0.0000000001
 40
0.0
 40
0.0
 40
0.0
 40
0.0
 40
0.0524938658664616
 40
0.1878751532507581
 40
0.3232564532928546
 40
0.4586377278272022
 40
0.59401901475122
 40
0.7294002816402884
 40
0.8647815456772052
 40
0.9999999999999998
 40
0.9999999999999998
 40
0.9999999999999998
 40
0.9999999999999998
 10
2239.217145821466
 20
1824.162500652885
 30
0.0
 10
2239.217209837037
 20
1824.796243307863
 30
0.0
 10
2239.217438948285
 20
1827.064403529261
 30
0.0
 10
2239.220456173047
 20
1830.964990820476
 30
0.0
 10
2239.228167200484
 20
1835.849179593826
 30
0.0
 10
2239.240046178044
 20
1840.705167219518
 30
0.0
 10
2239.255942487887
 20
1845.521861123729
 30
0.0
 10
2239.275942552854
 20
1850.285469936574
 30
0.0
 10
2239.299640653657
 20
1854.990576189898
 30
0.0
 10
2239.318731534021
 20
1858.062087408243
 30
0.0
 10
2239.32827123107
 20
1859.596919010794
 30
0.0
  0
ARC
  5
7DC
330
1F
100
AcDbEntity
  8
0
  6
SLD-實線
 62
     7
100
AcDbCircle
 10
2239.34016136099
 20
1858.486666842411
 30
0.0
 40
1.110315834610966
100
AcDbArc
 50
72.23566213286233
 51
90.61357972435487
  0
SPLINE
  5
7DD
330
1F
100
AcDbEntity
  8
0
  6
SLD-實線
 62
     7
100
AcDbSpline
210
0.0
220
0.0
230
1.0
 70
    24
 71
     3
 72
    11
 73
     7
 74
     0
 42
0.000000001
 43
0.0000000001
 40
0.0
 40
0.0
 40
0.0
 40
0.0
 40
0.2500011486095852
 40
0.5000014792706147
 40
0.7499994533238558
 40
1.0
 40
1.0
 40
1.0
 40
1.0
 10
2239.217145821466
 20
1824.162500652885
 30
0.0
 10
2239.249520309273
 20
1824.162500652885
 30
0.0
 10
2239.314269178963
 20
1824.162500652885
 30
0.0
 10
2239.407505604926
 20
1824.162500652885
 30
0.0
 10
2239.494530589952
 20
1824.162500652885
 30
0.0
 10
2239.543243875536
 20
1824.162500652885
 30
0.0
 10
2239.567600643649
 20
1824.162500652885
 30
0.0
  0
SPLINE
  5
7DE
330
1F
100
AcDbEntity
  8
0
  6
SLD-實線
 62
     7
100
AcDbSpline
210
0.0
220
0.0
230
1.0
 70
     8
 71
     3
 72
    14
 73
    10
 74
     0
 42
0.000000001
 43
0.0000000001
 40
0.0
 40
0.0
 40
0.0
 40
0.0
 40
0.1619671133752394
 40
0.3245186461605416
 40
0.4591062498269478
 40
0.5936938435733554
 40
0.7296378057153334
 40
0.8655817465416511
 40
1.0
 40
1.0
 40
1.0
 40
1.0
 10
2181.933287984147
 20
1824.1624992559
 30
0.0
 10
2181.932696749024
 20
1826.119827519534
 30
0.0
 10
2181.931512145449
 20
1830.04154659552
 30
0.0
 10
2181.922476180253
 20
1835.569967915288
 30
0.0
 10
2181.909394459363
 20
1840.73378740578
 30
0.0
 10
2181.892866157799
 20
1845.538805543866
 30
0.0
 10
2181.872037553429
 20
1850.304595369945
 30
0.0
 10
2181.847349377584
 20
1855.009090084883
 30
0.0
 10
2181.82750833565
 20
1858.072377934786
 30
0.0
 10
2181.817643797412
 20
1859.595378603254
 30
0.0
  0
ARC
  5
7DF
330
1F
100
AcDbEntity
  8
0
  6
SLD-實線
 62
     7
100
AcDbCircle
 10
2181.997862652424
 20
1859.533959735772
 30
0.0
 40
0.1903972504654157
100
AcDbArc
 50
99.3558496271326
 51
161.180809591899
  0
SPLINE
  5
7E0
330
1F
100
AcDbEntity
  8
0
  6
SLD-實線
 62
     7
100
AcDbSpline
210
0.0
220
0.0
230
1.0
 70
     8
 71
     3
 72
    14
 73
    10
 74
     0
 42
0.000000001
 43
0.0000000001
 40
0.0
 40
0.0
 40
0.0
 40
0.0
 40
0.1344113590398636
 40
0.2690000598464673
 40
0.403588807390432
 40
0.5395338489366331
 40
0.6754789078641053
 40
0.8374472432435332
 40
1.0
 40
1.0
 40
1.0
 40
1.0
 10
2181.966910591736
 20
1859.72182426921
 30
0.0
 10
2181.976792831678
 20
1858.193467583081
 30
0.0
 10
2181.996570350148
 20
1855.134737703613
 30
0.0
 10
2182.021156325781
 20
1850.44545315136
 30
0.0
 10
2182.04201245846
 20
1845.679506734565
 30
0.0
 10
2182.058692154771
 20
1840.841830636063
 30
0.0
 10
2182.071884205468
 20
1835.634146267365
 30
0.0
 10
2182.080970656409
 20
1830.069660543432
 30
0.0
 10
2182.082160134202
 20
1826.133916541857
 30
0.0
 10
2182.082755944147
 20
1824.162500652884
 30
0.0
  0
SPLINE
  5
7E1
330
1F
100
AcDbEntity
  8
0
  6
SLD-實線
 62
     7
100
AcDbSpline
210
0.0
220
0.0
230
1.0
 70
     8
 71
     3
 72
    11
 73
     7
 74
     0
 42
0.000000001
 43
0.0000000001
 40
0.0
 40
0.0
 40
0.0
 40
0.0
 40
0.2500015560620679
 40
0.4999990295759092
 40
0.7500001037563468
 40
1.0
 40
1.0
 40
1.0
 40
1.0
 10
2181.933287984147
 20
1824.1624992559
 30
0.0
 10
2181.935658644228
 20
1824.162499463785
 30
0.0
 10
2181.940399925676
 20
1824.162499879551
 30
0.0
 10
2181.971302546358
 20
1824.162499555256
 30
0.0
 10
2182.01728344417
 20
1824.162500228798
 30
0.0
 10
2182.060933053529
 20
1824.162500511523
 30
0.0
 10
2182.082757806792
 20
1824.162500652884
 30
0.0
  0
LINE
  5
7E2
330
1F
100
AcDbEntity
  8
0
  6
SLD-實線
 62
     7
100
AcDbLine
 10
2181.817643797412
 20
1859.595378603254
 30
0.0
 11
2181.62964329721
 21
1859.783377240811
 31
0.0
  0
LINE
  5
7E3
330
1F
100
AcDbEntity
  8
0
  6
SLD-實線
 62
     7
100
AcDbLine
 10
2181.933287984148
 20
1801.857532675778
 30
0.0
 11
2181.933287984147
 21
1824.1624992559
 31
0.0
  0
LINE
  5
7E4
330
1F
100
AcDbEntity
  8
0
  6
SLD-實線
 62
     7
100
AcDbLine
 10
2181.544114357248
 20
1801.468359048878
 30
0.0
 11
2181.933287984148
 21
1801.857532675778
 31
0.0
  0
LINE
  5
7E5
330
1F
100
AcDbEntity
  8
0
  6
SLD-實線
 62
     7
100
AcDbLine
 10
2181.544114357248
 20
1801.468359048878
 30
0.0
 11
2181.544114357247
 21
1815.318633544658
 31
0.0
  0
LINE
  5
7E6
330
1F
100
AcDbEntity
  8
0
  6
SLD-實線
 62
     7
100
AcDbLine
 10
2181.561569204941
 20
1815.318633544658
 30
0.0
 11
2181.544114357247
 21
1815.318633544658
 31
0.0
  0
LINE
  5
7E7
330
1F
100
AcDbEntity
  8
0
  6
SLD-實線
 62
     7
100
AcDbLine
 10
2181.561569204941
 20
1822.318633760725
 30
0.0
 11
2181.561569204941
 21
1815.318633544658
 31
0.0
  0
LINE
  5
7E8
330
1F
100
AcDbEntity
  8
0
  6
SLD-實線
 62
     7
100
AcDbLine
 10
2181.544114357247
 20
1822.318633760725
 30
0.0
 11
2181.561569204941
 21
1822.318633760725
 31
0.0
  0
LINE
  5
7E9
330
1F
100
AcDbEntity
  8
0
  6
SLD-實線
 62
     7
100
AcDbLine
 10
2181.544114357247
 20
1822.318633760725
 30
0.0
 11
2181.544114357247
 21
1826.568633526032
 31
0.0
  0
ELLIPSE
  5
7EA
330
1F
100
AcDbEntity
  8
0
  6
SLD-實線
 62
     7
100
AcDbEllipse
 10
2181.629643504844
 20
1826.568633546148
 30
0.0
 11
-0.000000000000051
 21
4.900000000000005
 31
0.0
210
0.0
220
0.0
230
1.0
 40
0.0174550649282177
 41
0.389522616442514
 42
1.570796326794896
  0
ELLIPSE
  5
7EB
330
1F
100
AcDbEntity
  8
0
  6
SLD-實線
 62
     7
100
AcDbEllipse
 10
2181.577278310059
 20
1833.876848102386
 30
0.0
 11
-0.0000000000000312
 21
3.0
 31
0.0
210
0.0
220
0.0
230
1.0
 40
0.0174550649282163
 41
3.531115270036712
 42
4.712388980384689
  0
LINE
  5
7EC
330
1F
100
AcDbEntity
  8
0
  6
SLD-實線
 62
     7
100
AcDbLine
 10
2181.62964329721
 20
1833.876848196079
 30
0.0
 11
2181.62964329721
 21
1859.783377240811
 31
0.0
  0
SPLINE
  5
7ED
330
1F
100
AcDbEntity
  8
0
  6
SLD-實線
 62
     7
100
AcDbSpline
210
0.0
220
0.0
230
1.0
 70
     8
 71
     3
 72
    10
 73
     6
 74
     0
 42
0.000000001
 43
0.0000000001
 40
0.0
 40
0.0
 40
0.0
 40
0.0
 40
0.2979856530995558
 40
0.5936984203992845
 40
1.0
 40
1.0
 40
1.0
 40
1.0
 10
2183.409300154462
 20
1859.544044102942
 30
0.0
 10
2183.391644811838
 20
1859.730551713903
 30
0.0
 10
2183.356468792729
 20
1860.102144348877
 30
0.0
 10
2183.093024709954
 20
1860.577290320057
 30
0.0
 10
2182.818024963114
 20
1860.758190971754
 30
0.0
 10
2182.658864638224
 20
1860.862890000855
 30
0.0
  0
SPLINE
  5
7EE
330
1F
100
AcDbEntity
  8
0
  6
SLD-實線
 62
     7
100
AcDbSpline
210
0.0
220
0.0
230
1.0
 70
     8
 71
     3
 72
    14
 73
    10
 74
     0
 42
0.000000001
 43
0.0000000001
 40
0.0
 40
0.0
 40
0.0
 40
0.0
 40
0.1600467104380705
 40
0.3206344751212167
 40
0.4560103810235188
 40
0.5913862674873805
 40
0.7280865578664536
 40
0.8647868059961703
 40
1.0
 40
1.0
 40
1.0
 40
1.0
 10
2183.520626729741
 20
1824.162500652884
 30
0.0
 10
2183.520073933458
 20
1826.092032938378
 30
0.0
 10
2183.518966472107
 20
1829.957620490258
 30
0.0
 10
2183.510452247897
 20
1835.436957666443
 30
0.0
 10
2183.497982932578
 20
1840.58701510493
 30
0.0
 10
2183.482064537292
 20
1845.412826016942
 30
0.0
 10
2183.461958807352
 20
1850.200932661178
 30
0.0
 10
2183.438087335471
 20
1854.929803279205
 30
0.0
 10
2183.418860832504
 20
1858.011581757565
 30
0.0
 10
2183.409300154462
 20
1859.544044102942
 30
0.0
  0
LINE
  5
7EF
330
1F
100
AcDbEntity
  8
0
  6
SLD-實線
 62
     7
100
AcDbLine
 10
2182.082755944147
 20
1824.162500652884
 30
0.0
 11
2183.520626729741
 21
1824.162500652884
 31
0.0
  0
SPLINE
  5
7F0
330
1F
100
AcDbEntity
  8
0
  6
SLD-實線
 62
     7
100
AcDbSpline
210
0.0
220
0.0
230
1.0
 70
     8
 71
     3
 72
    12
 73
     8
 74
     0
 42
0.000000001
 43
0.0000000001
 40
0.0
 40
0.0
 40
0.0
 40
0.0
 40
0.1500626875838021
 40
0.4080104977927287
 40
0.5981438563565274
 40
0.7994803779632771
 40
1.0
 40
1.0
 40
1.0
 40
1.0
 10
2182.658864638224
 20
1860.862890000855
 30
0.0
 10
2182.605921566991
 20
1860.833023906861
 30
0.0
 10
2182.461972866645
 20
1860.75181997753
 30
0.0
 10
2182.261517305026
 20
1860.566779331498
 30
0.0
 10
2182.087602175961
 20
1860.299219128723
 30
0.0
 10
2181.982971796645
 20
1860.011490898948
 30
0.0
 10
2181.972257066347
 20
1859.818248870632
 30
0.0
 10
2181.966910591736
 20
1859.72182426921
 30
0.0
  0
ARC
  5
7F1
330
1F
100
AcDbEntity
  8
0
  6
SLD-實線
 62
     7
100
AcDbCircle
 10
2183.748052046726
 20
1858.486685152431
 30
0.0
 40
1.110297615388887
100
AcDbArc
 50
89.38597785731326
 51
107.7641851117939
  0
SPLINE
  5
7F2
330
1F
100
AcDbEntity
  8
0
  6
SLD-實線
 62
     7
100
AcDbSpline
210
0.0
220
0.0
230
1.0
 70
     8
 71
     3
 72
    14
 73
    10
 74
     0
 42
0.000000001
 43
0.0000000001
 40
0.0
 40
0.0
 40
0.0
 40
0.0
 40
0.1352130798449211
 40
0.2705889450675977
 40
0.4059647889423158
 40
0.5426650958796852
 40
0.6793653837350578
 40
0.839412145510191
 40
1.0
 40
1.0
 40
1.0
 40
1.0
 10
2183.759950554385
 20
1859.596919010793
 30
0.0
 10
2183.769493912663
 20
1858.062176308616
 30
0.0
 10
2183.788592118636
 20
1854.990843200839
 30
0.0
 10
2183.8122911719
 20
1850.286013695166
 30
0.0
 10
2183.83235281034
 20
1845.507162006472
 30
0.0
 10
2183.84835768016
 20
1840.659053931101
 30
0.0
 10
2183.860884609803
 20
1835.476225872805
 30
0.0
 10
2183.869417178103
 20
1829.972833188665
 30
0.0
 10
2183.870524895771
 20
1826.101455902272
 30
0.0
 10
2183.871079689279
 20
1824.162500652884
 30
0.0
  0
SPLINE
  5
7F3
330
1F
100
AcDbEntity
  8
0
  6
SLD-實線
 62
     7
100
AcDbSpline
210
0.0
220
0.0
230
1.0
 70
    24
 71
     3
 72
    11
 73
     7
 74
     0
 42
0.000000001
 43
0.0000000001
 40
0.0
 40
0.0
 40
0.0
 40
0.0
 40
0.2499989172599814
 40
0.5000005225552238
 40
0.7500022430130869
 40
1.0
 40
1.0
 40
1.0
 40
1.0
 10
2183.520626729741
 20
1824.162500652884
 30
0.0
 10
2183.544983683365
 20
1824.162500652884
 30
0.0
 10
2183.593697852504
 20
1824.162500652884
 30
0.0
 10
2183.680721162403
 20
1824.162500652884
 30
0.0
 10
2183.77395768006
 20
1824.162500652884
 30
0.0
 10
2183.838705857291
 20
1824.162500652884
 30
0.0
 10
2183.871079689279
 20
1824.162500652884
 30
0.0
  0
LINE
  5
7F4
330
1F
100
AcDbEntity
  8
0
  6
SLD-實線
 62
     7
100
AcDbLine
 10
2239.217145821467
 20
1801.995601247465
 30
0.0
 11
2239.217145821466
 21
1824.162500652885
 31
0.0
  0
LINE
  5
7F5
330
1F
100
AcDbEntity
  8
0
  6
SLD-實線
 62
     7
100
AcDbLine
 10
2239.567600643649
 20
1824.162500652885
 30
0.0
 11
2239.56760064365
 21
1801.861103366529
 31
0.0
  0
SPLINE
  5
7F6
330
1F
100
AcDbEntity
  8
0
  6
SLD-實線
 62
     7
100
AcDbSpline
210
0.0
220
0.0
230
1.0
 70
     8
 71
     3
 72
    10
 73
     6
 74
     0
 42
0.000000001
 43
0.0000000001
 40
0.0
 40
0.0
 40
0.0
 40
0.0
 40
0.4992719157028636
 40
0.7478649872428586
 40
1.0
 40
1.0
 40
1.0
 40
1.0
 10
2239.217145821467
 20
1801.995601247465
 30
0.0
 10
2239.277147730859
 20
1801.960137478756
 30
0.0
 10
2239.3670252621
 20
1801.907015902921
 30
0.0
 10
2239.488434402836
 20
1801.865901278465
 30
0.0
 10
2239.541087747459
 20
1801.862710194639
 30
0.0
 10
2239.56760064365
 20
1801.861103366529
 30
0.0
  0
LINE
  5
7F7
330
1F
100
AcDbEntity
  8
0
  6
SLD-實線
 62
     7
100
AcDbLine
 10
2220.633327482656
 20
1804.315414022123
 30
0.0
 11
2230.454899823681
 21
1804.315414022123
 31
0.0
  0
LINE
  5
7F8
330
1F
100
AcDbEntity
  8
0
  6
SLD-實線
 62
     7
100
AcDbLine
 10
2218.313515173659
 20
1801.995601247465
 30
0.0
 11
2220.633327482656
 21
1804.315414022123
 31
0.0
  0
LINE
  5
7F9
330
1F
100
AcDbEntity
  8
0
  6
SLD-實線
 62
     7
100
AcDbLine
 10
2204.774712199733
 20
1801.995601247464
 30
0.0
 11
2218.313515173659
 21
1801.995601247465
 31
0.0
  0
LINE
  5
7FA
330
1F
100
AcDbEntity
  8
0
  6
SLD-實線
 62
     7
100
AcDbLine
 10
2202.454899890736
 20
1804.315414022122
 30
0.0
 11
2204.774712199733
 21
1801.995601247464
 31
0.0
  0
LINE
  5
7FB
330
1F
100
AcDbEntity
  8
0
  6
SLD-實線
 62
     7
100
AcDbLine
 10
2192.633327549711
 20
1804.315414022122
 30
0.0
 11
2202.454899890736
 21
1804.315414022122
 31
0.0
  0
LINE
  5
7FC
330
1F
100
AcDbEntity
  8
0
  6
SLD-實線
 62
     7
100
AcDbLine
 10
2190.313514775053
 20
1801.995601247464
 30
0.0
 11
2192.633327549711
 21
1804.315414022122
 31
0.0
  0
LINE
  5
7FD
330
1F
100
AcDbEntity
  8
0
  6
SLD-實線
 62
     7
100
AcDbLine
 10
2183.871081551925
 20
1801.995601247464
 30
0.0
 11
2190.313514775053
 21
1801.995601247464
 31
0.0
  0
LINE
  5
7FE
330
1F
100
AcDbEntity
  8
0
  6
SLD-實線
 62
     7
100
AcDbLine
 10
2183.871081551924
 20
1824.162500652884
 30
0.0
 11
2183.871081551925
 21
1801.995601247464
 31
0.0
  0
LINE
  5
7FF
330
1F
100
AcDbEntity
  8
0
  6
SLD-實線
 62
     7
100
AcDbLine
 10
2185.244113659873
 20
1824.162500652884
 30
0.0
 11
2183.871081551924
 21
1824.162500652884
 31
0.0
  0
LINE
  5
800
330
1F
100
AcDbEntity
  8
0
  6
SLD-實線
 62
     7
100
AcDbLine
 10
2239.217145821466
 20
1824.162500652885
 30
0.0
 11
2237.844113713517
 21
1824.162500652885
 31
0.0
  0
LINE
  5
801
330
1F
100
AcDbEntity
  8
0
  6
SLD-實線
 62
     7
100
AcDbLine
 10
2232.774712598339
 20
1801.995601247465
 30
0.0
 11
2239.217145821467
 21
1801.995601247465
 31
0.0
  0
LINE
  5
802
330
1F
100
AcDbEntity
  8
0
  6
SLD-實線
 62
     7
100
AcDbLine
 10
2230.454899823681
 20
1804.315414022123
 30
0.0
 11
2232.774712598339
 21
1801.995601247465
 31
0.0
  0
LINE
  5
803
330
1F
100
AcDbEntity
  8
0
  6
SLD-實線
 62
     7
100
AcDbLine
 10
2183.520626729742
 20
1801.861103366529
 30
0.0
 11
2183.520626729741
 21
1824.162500652884
 31
0.0
  0
SPLINE
  5
804
330
1F
100
AcDbEntity
  8
0
  6
SLD-實線
 62
     7
100
AcDbSpline
210
0.0
220
0.0
230
1.0
 70
     8
 71
     3
 72
    11
 73
     7
 74
     0
 42
0.000000001
 43
0.0000000001
 40
0.0
 40
0.0
 40
0.0
 40
0.0
 40
0.2515810844157195
 40
0.4997009277747195
 40
0.7497144071088116
 40
1.0
 40
1.0
 40
1.0
 40
1.0
 10
2183.520626729742
 20
1801.861103366529
 30
0.0
 10
2183.547131941279
 20
1801.862709248292
 30
0.0
 10
2183.599777706865
 20
1801.865898918171
 30
0.0
 10
2183.691038464275
 20
1801.896786756768
 30
0.0
 10
2183.781280312482
 20
1801.942595141747
 30
0.0
 10
2183.841136953399
 20
1801.977926140027
 30
0.0
 10
2183.871081551925
 20
1801.995601247464
 30
0.0
  0
ELLIPSE
  5
805
330
1F
100
AcDbEntity
  8
0
  6
SLD-實線
 62
     7
100
AcDbEllipse
 10
2190.447489942624
 20
1801.995601518125
 30
0.0
 11
0.5135177766433703
 21
0.4954140941022216
 31
0.0
210
0.0
220
0.0
230
1.0
 40
0.1315706377755324
 41
1.706338693185772
 42
2.483010210319641
  0
LINE
  5
806
330
1F
100
AcDbEntity
  8
0
  6
SLD-實線
 62
     7
100
AcDbLine
 10
2190.001477009073
 20
1801.645146425282
 30
0.0
 11
2183.736583670989
 21
1801.645146425282
 31
0.0
  0
SPLINE
  5
807
330
1F
100
AcDbEntity
  8
0
  6
SLD-實線
 62
     7
100
AcDbSpline
210
0.0
220
0.0
230
1.0
 70
     8
 71
     3
 72
    10
 73
     6
 74
     0
 42
0.000000001
 43
0.0000000001
 40
0.0
 40
0.0
 40
0.0
 40
0.0
 40
0.2521350127571415
 40
0.5007280842971365
 40
1.0
 40
1.0
 40
1.0
 40
1.0
 10
2183.736583670989
 20
1801.645146425282
 30
0.0
 10
2183.738190499099
 20
1801.671659321472
 30
0.0
 10
2183.741381582925
 20
1801.724312666095
 30
0.0
 10
2183.78249620738
 20
1801.845721806832
 30
0.0
 10
2183.835617783216
 20
1801.935599338073
 30
0.0
 10
2183.871081551925
 20
1801.995601247464
 30
0.0
  0
SPLINE
  5
808
330
1F
100
AcDbEntity
  8
0
  6
SLD-實線
 62
     7
100
AcDbSpline
210
0.0
220
0.0
230
1.0
 70
     8
 71
     3
 72
    11
 73
     7
 74
     0
 42
0.000000001
 43
0.0000000001
 40
0.0
 40
0.0
 40
0.0
 40
0.0
 40
0.2502817198803467
 40
0.5002990853922562
 40
0.7484189222133697
 40
0.9999999999999998
 40
0.9999999999999998
 40
0.9999999999999998
 40
0.9999999999999998
 10
2239.217145821467
 20
1801.995601247465
 30
0.0
 10
2239.234821065798
 20
1801.965657362312
 30
0.0
 10
2239.270152885386
 20
1801.905801219555
 30
0.0
 10
2239.315959824954
 20
1801.815558437863
 30
0.0
 10
2239.346848233536
 20
1801.724297451997
 30
0.0
 10
2239.350037848359
 20
1801.671651653426
 30
0.0
 10
2239.351643702403
 20
1801.645146425282
 30
0.0
  0
LINE
  5
809
330
1F
100
AcDbEntity
  8
0
  6
SLD-實線
 62
     7
100
AcDbLine
 10
2239.351643702403
 20
1801.645146425282
 30
0.0
 11
2233.086750364319
 21
1801.645146425282
 31
0.0
  0
ELLIPSE
  5
80A
330
1F
100
AcDbEntity
  8
0
  6
SLD-實線
 62
     7
100
AcDbEllipse
 10
2232.640737430768
 20
1801.995601518125
 30
0.0
 11
0.5135177766433738
 21
-0.4954140941022677
 31
0.0
210
0.0
220
0.0
230
1.0
 40
0.131570637775533
 41
0.6585824432648413
 42
1.435253960404031
  0
SPLINE
  5
80B
330
1F
100
AcDbEntity
  8
0
  6
SLD-實線
 62
     7
100
AcDbSpline
210
0.0
220
0.0
230
1.0
 70
     8
 71
     3
 72
    11
 73
     7
 74
     0
 42
0.000000001
 43
0.0000000001
 40
0.0
 40
0.0
 40
0.0
 40
0.0
 40
0.2506053309301159
 40
0.5
 40
0.7493946690698841
 40
0.9999999999999998
 40
0.9999999999999998
 40
0.9999999999999998
 40
0.9999999999999998
 10
2183.736583670989
 20
1801.645146425282
 30
0.0
 10
2183.714713632934
 20
1801.657271612545
 30
0.0
 10
2183.671079209888
 20
1801.681463410895
 30
0.0
 10
2183.608549346347
 20
1801.733069041887
 30
0.0
 10
2183.556943715355
 20
1801.795598905428
 30
0.0
 10
2183.532751917005
 20
1801.839233328474
 30
0.0
 10
2183.520626729742
 20
1801.861103366529
 30
0.0
  0
SPLINE
  5
80C
330
1F
100
AcDbEntity
  8
0
  6
SLD-實線
 62
     7
100
AcDbSpline
210
0.0
220
0.0
230
1.0
 70
     8
 71
     3
 72
    11
 73
     7
 74
     0
 42
0.000000001
 43
0.0000000001
 40
0.0
 40
0.0
 40
0.0
 40
0.0
 40
0.2506053309301159
 40
0.5
 40
0.7493946690698841
 40
0.9999999999999998
 40
0.9999999999999998
 40
0.9999999999999998
 40
0.9999999999999998
 10
2239.56760064365
 20
1801.861103366529
 30
0.0
 10
2239.555475456387
 20
1801.839233328475
 30
0.0
 10
2239.531283658036
 20
1801.795598905428
 30
0.0
 10
2239.479678027044
 20
1801.733069041888
 30
0.0
 10
2239.417148163504
 20
1801.681463410896
 30
0.0
 10
2239.373513740457
 20
1801.657271612545
 30
0.0
 10
2239.351643702403
 20
1801.645146425282
 30
0.0
  0
LINE
  5
80D
330
1F
100
AcDbEntity
  8
0
  6
SLD-實線
 62
     7
100
AcDbLine
 10
2237.844113713517
 20
1858.368633057391
 30
0.0
 11
2185.244113659873
 21
1858.36863305739
 31
0.0
  0
LINE
  5
80E
330
1F
100
AcDbEntity
  8
0
  6
SLD-實線
 62
     7
100
AcDbLine
 10
2239.32827123107
 20
1859.596919010794
 30
0.0
 11
2183.759950554385
 21
1859.596919010793
 31
0.0
  0
LINE
  5
80F
330
1F
100
AcDbEntity
  8
0
  6
SLD-實線
 62
     7
100
AcDbLine
 10
2205.526994528637
 20
1800.010753537928
 30
0.0
 11
2203.869113685951
 21
1801.668634380613
 31
0.0
  0
LINE
  5
810
330
1F
100
AcDbEntity
  8
0
  6
SLD-實線
 62
     7
100
AcDbLine
 10
2203.869113685951
 20
1802.642380561148
 30
0.0
 11
2203.869113685951
 21
1801.668634380613
 31
0.0
  0
LINE
  5
811
330
1F
100
AcDbEntity
  8
0
  6
SLD-實線
 62
     7
100
AcDbLine
 10
2202.454899890736
 20
1804.315414022122
 30
0.0
 11
2203.869113685951
 21
1802.642380561148
 31
0.0
  0
ELLIPSE
  5
812
330
1F
100
AcDbEntity
  8
0
  6
SLD-實線
 62
     7
100
AcDbEllipse
 10
2204.640737430768
 20
1801.995601518125
 30
0.0
 11
0.5135177766433738
 21
-0.4954140941022677
 31
0.0
210
0.0
220
0.0
230
1.0
 40
0.131570637775533
 41
0.6585824432648413
 42
1.435253960404031
  0
LINE
  5
813
330
1F
100
AcDbEntity
  8
0
  6
SLD-實線
 62
     7
100
AcDbLine
 10
2206.146010185048
 20
1800.207275639688
 30
0.0
 11
2205.086749500051
 21
1801.645146425282
 31
0.0
  0
ELLIPSE
  5
814
330
1F
100
AcDbEntity
  8
0
  6
SLD-實線
 62
     7
100
AcDbEllipse
 10
2205.699998109885
 20
1800.557730890053
 30
0.0
 11
0.5135177766433739
 21
-0.4954140941022391
 31
0.0
210
0.0
220
0.0
230
1.0
 40
0.1315706377755297
 41
6.165096233314632
 42
6.9417677504443
  0
LINE
  5
815
330
1F
100
AcDbEntity
  8
0
  6
SLD-實線
 62
     7
100
AcDbLine
 10
2206.20226020591
 20
1800.057807679688
 30
0.0
 11
2205.526994528637
 21
1800.010753537928
 31
0.0
  0
ELLIPSE
  5
816
330
1F
100
AcDbEntity
  8
0
  6
SLD-實線
 62
     7
100
AcDbEllipse
 10
2218.447489942623
 20
1801.995601518125
 30
0.0
 11
0.5135177766433776
 21
0.4954140941022216
 31
0.0
210
0.0
220
0.0
230
1.0
 40
0.1315706377755246
 41
1.706338693185766
 42
2.483010210322027
  0
LINE
  5
817
330
1F
100
AcDbEntity
  8
0
  6
SLD-實線
 62
     7
100
AcDbLine
 10
2219.219113687441
 20
1802.642380561148
 30
0.0
 11
2220.633327482656
 21
1804.315414022123
 31
0.0
  0
LINE
  5
818
330
1F
100
AcDbEntity
  8
0
  6
SLD-實線
 62
     7
100
AcDbLine
 10
2219.219113687441
 20
1801.668634380614
 30
0.0
 11
2219.219113687441
 21
1802.642380561148
 31
0.0
  0
LINE
  5
819
330
1F
100
AcDbEntity
  8
0
  6
SLD-實線
 62
     7
100
AcDbLine
 10
2219.219113687441
 20
1801.668634380614
 30
0.0
 11
2217.561232844755
 21
1800.010753537928
 31
0.0
  0
LINE
  5
81A
330
1F
100
AcDbEntity
  8
0
  6
SLD-實線
 62
     7
100
AcDbLine
 10
2217.561232844755
 20
1800.010753537928
 30
0.0
 11
2216.885967167482
 21
1800.057807679688
 31
0.0
  0
ELLIPSE
  5
81B
330
1F
100
AcDbEntity
  8
0
  6
SLD-實線
 62
     7
100
AcDbEllipse
 10
2217.388229263507
 20
1800.557730890054
 30
0.0
 11
0.5135177766433634
 21
0.4954140941022499
 31
0.0
210
0.0
220
0.0
230
1.0
 40
0.1315706377755366
 41
2.483010210325002
 42
3.259681727456279
  0
LINE
  5
81C
330
1F
100
AcDbEntity
  8
0
  6
SLD-實線
 62
     7
100
AcDbLine
 10
2218.001477873341
 20
1801.645146425282
 30
0.0
 11
2216.942217188344
 21
1800.207275639688
 31
0.0
  0
LINE
  5
81D
330
1F
100
AcDbEntity
  8
0
  6
SLD-實線
 62
     7
100
AcDbLine
 10
2230.454899823681
 20
1804.315414022123
 30
0.0
 11
2231.869113153234
 21
1802.642380561148
 31
0.0
  0
LINE
  5
81E
330
1F
100
AcDbEntity
  8
0
  6
SLD-實線
 62
     7
100
AcDbLine
 10
2231.869113153234
 20
1802.642380561148
 30
0.0
 11
2219.219113687441
 21
1802.642380561148
 31
0.0
  0
LINE
  5
81F
330
1F
100
AcDbEntity
  8
0
  6
SLD-實線
 62
     7
100
AcDbLine
 10
2233.52699399592
 20
1800.010753537928
 30
0.0
 11
2231.869113153234
 21
1801.668634380614
 31
0.0
  0
LINE
  5
820
330
1F
100
AcDbEntity
  8
0
  6
SLD-實線
 62
     7
100
AcDbLine
 10
2231.869113153234
 20
1802.642380561148
 30
0.0
 11
2231.869113153234
 21
1801.668634380614
 31
0.0
  0
LINE
  5
821
330
1F
100
AcDbEntity
  8
0
  6
SLD-實線
 62
     7
100
AcDbLine
 10
2234.146010583654
 20
1800.207275639688
 30
0.0
 11
2233.086750364319
 21
1801.645146425282
 31
0.0
  0
ELLIPSE
  5
822
330
1F
100
AcDbEntity
  8
0
  6
SLD-實線
 62
     7
100
AcDbEllipse
 10
2233.699998109884
 20
1800.557730890054
 30
0.0
 11
0.5135177766433739
 21
-0.4954140941022391
 31
0.0
210
0.0
220
0.0
230
1.0
 40
0.1315706377755366
 41
6.16509623331294
 42
6.941767750444275
  0
LINE
  5
823
330
1F
100
AcDbEntity
  8
0
  6
SLD-實線
 62
     7
100
AcDbLine
 10
2234.202260604516
 20
1800.057807679688
 30
0.0
 11
2233.52699399592
 21
1800.010753537928
 31
0.0
  0
LINE
  5
824
330
1F
100
AcDbEntity
  8
0
  6
SLD-實線
 62
     7
100
AcDbLine
 10
2203.869113685951
 20
1802.642380561148
 30
0.0
 11
2191.219114220158
 21
1802.642380561148
 31
0.0
  0
LINE
  5
825
330
1F
100
AcDbEntity
  8
0
  6
SLD-實線
 62
     7
100
AcDbLine
 10
2191.219114220158
 20
1802.642380561148
 30
0.0
 11
2192.633327549711
 21
1804.315414022122
 31
0.0
  0
LINE
  5
826
330
1F
100
AcDbEntity
  8
0
  6
SLD-實線
 62
     7
100
AcDbLine
 10
2191.219114220158
 20
1801.668634380613
 30
0.0
 11
2191.219114220158
 21
1802.642380561148
 31
0.0
  0
LINE
  5
827
330
1F
100
AcDbEntity
  8
0
  6
SLD-實線
 62
     7
100
AcDbLine
 10
2191.219114220158
 20
1801.668634380613
 30
0.0
 11
2189.561233377472
 21
1800.010753537928
 31
0.0
  0
LINE
  5
828
330
1F
100
AcDbEntity
  8
0
  6
SLD-實線
 62
     7
100
AcDbLine
 10
2189.561233377472
 20
1800.010753537928
 30
0.0
 11
2188.885966768876
 21
1800.057807679688
 31
0.0
  0
ELLIPSE
  5
829
330
1F
100
AcDbEntity
  8
0
  6
SLD-實線
 62
     7
100
AcDbEllipse
 10
2189.388229263507
 20
1800.557730890053
 30
0.0
 11
0.5135177766433704
 21
0.4954140941022503
 31
0.0
210
0.0
220
0.0
230
1.0
 40
0.1315706377755288
 41
2.483010210325005
 42
3.259681727454638
  0
LINE
  5
82A
330
1F
100
AcDbEntity
  8
0
  6
SLD-實線
 62
     7
100
AcDbLine
 10
2190.001477009073
 20
1801.645146425282
 30
0.0
 11
2188.942216789738
 21
1800.207275639688
 31
0.0
  0
LINE
  5
82B
330
1F
100
AcDbEntity
  8
0
  6
SLD-實線
 62
     7
100
AcDbLine
 10
2218.001477873341
 20
1801.645146425282
 30
0.0
 11
2205.086749500051
 21
1801.645146425282
 31
0.0
  0
LINE
  5
82C
330
1F
100
AcDbEntity
  8
0
  6
SLD-實線
 62
     7
100
AcDbLine
 10
2183.736583670989
 20
1800.207290540849
 30
0.0
 11
2183.736583670989
 21
1801.645146425282
 31
0.0
  0
SPLINE
  5
82D
330
1F
100
AcDbEntity
  8
0
  6
SLD-實線
 62
     7
100
AcDbSpline
210
0.0
220
0.0
230
1.0
 70
     8
 71
     3
 72
    17
 73
    13
 74
     0
 42
0.000000001
 43
0.0000000001
 40
0.0
 40
0.0
 40
0.0
 40
0.0
 40
0.0000230283903041
 40
0.0723174800780984
 40
0.2872057591158668
 40
0.4577355204678627
 40
0.5000269253863086
 40
0.5487151247122617
 40
0.7637499607752558
 40
0.9412335239041084
 40
0.9999762526639562
 40
1.0
 40
1.0
 40
1.0
 40
1.0
 10
2182.08278574647
 20
1801.861103366529
 30
0.0
 10
2182.082785746352
 20
1801.861083498315
 30
0.0
 10
2182.082785374489
 20
1801.798690116043
 30
0.0
 10
2182.096697437695
 20
1801.550771401485
 30
0.0
 10
2182.208975243391
 20
1801.163055343083
 30
0.0
 10
2182.415747555351
 20
1800.851685905662
 30
0.0
 10
2182.570097667597
 20
1800.686801783272
 30
0.0
 10
2182.763890790446
 20
1800.507137118369
 30
0.0
 10
2183.097672628752
 20
1800.306804722394
 30
0.0
 10
2183.481894105424
 20
1800.216650780335
 30
0.0
 10
2183.685859730264
 20
1800.207305128708
 30
0.0
 10
2183.736563181894
 20
1800.207305441884
 30
0.0
 10
2183.736583670989
 20
1800.20730544201
 30
0.0
  0
LINE
  5
82E
330
1F
100
AcDbEntity
  8
0
  6
SLD-實線
 62
     7
100
AcDbLine
 10
2182.082770845309
 20
1801.861103366529
 30
0.0
 11
2183.520589476839
 21
1801.861103366529
 31
0.0
  0
LINE
  5
82F
330
1F
100
AcDbEntity
  8
0
  6
SLD-實線
 62
     7
100
AcDbLine
 10
2239.56760064365
 20
1801.861103366529
 30
0.0
 11
2241.005456528083
 21
1801.861103366529
 31
0.0
  0
SPLINE
  5
830
330
1F
100
AcDbEntity
  8
0
  6
SLD-實線
 62
     7
100
AcDbSpline
210
0.0
220
0.0
230
1.0
 70
     8
 71
     3
 72
    17
 73
    13
 74
     0
 42
0.000000001
 43
0.0000000001
 40
0.0
 40
0.0
 40
0.0
 40
0.0
 40
0.0000237473381551
 40
0.0723174874031867
 40
0.2872057855475472
 40
0.4577355620620386
 40
0.5000269707407856
 40
0.5487157020229573
 40
0.7637499402753836
 40
0.9412335191850226
 40
0.9999769716076482
 40
1.0
 40
1.0
 40
1.0
 40
1.0
 10
2239.351643702403
 20
1800.207305442011
 30
0.0
 10
2239.351664191499
 20
1800.207305441885
 30
0.0
 10
2239.414059391481
 20
1800.207305058411
 30
0.0
 10
2239.661973638263
 20
1800.221217388529
 30
0.0
 10
2240.049692664235
 20
1800.333494794437
 30
0.0
 10
2240.361060856008
 20
1800.540267490615
 30
0.0
 10
2240.525945852275
 20
1800.694617469941
 30
0.0
 10
2240.705607585534
 20
1800.888413108597
 30
0.0
 10
2240.905943361801
 20
1801.222193146075
 30
0.0
 10
2240.996096413544
 20
1801.606412319827
 30
0.0
 10
2241.00544193073
 20
1801.810381523603
 30
0.0
 10
2241.005441627041
 20
1801.861083498316
 30
0.0
 10
2241.005441626922
 20
1801.861103366529
 30
0.0
  0
LINE
  5
831
330
1F
100
AcDbEntity
  8
0
  6
SLD-實線
 62
     7
100
AcDbLine
 10
2239.351643702403
 20
1801.645109172379
 30
0.0
 11
2239.351643702403
 21
1800.20729054085
 31
0.0
  0
LINE
  5
832
330
1F
100
AcDbEntity
  8
0
  6
SLD-實線
 62
     7
100
AcDbLine
 10
2183.736583670989
 20
1800.207275639688
 30
0.0
 11
2188.942216789738
 21
1800.207275639688
 31
0.0
  0
LINE
  5
833
330
1F
100
AcDbEntity
  8
0
  6
SLD-實線
 62
     7
100
AcDbLine
 10
2241.005471429244
 20
1801.861103366529
 30
0.0
 11
2241.005471429243
 21
1824.162500652885
 31
0.0
  0
LINE
  5
834
330
1F
100
AcDbEntity
  8
0
  6
SLD-實線
 62
     7
100
AcDbLine
 10
2234.146010583654
 20
1800.207275639688
 30
0.0
 11
2239.351643702403
 21
1800.207275639688
 31
0.0
  0
LINE
  5
835
330
1F
100
AcDbEntity
  8
0
  6
SLD-實線
 62
     7
100
AcDbLine
 10
2182.082755944147
 20
1824.162500652884
 30
0.0
 11
2182.082755944148
 21
1801.861103366529
 31
0.0
  0
LINE
  5
836
330
1F
100
AcDbEntity
  8
0
  6
SLD-實線
 62
     7
100
AcDbLine
 10
2206.146010185048
 20
1800.207275639688
 30
0.0
 11
2216.942217188344
 21
1800.207275639688
 31
0.0
  0
SPLINE
  5
837
330
1F
100
AcDbEntity
  8
0
  6
SLD-實線
 62
     7
100
AcDbSpline
210
0.0
220
0.0
230
1.0
 70
     8
 71
     3
 72
    14
 73
    10
 74
     0
 42
0.000000001
 43
0.0000000001
 40
0.0
 40
0.0
 40
0.0
 40
0.0
 40
0.1344284639298788
 40
0.2690235584287557
 40
0.4036187154889276
 40
0.5518051979663003
 40
0.6999917290646436
 40
0.8499958690132094
 40
1.0
 40
1.0
 40
1.0
 40
1.0
 10
2241.270583575978
 20
1859.595378603255
 30
0.0
 10
2241.260717945143
 20
1858.072269022518
 30
0.0
 10
2241.24097445455
 20
1855.024161893209
 30
0.0
 10
2241.216431047678
 20
1850.351186451499
 30
0.0
 10
2241.194977756808
 20
1845.458536262724
 30
0.0
 10
2241.177531157082
 20
1840.344889537554
 30
0.0
 10
2241.164612991048
 20
1835.000326818104
 30
0.0
 10
2241.156463396858
 20
1829.600685507536
 30
0.0
 10
2241.155447391772
 20
1825.975228901669
 30
0.0
 10
2241.154939389243
 20
1824.162500652885
 30
0.0
  0
SPLINE
  5
838
330
1F
100
AcDbEntity
  8
0
  6
SLD-實線
 62
     7
100
AcDbSpline
210
0.0
220
0.0
230
1.0
 70
    24
 71
     3
 72
    11
 73
     7
 74
     0
 42
0.000000001
 43
0.0000000001
 40
0.0
 40
0.0
 40
0.0
 40
0.0
 40
0.250000990652072
 40
0.5000024756923041
 40
0.7500006691625888
 40
1.0
 40
1.0
 40
1.0
 40
1.0
 10
2241.154939389243
 20
1824.162500652885
 30
0.0
 10
2241.152568696265
 20
1824.162500652885
 30
0.0
 10
2241.147827305621
 20
1824.162500652885
 30
0.0
 10
2241.116924867437
 20
1824.162500652885
 30
0.0
 10
2241.070946052002
 20
1824.162500652885
 30
0.0
 10
2241.027296336593
 20
1824.162500652885
 30
0.0
 10
2241.005471429243
 20
1824.162500652885
 30
0.0
  0
ARC
  5
839
330
1F
100
AcDbEntity
  8
0
  6
SLD-實線
 62
     7
100
AcDbCircle
 10
2241.090162843333
 20
1859.534128619509
 30
0.0
 40
0.1905339898211784
100
AcDbArc
 50
18.75153699986564
 51
80.58882759643156
  0
LINE
  5
83A
330
1F
100
AcDbEntity
  8
0
  6
SLD-實線
 62
     7
100
AcDbLine
 10
2191.219114220158
 20
1801.668634380613
 30
0.0
 11
2203.869113685951
 21
1801.668634380613
 31
0.0
  0
LINE
  5
83B
330
1F
100
AcDbEntity
  8
0
  6
SLD-實線
 62
     7
100
AcDbLine
 10
2219.219113687441
 20
1801.668634380614
 30
0.0
 11
2231.869113153234
 21
1801.668634380614
 31
0.0
  0
LINE
  5
83C
330
1F
100
AcDbEntity
  8
0
  6
SLD-實線
 62
     7
100
AcDbLine
 10
2241.544113016143
 20
1822.318633760726
 30
0.0
 11
2241.526658168449
 21
1822.318633760726
 31
0.0
  0
LINE
  5
83D
330
1F
100
AcDbEntity
  8
0
  6
SLD-實線
 62
     7
100
AcDbLine
 10
2241.526658168449
 20
1822.318633760726
 30
0.0
 11
2241.526658168449
 21
1815.318633544659
 31
0.0
  0
LINE
  5
83E
330
1F
100
AcDbEntity
  8
0
  6
SLD-實線
 62
     7
100
AcDbLine
 10
2241.526658168449
 20
1815.318633544659
 30
0.0
 11
2241.544113016143
 21
1815.318633544659
 31
0.0
  0
LINE
  5
83F
330
1F
100
AcDbEntity
  8
0
  6
SLD-實線
 62
     7
100
AcDbLine
 10
2241.544113016144
 20
1801.468359048879
 30
0.0
 11
2241.544113016143
 21
1815.318633544659
 31
0.0
  0
LINE
  5
840
330
1F
100
AcDbEntity
  8
0
  6
SLD-實線
 62
     7
100
AcDbLine
 10
2241.154939389244
 20
1801.857532675778
 30
0.0
 11
2241.544113016144
 21
1801.468359048879
 31
0.0
  0
LINE
  5
841
330
1F
100
AcDbEntity
  8
0
  6
SLD-實線
 62
     7
100
AcDbLine
 10
2241.154939389243
 20
1824.162500652885
 30
0.0
 11
2241.154939389244
 21
1801.857532675778
 31
0.0
  0
LINE
  5
842
330
1F
100
AcDbEntity
  8
0
  6
SLD-實線
 62
     7
100
AcDbLine
 10
2241.45858407618
 20
1859.783377240812
 30
0.0
 11
2241.270583575978
 21
1859.595378603255
 31
0.0
  0
LINE
  5
843
330
1F
100
AcDbEntity
  8
0
  6
SLD-實線
 62
     7
100
AcDbLine
 10
2241.45858407618
 20
1833.87684819608
 30
0.0
 11
2241.45858407618
 21
1859.783377240812
 31
0.0
  0
ELLIPSE
  5
844
330
1F
100
AcDbEntity
  8
0
  6
SLD-實線
 62
     7
100
AcDbEllipse
 10
2241.510949063332
 20
1833.876848102386
 30
0.0
 11
-0.0000000000000312
 21
3.0
 31
0.0
210
0.0
220
0.0
230
1.0
 40
0.0174550649282139
 41
1.570796326794896
 42
2.752070037141594
  0
ELLIPSE
  5
845
330
1F
100
AcDbEntity
  8
0
  6
SLD-實線
 62
     7
100
AcDbEllipse
 10
2241.458583868547
 20
1826.568633546149
 30
0.0
 11
-0.000000000000051
 21
4.900000000000005
 31
0.0
210
0.0
220
0.0
230
1.0
 40
0.0174550649282191
 41
4.712388980384689
 42
5.893662690735884
  0
LINE
  5
846
330
1F
100
AcDbEntity
  8
0
  6
SLD-實線
 62
     7
100
AcDbLine
 10
2241.544113016143
 20
1822.318633760726
 30
0.0
 11
2241.544113016143
 21
1826.568633526033
 31
0.0
  0
SPLINE
  5
847
330
1F
100
AcDbEntity
  8
0
  6
SLD-實線
 62
     7
100
AcDbSpline
210
0.0
220
0.0
230
1.0
 70
     8
 71
     3
 72
    15
 73
    11
 74
     0
 42
0.000000001
 43
0.0000000001
 40
0.0
 40
0.0
 40
0.0
 40
0.0
 40
0.059721693324838
 40
0.2369303769424696
 40
0.4514154561361219
 40
0.4999735074927669
 40
0.5421491717666669
 40
0.7122742304429077
 40
0.9267587900615097
 40
0.9999999999999998
 40
0.9999999999999998
 40
0.9999999999999998
 40
0.9999999999999998
 10
2241.154939389244
 20
1801.857532675778
 30
0.0
 10
2241.153298022581
 20
1801.801442100065
 30
0.0
 10
2241.146786324725
 20
1801.578917243404
 30
0.0
 10
2241.044598607933
 20
1801.160823853897
 30
0.0
 10
2240.827991195724
 20
1800.798620773617
 30
0.0
 10
2240.632905598587
 20
1800.588330126855
 30
0.0
 10
2240.453961632951
 20
1800.420713928227
 30
0.0
 10
2240.11603336277
 20
1800.197106146802
 30
0.0
 10
2239.694196788484
 20
1800.069859087613
 30
0.0
 10
2239.423994869464
 20
1800.06025294407
 30
0.0
 10
2239.355214393154
 20
1800.057807679688
 30
0.0
  0
SPLINE
  5
848
330
1F
100
AcDbEntity
  8
0
  6
SLD-實線
 62
     7
100
AcDbSpline
210
0.0
220
0.0
230
1.0
 70
     8
 71
     3
 72
    11
 73
     7
 74
     0
 42
0.000000001
 43
0.0000000001
 40
0.0
 40
0.0
 40
0.0
 40
0.0
 40
0.2500012321334509
 40
0.5000003609944401
 40
0.7499975864882047
 40
1.0
 40
1.0
 40
1.0
 40
1.0
 10
2239.355214393154
 20
1800.057807679688
 30
0.0
 10
2239.354916935773
 20
1800.060178786148
 30
0.0
 10
2239.354322023514
 20
1800.064920979119
 30
0.0
 10
2239.353430649326
 20
1800.095828110433
 30
0.0
 10
2239.352535265964
 20
1800.141810332272
 30
0.0
 10
2239.351940892312
 20
1800.185463653674
 30
0.0
 10
2239.351643702403
 20
1800.20729054085
 30
0.0
  0
SPLINE
  5
849
330
1F
100
AcDbEntity
  8
0
  6
SLD-實線
 62
     7
100
AcDbSpline
210
0.0
220
0.0
230
1.0
 70
     8
 71
     3
 72
    11
 73
     7
 74
     0
 42
0.000000001
 43
0.0000000001
 40
0.0
 40
0.0
 40
0.0
 40
0.0
 40
0.2500012321334509
 40
0.5000003609944401
 40
0.7499975864882047
 40
1.0
 40
1.0
 40
1.0
 40
1.0
 10
2241.154939389244
 20
1801.857532675778
 30
0.0
 10
2241.152568282784
 20
1801.857830133159
 30
0.0
 10
2241.147826089814
 20
1801.858425045418
 30
0.0
 10
2241.116918958499
 20
1801.859316419606
 30
0.0
 10
2241.07093673666
 20
1801.860211802968
 30
0.0
 10
2241.027283415258
 20
1801.86080617662
 30
0.0
 10
2241.005456528083
 20
1801.861103366529
 30
0.0
  0
SPLINE
  5
84A
330
1F
100
AcDbEntity
  8
0
  6
SLD-實線
 62
     7
100
AcDbSpline
210
0.0
220
0.0
230
1.0
 70
     8
 71
     3
 72
    15
 73
    11
 74
     0
 42
0.000000001
 43
0.0000000001
 40
0.0
 40
0.0
 40
0.0
 40
0.0
 40
0.0597216887716392
 40
0.2369310019743145
 40
0.4514154981261284
 40
0.4999744799200868
 40
0.5421492066733439
 40
0.712274252379202
 40
0.9267587956454404
 40
1.0
 40
1.0
 40
1.0
 40
1.0
 10
2183.733012980238
 20
1800.057807679688
 30
0.0
 10
2183.676922409418
 20
1800.059449062088
 30
0.0
 10
2183.454396968177
 20
1800.065960840051
 30
0.0
 10
2183.036303120598
 20
1800.168147521068
 30
0.0
 10
2182.674099957062
 20
1800.384756757542
 30
0.0
 10
2182.463809801644
 20
1800.579842084957
 30
0.0
 10
2182.296193747693
 20
1800.758786180204
 30
0.0
 10
2182.072586448926
 20
1801.096713703867
 30
0.0
 10
2181.945339392257
 20
1801.518550280628
 30
0.0
 10
2181.935733248566
 20
1801.788752199504
 30
0.0
 10
2181.933287984148
 20
1801.857532675778
 30
0.0
  0
SPLINE
  5
84B
330
1F
100
AcDbEntity
  8
0
  6
SLD-實線
 62
     7
100
AcDbSpline
210
0.0
220
0.0
230
1.0
 70
     8
 71
     3
 72
    11
 73
     7
 74
     0
 42
0.000000001
 43
0.0000000001
 40
0.0
 40
0.0
 40
0.0
 40
0.0
 40
0.2500012321334509
 40
0.5000003609944401
 40
0.7499975864882047
 40
1.0
 40
1.0
 40
1.0
 40
1.0
 10
2181.933287984148
 20
1801.857532675778
 30
0.0
 10
2181.935659090607
 20
1801.857830133158
 30
0.0
 10
2181.940401283578
 20
1801.858425045418
 30
0.0
 10
2181.971308414893
 20
1801.859316419605
 30
0.0
 10
2182.017290636732
 20
1801.860211802967
 30
0.0
 10
2182.060943958134
 20
1801.860806176619
 30
0.0
 10
2182.082770845309
 20
1801.861103366529
 30
0.0
  0
SPLINE
  5
84C
330
1F
100
AcDbEntity
  8
0
  6
SLD-實線
 62
     7
100
AcDbSpline
210
0.0
220
0.0
230
1.0
 70
     8
 71
     3
 72
    11
 73
     7
 74
     0
 42
0.000000001
 43
0.0000000001
 40
0.0
 40
0.0
 40
0.0
 40
0.0
 40
0.2500012321334509
 40
0.5000003609944401
 40
0.7499975864882047
 40
1.0
 40
1.0
 40
1.0
 40
1.0
 10
2183.733012980238
 20
1800.057807679688
 30
0.0
 10
2183.733310437618
 20
1800.060178786147
 30
0.0
 10
2183.733905349878
 20
1800.064920979118
 30
0.0
 10
2183.734796724065
 20
1800.095828110433
 30
0.0
 10
2183.735692107427
 20
1800.141810332272
 30
0.0
 10
2183.736286481079
 20
1800.185463653674
 30
0.0
 10
2183.736583670989
 20
1800.207290540849
 30
0.0
  0
LINE
  5
84D
330
1F
100
AcDbEntity
  8
0
  6
SLD-實線
 62
     7
100
AcDbLine
 10
2188.885966768876
 20
1800.057807679688
 30
0.0
 11
2183.733012980238
 21
1800.057807679688
 31
0.0
  0
LINE
  5
84E
330
1F
100
AcDbEntity
  8
0
  6
SLD-實線
 62
     7
100
AcDbLine
 10
2239.355214393154
 20
1800.057807679688
 30
0.0
 11
2234.202260604516
 21
1800.057807679688
 31
0.0
  0
LINE
  5
84F
330
1F
100
AcDbEntity
  8
0
  6
SLD-實線
 62
     7
100
AcDbLine
 10
2216.885967167482
 20
1800.057807679688
 30
0.0
 11
2206.20226020591
 21
1800.057807679688
 31
0.0
  0
ELLIPSE
  5
850
330
1F
100
AcDbEntity
  8
0
  6
SLD-實線
 62
     7
100
AcDbEllipse
 10
2239.743839496217
 20
1801.468907736628
 30
0.0
 11
1.273179940505257
 21
-1.273179940505245
 31
0.0
210
0.0
220
0.0
230
1.0
 40
0.9996954598818865
 41
5.525564333417616
 42
7.068431177329524
  0
ELLIPSE
  5
851
330
1F
100
AcDbEntity
  8
0
  6
SLD-實線
 62
     7
100
AcDbEllipse
 10
2239.844380220172
 20
1801.368367012672
 30
0.0
 11
-1.662930701606725
 21
4.014669853105471
 31
0.0
210
0.0
220
0.0
230
1.0
 40
0.1716098289576716
 41
1.845149164968985
 42
1.935642072234317
  0
SPLINE
  5
852
330
1F
100
AcDbEntity
  8
0
  6
SLD-實線
 62
     7
100
AcDbSpline
210
0.0
220
0.0
230
1.0
 70
     8
 71
     3
 72
     9
 73
     5
 74
     0
 42
0.000000001
 43
0.0000000001
 40
0.0
 40
0.0
 40
0.0
 40
0.0
 40
0.5011074806282986
 40
1.0
 40
1.0
 40
1.0
 40
1.0
 10
2239.408735638872
 20
1800.00428643397
 30
0.0
 10
2239.47235380398
 20
1800.005125282226
 30
0.0
 10
2239.599308933504
 20
1800.006799270915
 30
0.0
 10
2239.620931260455
 20
1800.006262346931
 30
0.0
 10
2239.631718477622
 20
1800.005994479572
 30
0.0
  0
LINE
  5
853
330
1F
100
AcDbEntity
  8
0
  6
SLD-實線
 62
     7
100
AcDbLine
 10
2239.408735638872
 20
1800.00428643397
 30
0.0
 11
2239.355214393154
 21
1800.057807679688
 31
0.0
  0
SPLINE
  5
854
330
1F
100
AcDbEntity
  8
0
  6
SLD-實線
 62
     7
100
AcDbSpline
210
0.0
220
0.0
230
1.0
 70
     8
 71
     3
 72
     9
 73
     5
 74
     0
 42
0.000000001
 43
0.0000000001
 40
0.0
 40
0.0
 40
0.0
 40
0.0
 40
0.500957116691949
 40
1.0
 40
1.0
 40
1.0
 40
1.0
 10
2183.45650889577
 20
1800.005994479571
 30
0.0
 10
2183.467383480623
 20
1800.006256065392
 30
0.0
 10
2183.489091096884
 20
1800.006778237475
 30
0.0
 10
2183.616105900634
 20
1800.005115974485
 30
0.0
 10
2183.67949173452
 20
1800.00428643397
 30
0.0
  0
ELLIPSE
  5
855
330
1F
100
AcDbEntity
  8
0
  6
SLD-實線
 62
     7
100
AcDbEllipse
 10
2183.24384715322
 20
1801.368367012672
 30
0.0
 11
1.662930701606643
 21
4.014669853105508
 31
0.0
210
0.0
220
0.0
230
1.0
 40
0.1716098289576716
 41
4.347543234945242
 42
4.438036142210558
  0
ELLIPSE
  5
856
330
1F
100
AcDbEntity
  8
0
  6
SLD-實線
 62
     7
100
AcDbEllipse
 10
2183.344387877175
 20
1801.468907736627
 30
0.0
 11
-1.273179940505237
 21
-1.273179940505271
 31
0.0
210
0.0
220
0.0
230
1.0
 40
0.9996954598818698
 41
5.497939437029621
 42
7.040806280941546
  0
LINE
  5
857
330
1F
100
AcDbEntity
  8
0
  6
SLD-實線
 62
     7
100
AcDbLine
 10
2183.733012980238
 20
1800.057807679688
 30
0.0
 11
2183.67949173452
 21
1800.00428643397
 31
0.0
  0
ELLIPSE
  5
858
330
1F
100
AcDbEntity
  8
0
  6
SLD-實線
 62
     7
100
AcDbEllipse
 10
2238.631755867402
 20
1799.993297753814
 30
0.0
 11
1.000000000000014
 21
0.0000000000000104
 31
0.0
210
0.0
220
0.0
230
1.0
 40
0.0174550649282421
 41
0.6809431267431169
 42
1.570796326794896
  0
LINE
  5
859
330
1F
100
AcDbEntity
  8
0
  6
SLD-實線
 62
     7
100
AcDbLine
 10
2238.631755566612
 20
1800.010753537928
 30
0.0
 11
2233.52699399592
 21
1800.010753537928
 31
0.0
  0
LINE
  5
85A
330
1F
100
AcDbEntity
  8
0
  6
SLD-實線
 62
     7
100
AcDbLine
 10
2189.561233377472
 20
1800.010753537928
 30
0.0
 11
2184.45647180678
 21
1800.010753537928
 31
0.0
  0
ELLIPSE
  5
85B
330
1F
100
AcDbEntity
  8
0
  6
SLD-實線
 62
     7
100
AcDbEllipse
 10
2184.45647150599
 20
1799.993297753813
 30
0.0
 11
1.0
 21
0.0000000000000104
 31
0.0
210
0.0
220
0.0
230
1.0
 40
0.0174550649282424
 41
1.570796326794896
 42
2.460649526845525
  0
LINE
  5
85C
330
1F
100
AcDbEntity
  8
0
  6
SLD-實線
 62
     7
100
AcDbLine
 10
2217.561232844755
 20
1800.010753537928
 30
0.0
 11
2205.526994528637
 21
1800.010753537928
 31
0.0
  0
ARC
  5
85D
330
1F
100
AcDbEntity
  8
0
  6
SLD-實線
 62
     7
100
AcDbCircle
 10
2183.194691446562
 20
1860.656193444832
 30
0.0
 40
0.5743116182053929
100
AcDbArc
 50
108.8104547711859
 51
158.9057522211664
  0
SPLINE
  5
85E
330
1F
100
AcDbEntity
  8
0
  6
SLD-實線
 62
     7
100
AcDbSpline
210
0.0
220
0.0
230
1.0
 70
     8
 71
     3
 72
    10
 73
     6
 74
     0
 42
0.000000001
 43
0.0000000001
 40
0.0
 40
0.0
 40
0.0
 40
0.0
 40
0.398029988211749
 40
0.6955565689619334
 40
1.0
 40
1.0
 40
1.0
 40
1.0
 10
2183.009511312857
 20
1861.19983133248
 30
0.0
 10
2183.169481284521
 20
1861.070830076889
 30
0.0
 10
2183.449028474237
 20
1860.845400653509
 30
0.0
 10
2183.707850304339
 20
1860.268259382575
 30
0.0
 10
2183.742451278522
 20
1859.822406803144
 30
0.0
 10
2183.759950554385
 20
1859.596919010793
 30
0.0
  0
SPLINE
  5
85F
330
1F
100
AcDbEntity
  8
0
  6
SLD-實線
 62
     7
100
AcDbSpline
210
0.0
220
0.0
230
1.0
 70
     8
 71
     3
 72
    10
 73
     6
 74
     0
 42
0.000000001
 43
0.0000000001
 40
0.0
 40
0.0
 40
0.0
 40
0.0
 40
0.3048637853365305
 40
0.6027709868504936
 40
1.0
 40
1.0
 40
1.0
 40
1.0
 10
2239.32827123107
 20
1859.596919010794
 30
0.0
 10
2239.345928726849
 20
1859.822981409815
 30
0.0
 10
2239.380840797972
 20
1860.269947766273
 30
0.0
 10
2239.639587194965
 20
1860.847395363279
 30
0.0
 10
2239.917405647683
 20
1861.072800691225
 30
0.0
 10
2240.076162374034
 20
1861.201606433307
 30
0.0
  0
ARC
  5
860
330
1F
100
AcDbEntity
  8
0
  6
SLD-實線
 62
     7
100
AcDbCircle
 10
2239.893745009723
 20
1860.658892623269
 30
0.0
 40
0.5725507614255683
100
AcDbArc
 50
21.39785745058621
 51
71.42143589527518
  0
LINE
  5
861
330
1F
100
AcDbEntity
  8
0
  6
SLD-實線
 62
     7
100
AcDbLine
 10
2183.608144974723
 20
1861.404327418123
 30
0.0
 11
2239.480082398667
 21
1861.404327418124
 31
0.0
  0
SPLINE
  5
862
330
1F
100
AcDbEntity
  8
0
  6
SLD-實線
 62
     7
100
AcDbSpline
210
0.0
220
0.0
230
1.0
 70
     8
 71
     3
 72
    12
 73
     8
 74
     0
 42
0.000000001
 43
0.0000000001
 40
0.0
 40
0.0
 40
0.0
 40
0.0
 40
0.3882940136307055
 40
0.8598042382940798
 40
0.9654843632694712
 40
0.991054110274103
 40
1.0
 40
1.0
 40
1.0
 40
1.0
 10
2240.076162374034
 20
1861.201606433307
 30
0.0
 10
2240.001836193975
 20
1861.246520454039
 30
0.0
 10
2239.837254813918
 20
1861.345974125815
 30
0.0
 10
2239.640350133182
 20
1861.392662256641
 30
0.0
 10
2239.51754103305
 20
1861.402852539153
 30
0.0
 10
2239.488944332127
 20
1861.404055633608
 30
0.0
 10
2239.481906491973
 20
1861.404271475443
 30
0.0
 10
2239.480082398667
 20
1861.404327418124
 30
0.0
  0
SPLINE
  5
863
330
1F
100
AcDbEntity
  8
0
  6
SLD-實線
 62
     7
100
AcDbSpline
210
0.0
220
0.0
230
1.0
 70
     8
 71
     3
 72
    12
 73
     8
 74
     0
 42
0.000000001
 43
0.0000000001
 40
0.0
 40
0.0
 40
0.0
 40
0.0
 40
0.0089055066085923
 40
0.0345081036817415
 40
0.1401728165089
 40
0.6121343763191196
 40
1.0
 40
1.0
 40
1.0
 40
1.0
 10
2183.608144974723
 20
1861.404327418123
 30
0.0
 10
2183.606320883759
 20
1861.404271493141
 30
0.0
 10
2183.599252681704
 20
1861.404054788447
 30
0.0
 10
2183.570530570369
 20
1861.402842061778
 30
0.0
 10
2183.447070754903
 20
1861.392576262556
 30
0.0
 10
2183.249268750966
 20
1861.345459021261
 30
0.0
 10
2183.084043816154
 20
1861.245102070605
 30
0.0
 10
2183.009511312857
 20
1861.19983133248
 30
0.0
  0
SPLINE
  5
864
330
1F
100
AcDbEntity
  8
0
  6
SLD-實線
 62
     7
100
AcDbSpline
210
0.0
220
0.0
230
1.0
 70
     8
 71
     3
 72
    12
 73
     8
 74
     0
 42
0.000000001
 43
0.0000000001
 40
0.0
 40
0.0
 40
0.0
 40
0.0
 40
0.2034140640689728
 40
0.4113324846416599
 40
0.6050596443607134
 40
0.8580276014712042
 40
1.0
 40
1.0
 40
1.0
 40
1.0
 10
2181.817643797412
 20
1859.595378603254
 30
0.0
 10
2181.825540334279
 20
1859.729367902835
 30
0.0
 10
2181.841508267199
 20
1860.000313531712
 30
0.0
 10
2181.984413406539
 20
1860.391217014204
 30
0.0
 10
2182.220279321126
 20
1860.75816418019
 30
0.0
 10
2182.496284160437
 20
1861.018539872754
 30
0.0
 10
2182.700412164687
 20
1861.135257622983
 30
0.0
 10
2182.773791706576
 20
1861.177215095078
 30
0.0
  0
ARC
  5
865
330
1F
100
AcDbEntity
  8
0
  6
SLD-實線
 62
     7
100
AcDbCircle
 10
2182.964746782273
 20
1860.929222948034
 30
0.0
 40
0.3129919263010443
100
AcDbArc
 50
127.5964339534978
 51
192.2355856370016
  0
SPLINE
  5
866
330
1F
100
AcDbEntity
  8
0
  6
SLD-實線
 62
     7
100
AcDbSpline
210
0.0
220
0.0
230
1.0
 70
     8
 71
     3
 72
    12
 73
     8
 74
     0
 42
0.000000001
 43
0.0000000001
 40
0.0
 40
0.0
 40
0.0
 40
0.0
 40
0.1419438497189866
 40
0.3934414000423215
 40
0.5875518239246138
 40
0.796066878550226
 40
1.0
 40
1.0
 40
1.0
 40
1.0
 10
2240.310874289288
 20
1861.179211850678
 30
0.0
 10
2240.38447737717
 20
1861.137343556431
 30
0.0
 10
2240.588491161501
 20
1861.021292594458
 30
0.0
 10
2240.865267752615
 20
1860.761468229095
 30
0.0
 10
2241.102424587508
 20
1860.394486613443
 30
0.0
 10
2241.246525460756
 20
1860.002041497999
 30
0.0
 10
2241.262623817054
 20
1859.729925244816
 30
0.0
 10
2241.270583575978
 20
1859.595378603255
 30
0.0
  0
ARC
  5
867
330
1F
100
AcDbEntity
  8
0
  6
SLD-實線
 62
     7
100
AcDbCircle
 10
2240.121690203952
 20
1860.931470991117
 30
0.0
 40
0.3117148563045497
100
AcDbArc
 50
348.2106346970157
 51
52.63330776626094
  0
ARC
  5
868
330
1F
100
AcDbEntity
  8
0
  6
SLD-實線
 62
     7
100
AcDbCircle
 10
2182.921812416426
 20
1860.874168667156
 30
0.0
 40
0.3372643889010443
100
AcDbArc
 50
74.92815117720356
 51
116.0328423938805
  0
ARC
  5
869
330
1F
100
AcDbEntity
  8
0
  6
SLD-實線
 62
     7
100
AcDbCircle
 10
2240.163516669011
 20
1860.875969359029
 30
0.0
 40
0.3371502291199376
100
AcDbArc
 50
64.08303458952184
 51
105.0164321332923
  0
SPLINE
  5
86A
330
1F
100
AcDbEntity
  8
0
  6
SLD-實線
 62
     7
100
AcDbSpline
210
0.0
220
0.0
230
1.0
 70
     8
 71
     3
 72
    13
 73
     9
 74
     0
 42
0.000000001
 43
0.0000000001
 40
0.0
 40
0.0
 40
0.0
 40
0.0
 40
0.3882806758132853
 40
0.7628862063808618
 40
0.9058306012417528
 40
0.962467949796758
 40
0.9919928171636847
 40
1.0
 40
1.0
 40
1.0
 40
1.0
 10
2182.773791706576
 20
1861.177215095078
 30
0.0
 10
2182.877616144957
 20
1861.228096315923
 30
0.0
 10
2183.081608351781
 20
1861.328066734141
 30
0.0
 10
2183.338943960777
 20
1861.38358125485
 30
0.0
 10
2183.502708853388
 20
1861.400092838251
 30
0.0
 10
2183.568203172257
 20
1861.403313060939
 30
0.0
 10
2183.595125672128
 20
1861.404090082186
 30
0.0
 10
2183.605855785176
 20
1861.404285687244
 30
0.0
 10
2183.608144974723
 20
1861.404327418123
 30
0.0
  0
SPLINE
  5
86B
330
1F
100
AcDbEntity
  8
0
  6
SLD-實線
 62
     7
100
AcDbSpline
210
0.0
220
0.0
230
1.0
 70
     8
 71
     3
 72
    13
 73
     9
 74
     0
 42
0.000000001
 43
0.0000000001
 40
0.0
 40
0.0
 40
0.0
 40
0.0
 40
0.0080436200738035
 40
0.0375189725210348
 40
0.0941373356950323
 40
0.2370209523186923
 40
0.6112968392296459
 40
1.0
 40
1.0
 40
1.0
 40
1.0
 10
2239.480082398667
 20
1861.404327418124
 30
0.0
 10
2239.482371581206
 20
1861.404285689656
 30
0.0
 10
2239.493049332764
 20
1861.404091049775
 30
0.0
 10
2239.519841814482
 20
1861.40331883424
 30
0.0
 10
2239.585000827337
 20
1861.400127853933
 30
0.0
 10
2239.74791290422
 20
1861.38376522223
 30
0.0
 10
2240.004106428583
 20
1861.328765286333
 30
0.0
 10
2240.207337361997
 20
1861.229687487721
 30
0.0
 10
2240.310874289288
 20
1861.179211850678
 30
0.0
  0
ELLIPSE
  5
86C
330
1F
100
AcDbEntity
  8
0
  6
SLD-實線
 62
     7
100
AcDbEllipse
 10
2183.429917695322
 20
1859.782829537521
 30
0.0
 11
1.273179940505271
 21
-1.273179940505245
 31
0.0
210
0.0
220
0.0
230
1.0
 40
0.9996954598818893
 41
2.356346783440093
 42
3.926838523739724
  0
LINE
  5
86D
330
1F
100
AcDbEntity
  8
0
  6
SLD-實線
 62
     7
100
AcDbLine
 10
2183.429370155945
 20
1861.583104099547
 30
0.0
 11
2183.608144974723
 21
1861.404327418123
 31
0.0
  0
LINE
  5
86E
330
1F
100
AcDbEntity
  8
0
  6
SLD-實線
 62
     7
100
AcDbLine
 10
2239.480082398667
 20
1861.404327418124
 30
0.0
 11
2239.658857217445
 21
1861.583104099547
 31
0.0
  0
ELLIPSE
  5
86F
330
1F
100
AcDbEntity
  8
0
  6
SLD-實線
 62
     7
100
AcDbEllipse
 10
2239.658309678068
 20
1859.782829537521
 30
0.0
 11
-1.273179940505231
 21
-1.273179940505271
 31
0.0
210
0.0
220
0.0
230
1.0
 40
0.9996954598818698
 41
2.356346783439825
 42
3.926838523739475
  0
LINE
  5
870
330
1F
100
AcDbEntity
  8
0
  6
SLD-實線
 62
     7
100
AcDbLine
 10
2204.044113854333
 20
1861.495827998435
 30
0.0
 11
2204.044113854333
 21
1861.583104099547
 31
0.0
  0
ELLIPSE
  5
871
330
1F
100
AcDbEntity
  8
0
  6
SLD-實線
 62
     7
100
AcDbEllipse
 10
2207.044113686695
 20
1861.495828403359
 30
0.0
 11
3.0
 21
0.0000000000000312
 31
0.0
210
0.0
220
0.0
230
1.0
 40
0.0174550649282045
 41
3.141592653589201
 42
4.712388980384689
  0
LINE
  5
872
330
1F
100
AcDbEntity
  8
0
  6
SLD-實線
 62
     7
100
AcDbLine
 10
2216.04411349298
 20
1861.443463455355
 30
0.0
 11
2207.04411388041
 21
1861.443463455355
 31
0.0
  0
ELLIPSE
  5
873
330
1F
100
AcDbEntity
  8
0
  6
SLD-實線
 62
     7
100
AcDbEllipse
 10
2216.044113686695
 20
1861.495828403359
 30
0.0
 11
3.0
 21
0.0000000000000312
 31
0.0
210
0.0
220
0.0
230
1.0
 40
0.0174550649282045
 41
4.712388980384689
 42
6.283185307179586
  0
LINE
  5
874
330
1F
100
AcDbEntity
  8
0
  6
SLD-實線
 62
     7
100
AcDbLine
 10
2219.044113519057
 20
1861.583104099547
 30
0.0
 11
2219.044113519057
 21
1861.495827998435
 31
0.0
  0
LINE
  5
875
330
1F
100
AcDbEntity
  8
0
  6
SLD-實線
 62
     7
100
AcDbLine
 10
2239.658857217445
 20
1861.583104099547
 30
0.0
 11
2219.044113519057
 21
1861.583104099547
 31
0.0
  0
LINE
  5
876
330
1F
100
AcDbEntity
  8
0
  6
SLD-實線
 62
     7
100
AcDbLine
 10
2204.044113854333
 20
1861.583104099547
 30
0.0
 11
2183.429370155945
 21
1861.583104099547
 31
0.0
  0
LINE
  5
877
330
1F
100
AcDbEntity
  8
0
  6
SLD-實線
 62
     7
100
AcDbLine
 10
2219.169113772378
 20
1801.618633534228
 30
0.0
 11
2219.169113772378
 21
1801.552476103818
 31
0.0
  0
LINE
  5
878
330
1F
100
AcDbEntity
  8
0
  6
SLD-實線
 62
     7
100
AcDbLine
 10
2217.625644976661
 20
1800.009008239424
 30
0.0
 11
2219.169113772378
 21
1801.552476103818
 31
0.0
  0
LINE
  5
879
330
1F
100
AcDbEntity
  8
0
  6
SLD-實線
 62
     7
100
AcDbLine
 10
2205.462582396731
 20
1800.009008239423
 30
0.0
 11
2217.625644976661
 21
1800.009008239424
 31
0.0
  0
LINE
  5
87A
330
1F
100
AcDbEntity
  8
0
  6
SLD-實線
 62
     7
100
AcDbLine
 10
2203.919113601014
 20
1801.552476103817
 30
0.0
 11
2205.462582396731
 21
1800.009008239423
 31
0.0
  0
LINE
  5
87B
330
1F
100
AcDbEntity
  8
0
  6
SLD-實線
 62
     7
100
AcDbLine
 10
2203.919113601014
 20
1801.618633534227
 30
0.0
 11
2203.919113601014
 21
1801.552476103817
 31
0.0
  0
ELLIPSE
  5
87C
330
1F
100
AcDbEntity
  8
0
  6
SLD-實線
 62
     7
100
AcDbEllipse
 10
2238.582628554181
 20
1799.991552247321
 30
0.0
 11
1.0
 21
0.0000000000000104
 31
0.0
210
0.0
220
0.0
230
1.0
 40
0.0174550649281855
 41
0.0087266462519962
 42
1.570796326794896
  0
ELLIPSE
  5
87D
330
1F
100
AcDbEntity
  8
0
  6
SLD-實線
 62
     7
100
AcDbEllipse
 10
2184.50559881921
 20
1799.99155224732
 30
0.0
 11
1.0
 21
0.0000000000000104
 31
0.0
210
0.0
220
0.0
230
1.0
 40
0.0174550649281855
 41
1.570796326794896
 42
3.132866007336597
  0
LINE
  5
87E
330
1F
100
AcDbEntity
  8
0
  6
SLD-實線
 62
     7
100
AcDbLine
 10
2231.91911399962
 20
1801.552476103818
 30
0.0
 11
2233.462581864015
 21
1800.009008239424
 31
0.0
  0
LINE
  5
87F
330
1F
100
AcDbEntity
  8
0
  6
SLD-實線
 62
     7
100
AcDbLine
 10
2231.91911399962
 20
1801.618633534228
 30
0.0
 11
2231.91911399962
 21
1801.552476103818
 31
0.0
  0
LINE
  5
880
330
1F
100
AcDbEntity
  8
0
  6
SLD-實線
 62
     7
100
AcDbLine
 10
2233.462581864015
 20
1800.009008239424
 30
0.0
 11
2238.582628300801
 21
1800.009008239424
 31
0.0
  0
LINE
  5
881
330
1F
100
AcDbEntity
  8
0
  6
SLD-實線
 62
     7
100
AcDbLine
 10
2191.169113373772
 20
1801.618633534227
 30
0.0
 11
2191.169113373772
 21
1801.552476103817
 31
0.0
  0
LINE
  5
882
330
1F
100
AcDbEntity
  8
0
  6
SLD-實線
 62
     7
100
AcDbLine
 10
2189.625645509377
 20
1800.009008239423
 30
0.0
 11
2191.169113373772
 21
1801.552476103817
 31
0.0
  0
LINE
  5
883
330
1F
100
AcDbEntity
  8
0
  6
SLD-實線
 62
     7
100
AcDbLine
 10
2184.505599072591
 20
1800.009008239423
 30
0.0
 11
2189.625645509377
 21
1800.009008239423
 31
0.0
  0
LINE
  5
884
330
1F
100
AcDbEntity
  8
0
  6
SLD-實線
 62
     7
100
AcDbLine
 10
2204.746313846126
 20
1799.947920929109
 30
0.0
 11
2203.912569662944
 21
1800.781665112291
 31
0.0
  0
LINE
  5
885
330
1F
100
AcDbEntity
  8
0
  6
SLD-實線
 62
     7
100
AcDbLine
 10
2203.912569662944
 20
1800.781665112291
 30
0.0
 11
2203.919113601014
 21
1801.330351944481
 31
0.0
  0
LINE
  5
886
330
1F
100
AcDbEntity
  8
0
  6
SLD-實線
 62
     7
100
AcDbLine
 10
2205.462582396731
 20
1800.009008239423
 30
0.0
 11
2204.746313846126
 21
1799.947920929109
 31
0.0
  0
LINE
  5
887
330
1F
100
AcDbEntity
  8
0
  6
SLD-實線
 62
     7
100
AcDbLine
 10
2203.919113601014
 20
1801.330351944481
 30
0.0
 11
2203.919113601014
 21
1801.552476103817
 31
0.0
  0
LINE
  5
888
330
1F
100
AcDbEntity
  8
0
  6
SLD-實線
 62
     7
100
AcDbLine
 10
2219.169113772378
 20
1801.330351944482
 30
0.0
 11
2219.175657710448
 21
1800.781665112292
 31
0.0
  0
LINE
  5
889
330
1F
100
AcDbEntity
  8
0
  6
SLD-實線
 62
     7
100
AcDbLine
 10
2219.175657710448
 20
1800.781665112292
 30
0.0
 11
2218.341913527265
 21
1799.947920929109
 31
0.0
  0
LINE
  5
88A
330
1F
100
AcDbEntity
  8
0
  6
SLD-實線
 62
     7
100
AcDbLine
 10
2218.341913527265
 20
1799.947920929109
 30
0.0
 11
2217.625644976661
 21
1800.009008239424
 31
0.0
  0
LINE
  5
88B
330
1F
100
AcDbEntity
  8
0
  6
SLD-實線
 62
     7
100
AcDbLine
 10
2219.169113772378
 20
1801.552476103818
 30
0.0
 11
2219.169113772378
 21
1801.330351944482
 31
0.0
  0
LINE
  5
88C
330
1F
100
AcDbEntity
  8
0
  6
SLD-實線
 62
     7
100
AcDbLine
 10
2191.169113373772
 20
1801.330351944481
 30
0.0
 11
2191.175656846181
 21
1800.781665112291
 31
0.0
  0
LINE
  5
88D
330
1F
100
AcDbEntity
  8
0
  6
SLD-實線
 62
     7
100
AcDbLine
 10
2191.175656846181
 20
1800.781665112291
 30
0.0
 11
2190.341914525643
 21
1799.947920929109
 31
0.0
  0
LINE
  5
88E
330
1F
100
AcDbEntity
  8
0
  6
SLD-實線
 62
     7
100
AcDbLine
 10
2190.341914525643
 20
1799.947920929109
 30
0.0
 11
2189.625645509377
 21
1800.009008239423
 31
0.0
  0
LINE
  5
88F
330
1F
100
AcDbEntity
  8
0
  6
SLD-實線
 62
     7
100
AcDbLine
 10
2191.169113373772
 20
1801.552476103817
 30
0.0
 11
2191.169113373772
 21
1801.330351944481
 31
0.0
  0
LINE
  5
890
330
1F
100
AcDbEntity
  8
0
  6
SLD-實線
 62
     7
100
AcDbLine
 10
2232.746312847749
 20
1799.947920929109
 30
0.0
 11
2231.912570527211
 21
1800.781665112292
 31
0.0
  0
LINE
  5
891
330
1F
100
AcDbEntity
  8
0
  6
SLD-實線
 62
     7
100
AcDbLine
 10
2231.912570527211
 20
1800.781665112292
 30
0.0
 11
2231.91911399962
 21
1801.330351944482
 31
0.0
  0
LINE
  5
892
330
1F
100
AcDbEntity
  8
0
  6
SLD-實線
 62
     7
100
AcDbLine
 10
2233.462581864015
 20
1800.009008239424
 30
0.0
 11
2232.746312847749
 21
1799.947920929109
 31
0.0
  0
LINE
  5
893
330
1F
100
AcDbEntity
  8
0
  6
SLD-實線
 62
     7
100
AcDbLine
 10
2231.91911399962
 20
1801.330351944482
 30
0.0
 11
2231.91911399962
 21
1801.552476103818
 31
0.0
  0
LINE
  5
894
330
1F
100
AcDbEntity
  8
0
  6
SLD-實線
 62
     7
100
AcDbLine
 10
2190.341914525643
 20
1799.947920929109
 30
0.0
 11
2190.364430180207
 21
1799.797801043306
 31
0.0
  0
LINE
  5
895
330
1F
100
AcDbEntity
  8
0
  6
SLD-實線
 62
     7
100
AcDbLine
 10
2204.723797725901
 20
1799.797801043306
 30
0.0
 11
2190.364430180207
 21
1799.797801043306
 31
0.0
  0
LINE
  5
896
330
1F
100
AcDbEntity
  8
0
  6
SLD-實線
 62
     7
100
AcDbLine
 10
2204.746313846126
 20
1799.947920929109
 30
0.0
 11
2204.723797725901
 21
1799.797801043306
 31
0.0
  0
LINE
  5
897
330
1F
100
AcDbEntity
  8
0
  6
SLD-實線
 62
     7
100
AcDbLine
 10
2218.341913527265
 20
1799.947920929109
 30
0.0
 11
2218.364429647491
 21
1799.797801043307
 31
0.0
  0
LINE
  5
898
330
1F
100
AcDbEntity
  8
0
  6
SLD-實線
 62
     7
100
AcDbLine
 10
2218.364429647491
 20
1799.797801043307
 30
0.0
 11
2232.723797193185
 21
1799.797801043307
 31
0.0
  0
LINE
  5
899
330
1F
100
AcDbEntity
  8
0
  6
SLD-實線
 62
     7
100
AcDbLine
 10
2232.746312847749
 20
1799.947920929109
 30
0.0
 11
2232.723797193185
 21
1799.797801043307
 31
0.0
  0
LINE
  5
89A
330
1F
100
AcDbEntity
  8
0
  6
SLD-實線
 62
     7
100
AcDbLine
 10
2239.744114211217
 20
1799.668634052788
 30
0.0
 11
2239.582591211811
 21
1799.991704265987
 31
0.0
  0
LINE
  5
89B
330
1F
100
AcDbEntity
  8
0
  6
SLD-實線
 62
     7
100
AcDbLine
 10
2239.744114211217
 20
1799.668634052788
 30
0.0
 11
2183.344113162175
 21
1799.668634052788
 31
0.0
  0
LINE
  5
89C
330
1F
100
AcDbEntity
  8
0
  6
SLD-實線
 62
     7
100
AcDbLine
 10
2183.344113162175
 20
1799.668634052788
 30
0.0
 11
2183.505636161581
 21
1799.991704265987
 31
0.0
  0
LINE
  5
89D
330
1F
100
AcDbEntity
  8
0
  6
SLD-實線
 62
     7
100
AcDbLine
 10
2183.344113162175
 20
1799.668634052788
 30
0.0
 11
2183.339750847236
 21
1799.668634052788
 31
0.0
  0
LINE
  5
89E
330
1F
100
AcDbEntity
  8
0
  6
SLD-實線
 62
     7
100
AcDbLine
 10
2183.340587174908
 20
1799.764560277973
 30
0.0
 11
2183.339750847236
 21
1799.668634052788
 31
0.0
  0
LINE
  5
89F
330
1F
100
AcDbEntity
  8
0
  6
SLD-實線
 62
     7
100
AcDbLine
 10
2239.748476526156
 20
1799.668634052788
 30
0.0
 11
2239.747640198484
 21
1799.764539788877
 31
0.0
  0
LINE
  5
8A0
330
1F
100
AcDbEntity
  8
0
  6
SLD-實線
 62
     7
100
AcDbLine
 10
2239.744114211217
 20
1799.668634052788
 30
0.0
 11
2239.748476526156
 21
1799.668634052788
 31
0.0
  0
LINE
  5
8A1
330
1F
100
AcDbEntity
  8
0
  6
SLD-實線
 62
     7
100
AcDbLine
 10
2219.183512485042
 20
1801.633031781232
 30
0.0
 11
2219.183512485042
 21
1801.182083527958
 31
0.0
  0
LINE
  5
8A2
330
1F
100
AcDbEntity
  8
0
  6
SLD-實線
 62
     7
100
AcDbLine
 10
2219.22042638661
 20
1801.059033464109
 30
0.0
 11
2219.202546855822
 21
1801.118634383594
 31
0.0
  0
LINE
  5
8A3
330
1F
100
AcDbEntity
  8
0
  6
SLD-實線
 62
     7
100
AcDbLine
 10
2219.183919007346
 20
1801.180729384934
 30
0.0
 11
2219.183512485042
 21
1801.182083527958
 31
0.0
  0
LINE
  5
8A4
330
1F
100
AcDbEntity
  8
0
  6
SLD-實線
 62
     7
100
AcDbLine
 10
2219.22042638661
 20
1800.668634216701
 30
0.0
 11
2219.22042638661
 21
1801.059033464109
 31
0.0
  0
LINE
  5
8A5
330
1F
100
AcDbEntity
  8
0
  6
SLD-實線
 62
     7
100
AcDbLine
 10
2219.198173365012
 20
1800.63154522649
 30
0.0
 11
2219.22042638661
 21
1800.668634216701
 31
0.0
  0
LINE
  5
8A6
330
1F
100
AcDbEntity
  8
0
  6
SLD-實線
 62
     7
100
AcDbLine
 10
2219.198173365012
 20
1800.63154522649
 30
0.0
 11
2219.175657710448
 21
1800.781665112292
 31
0.0
  0
LINE
  5
8A7
330
1F
100
AcDbEntity
  8
0
  6
SLD-實線
 62
     7
100
AcDbLine
 10
2203.89005400838
 20
1800.631545226489
 30
0.0
 11
2203.867800986782
 21
1800.668634216701
 31
0.0
  0
LINE
  5
8A8
330
1F
100
AcDbEntity
  8
0
  6
SLD-實線
 62
     7
100
AcDbLine
 10
2203.867800986782
 20
1800.668634216701
 30
0.0
 11
2203.867800986782
 21
1801.059033464109
 31
0.0
  0
LINE
  5
8A9
330
1F
100
AcDbEntity
  8
0
  6
SLD-實線
 62
     7
100
AcDbLine
 10
2203.867800986782
 20
1801.059033464109
 30
0.0
 11
2203.885680517569
 21
1801.118634383594
 31
0.0
  0
LINE
  5
8AA
330
1F
100
AcDbEntity
  8
0
  6
SLD-實線
 62
     7
100
AcDbLine
 10
2203.904308366046
 20
1801.180729384934
 30
0.0
 11
2203.904714888349
 21
1801.182083527957
 31
0.0
  0
LINE
  5
8AB
330
1F
100
AcDbEntity
  8
0
  6
SLD-實線
 62
     7
100
AcDbLine
 10
2203.904714888349
 20
1801.633031781231
 30
0.0
 11
2203.904714888349
 21
1801.182083527957
 31
0.0
  0
LINE
  5
8AC
330
1F
100
AcDbEntity
  8
0
  6
SLD-實線
 62
     7
100
AcDbLine
 10
2203.89005400838
 20
1800.631545226489
 30
0.0
 11
2203.912569662944
 21
1800.781665112291
 31
0.0
  0
LINE
  5
8AD
330
1F
100
AcDbEntity
  8
0
  6
SLD-實線
 62
     7
100
AcDbLine
 10
2231.890053010002
 20
1800.63154522649
 30
0.0
 11
2231.867799988404
 21
1800.668634216701
 31
0.0
  0
LINE
  5
8AE
330
1F
100
AcDbEntity
  8
0
  6
SLD-實線
 62
     7
100
AcDbLine
 10
2231.867799988404
 20
1800.668634216701
 30
0.0
 11
2231.867799988404
 21
1801.059033464109
 31
0.0
  0
LINE
  5
8AF
330
1F
100
AcDbEntity
  8
0
  6
SLD-實線
 62
     7
100
AcDbLine
 10
2231.867799988404
 20
1801.059033464109
 30
0.0
 11
2231.885679519192
 21
1801.118634383594
 31
0.0
  0
LINE
  5
8B0
330
1F
100
AcDbEntity
  8
0
  6
SLD-實線
 62
     7
100
AcDbLine
 10
2231.904307833329
 20
1801.180729384934
 30
0.0
 11
2231.904713889972
 21
1801.182083527958
 31
0.0
  0
LINE
  5
8B1
330
1F
100
AcDbEntity
  8
0
  6
SLD-實線
 62
     7
100
AcDbLine
 10
2231.904713889972
 20
1801.182083527958
 30
0.0
 11
2231.904713889972
 21
1801.633031781232
 31
0.0
  0
LINE
  5
8B2
330
1F
100
AcDbEntity
  8
0
  6
SLD-實線
 62
     7
100
AcDbLine
 10
2231.912570527211
 20
1800.781665112292
 30
0.0
 11
2231.890053010002
 21
1800.63154522649
 31
0.0
  0
LINE
  5
8B3
330
1F
100
AcDbEntity
  8
0
  6
SLD-實線
 62
     7
100
AcDbLine
 10
2191.18351348342
 20
1801.182083527957
 30
0.0
 11
2191.18351348342
 21
1801.633031781231
 31
0.0
  0
LINE
  5
8B4
330
1F
100
AcDbEntity
  8
0
  6
SLD-實線
 62
     7
100
AcDbLine
 10
2191.220427384988
 20
1801.059033464109
 30
0.0
 11
2191.2025478542
 21
1801.118634383594
 31
0.0
  0
LINE
  5
8B5
330
1F
100
AcDbEntity
  8
0
  6
SLD-實線
 62
     7
100
AcDbLine
 10
2191.183919540063
 20
1801.180729384934
 30
0.0
 11
2191.18351348342
 21
1801.182083527957
 31
0.0
  0
LINE
  5
8B6
330
1F
100
AcDbEntity
  8
0
  6
SLD-實線
 62
     7
100
AcDbLine
 10
2191.220427384988
 20
1800.668634216701
 30
0.0
 11
2191.220427384988
 21
1801.059033464109
 31
0.0
  0
LINE
  5
8B7
330
1F
100
AcDbEntity
  8
0
  6
SLD-實線
 62
     7
100
AcDbLine
 10
2191.19817436339
 20
1800.631545226489
 30
0.0
 11
2191.220427384988
 21
1800.668634216701
 31
0.0
  0
LINE
  5
8B8
330
1F
100
AcDbEntity
  8
0
  6
SLD-實線
 62
     7
100
AcDbLine
 10
2191.175656846181
 20
1800.781665112291
 30
0.0
 11
2191.19817436339
 21
1800.631545226489
 31
0.0
  0
LINE
  5
8B9
330
1F
100
AcDbEntity
  8
0
  6
SLD-實線
 62
     7
100
AcDbLine
 10
2231.890053010002
 20
1800.63154522649
 30
0.0
 11
2232.723797193185
 21
1799.797801043307
 31
0.0
  0
LINE
  5
8BA
330
1F
100
AcDbEntity
  8
0
  6
SLD-實線
 62
     7
100
AcDbLine
 10
2219.198173365012
 20
1800.63154522649
 30
0.0
 11
2218.364429647491
 21
1799.797801043307
 31
0.0
  0
LINE
  5
8BB
330
1F
100
AcDbEntity
  8
0
  6
SLD-實線
 62
     7
100
AcDbLine
 10
2203.89005400838
 20
1800.631545226489
 30
0.0
 11
2204.723797725901
 21
1799.797801043306
 31
0.0
  0
LINE
  5
8BC
330
1F
100
AcDbEntity
  8
0
  6
SLD-實線
 62
     7
100
AcDbLine
 10
2191.19817436339
 20
1800.631545226489
 30
0.0
 11
2190.364430180207
 21
1799.797801043306
 31
0.0
  0
LINE
  5
8BD
330
1F
100
AcDbEntity
  8
0
  6
SLD-實線
 62
     7
100
AcDbLine
 10
2203.867800986782
 20
1800.668634216701
 30
0.0
 11
2203.399674488619
 21
1800.668634216701
 31
0.0
  0
LINE
  5
8BE
330
1F
100
AcDbEntity
  8
0
  6
SLD-實線
 62
     7
100
AcDbLine
 10
2191.688552951828
 20
1800.668634216701
 30
0.0
 11
2191.220427384988
 21
1800.668634216701
 31
0.0
  0
LINE
  5
8BF
330
1F
100
AcDbEntity
  8
0
  6
SLD-實線
 62
     7
100
AcDbLine
 10
2203.89005400838
 20
1800.631545226489
 30
0.0
 11
2203.365956886128
 21
1800.631545226489
 31
0.0
  0
LINE
  5
8C0
330
1F
100
AcDbEntity
  8
0
  6
SLD-實線
 62
     7
100
AcDbLine
 10
2191.722270554319
 20
1800.631545226489
 30
0.0
 11
2191.19817436339
 21
1800.631545226489
 31
0.0
  0
LINE
  5
8C1
330
1F
100
AcDbEntity
  8
0
  6
SLD-實線
 62
     7
100
AcDbLine
 10
2219.198173365012
 20
1800.63154522649
 30
0.0
 11
2219.722270487264
 21
1800.63154522649
 31
0.0
  0
LINE
  5
8C2
330
1F
100
AcDbEntity
  8
0
  6
SLD-實線
 62
     7
100
AcDbLine
 10
2231.365956819073
 20
1800.63154522649
 30
0.0
 11
2231.890053010002
 21
1800.63154522649
 31
0.0
  0
LINE
  5
8C3
330
1F
100
AcDbEntity
  8
0
  6
SLD-實線
 62
     7
100
AcDbLine
 10
2219.22042638661
 20
1800.668634216701
 30
0.0
 11
2219.688552884773
 21
1800.668634216701
 31
0.0
  0
LINE
  5
8C4
330
1F
100
AcDbEntity
  8
0
  6
SLD-實線
 62
     7
100
AcDbLine
 10
2231.399674421564
 20
1800.668634216701
 30
0.0
 11
2231.867799988404
 21
1800.668634216701
 31
0.0
  0
LINE
  5
8C5
330
1F
100
AcDbEntity
  8
0
  6
SLD-實線
 62
     7
100
AcDbLine
 10
2183.420539355292
 20
1861.591933037554
 30
0.0
 11
2239.667688018098
 21
1861.591933037555
 31
0.0
  0
LINE
  5
8C6
330
1F
100
AcDbEntity
  8
0
  6
SLD-實線
 62
     7
100
AcDbLine
 10
2241.467413014188
 20
1859.792208041465
 30
0.0
 11
2241.467413014188
 21
1834.076848089164
 31
0.0
  0
LINE
  5
8C7
330
1F
100
AcDbEntity
  8
0
  6
SLD-實線
 62
     7
100
AcDbLine
 10
2181.620814359202
 20
1834.076848089163
 30
0.0
 11
2181.620814359202
 21
1859.792208041464
 31
0.0
  0
SPLINE
  5
8C8
330
1F
100
AcDbEntity
  8
0
  6
SLD-實線
 62
     7
100
AcDbSpline
210
0.0
220
0.0
230
1.0
 70
     8
 71
     3
 72
    19
 73
    15
 74
     0
 42
0.000000001
 43
0.0000000001
 40
0.0
 40
0.0
 40
0.0
 40
0.0
 40
0.0357743918285391
 40
0.0714737943974108
 40
0.1250739111241521
 40
0.2500462869316917
 40
0.3750159187562546
 40
0.4999827625093471
 40
0.6249470155013573
 40
0.7499090993720151
 40
0.8123384146885605
 40
0.8749550689338001
 40
0.9373427002093603
 40
1.0
 40
1.0
 40
1.0
 40
1.0
 10
2181.59390663885
 20
1831.77773053204
 30
0.0
 10
2181.594468688874
 20
1831.79141980425
 30
0.0
 10
2181.59559161077
 20
1831.818769653607
 30
0.0
 10
2181.597510388854
 20
1831.872522897405
 30
0.0
 10
2181.600713037346
 20
1831.973926183998
 30
0.0
 10
2181.604973612696
 20
1832.144964530041
 30
0.0
 10
2181.609634782733
 20
1832.398074420891
 30
0.0
 10
2181.613595580987
 20
1832.687782487602
 30
0.0
 10
2181.616769378791
 20
1833.007666843585
 30
0.0
 10
2181.61869999551
 20
1833.293715329189
 30
0.0
 10
2181.619793104938
 20
1833.530278021677
 30
0.0
 10
2181.620377217408
 20
1833.710653006974
 30
0.0
 10
2181.620745324734
 20
1833.893227152884
 30
0.0
 10
2181.620790923971
 20
1834.015553184215
 30
0.0
 10
2181.620813772758
 20
1834.076848102386
 30
0.0
  0
SPLINE
  5
8C9
330
1F
100
AcDbEntity
  8
0
  6
SLD-實線
 62
     7
100
AcDbSpline
210
0.0
220
0.0
230
1.0
 70
     8
 71
     3
 72
    19
 73
    15
 74
     0
 42
0.000000001
 43
0.0000000001
 40
0.0
 40
0.0
 40
0.0
 40
0.0
 40
0.0357698151047416
 40
0.0714648427946484
 40
0.1250588205359956
 40
0.2500193471517655
 40
0.3749814334185089
 40
0.4999456888066545
 40
0.6249125349559214
 40
0.7498821691767215
 40
0.8123169090974386
 40
0.8749399684303273
 40
0.9373348010206402
 40
1.0
 40
1.0
 40
1.0
 40
1.0
 10
2241.467413600632
 20
1834.076848102386
 30
0.0
 10
2241.467421211668
 20
1834.041861856321
 30
0.0
 10
2241.467436417825
 20
1833.971962513322
 30
0.0
 10
2241.467575749782
 20
1833.849857507374
 30
0.0
 10
2241.467996970562
 20
1833.641612511748
 30
0.0
 10
2241.469140900113
 20
1833.350854163924
 30
0.0
 10
2241.471457953908
 20
1833.007701431593
 30
0.0
 10
2241.474631938262
 20
1832.687770019199
 30
0.0
 10
2241.478592047897
 20
1832.398089706031
 30
0.0
 10
2241.482477839097
 20
1832.187147173092
 30
0.0
 10
2241.485882602315
 20
1832.039381738323
 30
0.0
 10
2241.48857339248
 20
1831.939928080666
 30
0.0
 10
2241.491381722073
 20
1831.851087195169
 30
0.0
 10
2241.493339652772
 20
1831.802217969766
 30
0.0
 10
2241.494320734541
 20
1831.77773053205
 30
0.0
  0
ARC
  5
8CA
330
1F
100
AcDbEntity
  8
0
  6
SLD-實線
 62
     7
100
AcDbCircle
 10
2183.344113686695
 20
1859.868633546149
 30
0.0
 40
1.800000020873921
100
AcDbArc
 50
90.00872576023574
 51
179.9912742397903
  0
LINE
  5
8CB
330
1F
100
AcDbEntity
  8
0
  6
SLD-實線
 62
     7
100
AcDbLine
 10
2183.343839353337
 20
1861.668633039509
 30
0.0
 11
2183.420539355292
 21
1861.591933037554
 31
0.0
  0
LINE
  5
8CC
330
1F
100
AcDbEntity
  8
0
  6
SLD-實線
 62
     7
100
AcDbLine
 10
2181.620814359202
 20
1859.792208041464
 30
0.0
 11
2181.544114357247
 21
1859.868908043419
 31
0.0
  0
ARC
  5
8CD
330
1F
100
AcDbEntity
  8
0
  6
SLD-實線
 62
     7
100
AcDbCircle
 10
2239.744113686695
 20
1859.868633546149
 30
0.0
 40
1.8000000208771
100
AcDbArc
 50
0.0087264246669467
 51
89.99127357530699
  0
LINE
  5
8CE
330
1F
100
AcDbEntity
  8
0
  6
SLD-實線
 62
     7
100
AcDbLine
 10
2241.544113016143
 20
1859.86890804342
 30
0.0
 11
2241.467413014188
 21
1859.792208041465
 31
0.0
  0
LINE
  5
8CF
330
1F
100
AcDbEntity
  8
0
  6
SLD-實線
 62
     7
100
AcDbLine
 10
2239.667688018098
 20
1861.591933037555
 30
0.0
 11
2239.744388020053
 21
1861.66863303951
 31
0.0
  0
LINE
  5
8D0
330
1F
100
AcDbEntity
  8
0
  6
SLD-實線
 62
     7
100
AcDbLine
 10
2183.343839353337
 20
1861.668633039509
 30
0.0
 11
2183.344113162174
 21
1861.668633039509
 31
0.0
  0
LINE
  5
8D1
330
1F
100
AcDbEntity
  8
0
  6
SLD-實線
 62
     7
100
AcDbLine
 10
2183.344113162174
 20
1861.668633039509
 30
0.0
 11
2239.744114211216
 21
1861.66863303951
 31
0.0
  0
LINE
  5
8D2
330
1F
100
AcDbEntity
  8
0
  6
SLD-實線
 62
     7
100
AcDbLine
 10
2239.744114211216
 20
1861.66863303951
 30
0.0
 11
2239.744388020053
 21
1861.66863303951
 31
0.0
  0
LINE
  5
8D3
330
1F
100
AcDbEntity
  8
0
  6
SLD-實線
 62
     7
100
AcDbLine
 10
2241.544113016143
 20
1859.868634234583
 30
0.0
 11
2241.544113016143
 21
1859.86890804342
 31
0.0
  0
LINE
  5
8D4
330
1F
100
AcDbEntity
  8
0
  6
SLD-實線
 62
     7
100
AcDbLine
 10
2241.544113016143
 20
1829.053851634664
 30
0.0
 11
2241.544113016143
 21
1859.868634234583
 31
0.0
  0
SPLINE
  5
8D5
330
1F
100
AcDbEntity
  8
0
  6
SLD-實線
 62
     7
100
AcDbSpline
210
0.0
220
0.0
230
1.0
 70
     8
 71
     3
 72
    21
 73
    17
 74
     0
 42
0.000000001
 43
0.0000000001
 40
0.0
 40
0.0
 40
0.0
 40
0.0
 40
0.0500997717367925
 40
0.1000844180250445
 40
0.1500232638537088
 40
0.1999858248618375
 40
0.2500415178840836
 40
0.3124929441514786
 40
0.3750559144822302
 40
0.5000345993032181
 40
0.6250114995608317
 40
0.7499866743742789
 40
0.812406817583618
 40
0.8749941406964548
 40
0.9374067284980217
 40
1.0
 40
1.0
 40
1.0
 40
1.0
 10
2241.494320713659
 20
1831.777727617193
 30
0.0
 10
2241.495404312755
 20
1831.75145166439
 30
0.0
 10
2241.497569020917
 20
1831.698960138916
 30
0.0
 10
2241.500746370276
 20
1831.611593303559
 30
0.0
 10
2241.503865569107
 20
1831.518069723373
 30
0.0
 10
2241.506922080562
 20
1831.417758405956
 30
0.0
 10
2241.510161091904
 20
1831.30214104367
 30
0.0
 10
2241.513557688719
 20
1831.16925522967
 30
0.0
 10
2241.518247664642
 20
1830.966765158962
 30
0.0
 10
2241.523795084944
 20
1830.690435634354
 30
0.0
 10
2241.529881641976
 20
1830.324937837952
 30
0.0
 10
2241.534436664526
 20
1829.994631588977
 30
0.0
 10
2241.537747808358
 20
1829.716746814928
 30
0.0
 10
2241.540054786242
 20
1829.501893722481
 30
0.0
 10
2241.542200116795
 20
1829.28127319313
 30
0.0
 10
2241.543475183382
 20
1829.129731831338
 30
0.0
 10
2241.544113638167
 20
1829.05385163136
 30
0.0
  0
LINE
  5
8D6
330
1F
100
AcDbEntity
  8
0
  6
SLD-實線
 62
     7
100
AcDbLine
 10
2181.544114357247
 20
1859.868634234582
 30
0.0
 11
2181.544114357247
 21
1859.868908043419
 31
0.0
  0
SPLINE
  5
8D7
330
1F
100
AcDbEntity
  8
0
  6
SLD-實線
 62
     7
100
AcDbSpline
210
0.0
220
0.0
230
1.0
 70
     8
 71
     3
 72
    20
 73
    16
 74
     0
 42
0.000000001
 43
0.0000000001
 40
0.0
 40
0.0
 40
0.0
 40
0.0
 40
0.0416987673352419
 40
0.0833575744716549
 40
0.1250164558884242
 40
0.187470002623799
 40
0.2500284138509021
 40
0.3750080792893173
 40
0.4999894702338999
 40
0.6249726458059813
 40
0.7499575381812963
 40
0.8124153173722334
 40
0.8749780357662205
 40
0.9373771112076292
 40
1.0
 40
1.0
 40
1.0
 40
1.0
 10
2181.544113735223
 20
1829.05385163136
 30
0.0
 10
2181.544535123351
 20
1829.104501548855
 30
0.0
 10
2181.545377495789
 20
1829.205752845701
 30
0.0
 10
2181.546744143617
 20
1829.354671953027
 30
0.0
 10
2181.548424068612
 20
1829.525588385242
 30
0.0
 10
2181.550478559974
 20
1829.716574368617
 30
0.0
 10
2181.553788309795
 20
1829.994498799501
 30
0.0
 10
2181.558345794765
 20
1830.324932347166
 30
0.0
 10
2181.564432546411
 20
1830.690443260039
 30
0.0
 10
2181.571086566147
 20
1831.021929768048
 30
0.0
 10
2181.57705693375
 20
1831.267360905114
 30
0.0
 10
2181.582054967595
 20
1831.444035558925
 30
0.0
 10
2181.585907204824
 20
1831.566139827957
 30
0.0
 10
2181.589852513724
 20
1831.678700464491
 30
0.0
 10
2181.592553665895
 20
1831.744679195409
 30
0.0
 10
2181.593906659772
 20
1831.777727618173
 30
0.0
  0
LINE
  5
8D8
330
1F
100
AcDbEntity
  8
0
  6
SLD-實線
 62
     7
100
AcDbLine
 10
2181.544114357247
 20
1829.053851634663
 30
0.0
 11
2181.544114357247
 21
1859.868634234582
 31
0.0
  0
SPLINE
  5
8D9
330
1F
100
AcDbEntity
  8
0
  6
SLD-實線
 62
     7
100
AcDbSpline
210
0.0
220
0.0
230
1.0
 70
    24
 71
     3
 72
    12
 73
     8
 74
     0
 42
0.000000001
 43
0.0000000001
 40
0.0
 40
0.0
 40
0.0
 40
0.0
 40
0.2002710858179698
 40
0.4001111571778824
 40
0.599815515996338
 40
0.799680065740848
 40
1.0
 40
1.0
 40
1.0
 40
1.0
 10
2181.544113686695
 20
1828.055233126855
 30
0.0
 10
2181.544113686695
 20
1828.123717827525
 30
0.0
 10
2181.544113686695
 20
1828.260539839161
 30
0.0
 10
2181.544113686695
 20
1828.462961833638
 30
0.0
 10
2181.544113686695
 20
1828.66281145838
 30
0.0
 10
2181.544113686695
 20
1828.860219950125
 30
0.0
 10
2181.544113686695
 20
1828.989258805028
 30
0.0
 10
2181.544113686695
 20
1829.053851651487
 30
0.0
  0
SPLINE
  5
8DA
330
1F
100
AcDbEntity
  8
0
  6
SLD-實線
 62
     7
100
AcDbSpline
210
0.0
220
0.0
230
1.0
 70
    24
 71
     3
 72
    12
 73
     8
 74
     0
 42
0.000000001
 43
0.0000000001
 40
0.0
 40
0.0
 40
0.0
 40
0.0
 40
0.2003199342590883
 40
0.4001844840035619
 40
0.5998888428220133
 40
0.799728914181957
 40
1.0
 40
1.0
 40
1.0
 40
1.0
 10
2241.544113686695
 20
1829.053851651488
 30
0.0
 10
2241.544113686695
 20
1828.989258805028
 30
0.0
 10
2241.544113686695
 20
1828.860219950125
 30
0.0
 10
2241.544113686695
 20
1828.662811458378
 30
0.0
 10
2241.544113686695
 20
1828.462961833635
 30
0.0
 10
2241.544113686695
 20
1828.260539839155
 30
0.0
 10
2241.544113686695
 20
1828.123717827519
 30
0.0
 10
2241.544113686695
 20
1828.055233126848
 30
0.0
  0
LINE
  5
8DB
330
1F
100
AcDbEntity
  8
0
  6
SLD-實線
 62
     7
100
AcDbLine
 10
2181.544114357247
 20
1826.768633651947
 30
0.0
 11
2181.544114357247
 21
1828.055233204205
 31
0.0
  0
LINE
  5
8DC
330
1F
100
AcDbEntity
  8
0
  6
SLD-實線
 62
     7
100
AcDbLine
 10
2241.544113016143
 20
1828.055233204206
 30
0.0
 11
2241.544113016143
 21
1826.768633651947
 31
0.0
  0
LINE
  5
8DD
330
1F
100
AcDbEntity
  8
0
  6
SLD-實線
 62
     7
100
AcDbLine
 10
2181.544114357247
 20
1826.768633651947
 30
0.0
 11
2181.544114357247
 21
1826.568633526032
 31
0.0
  0
LINE
  5
8DE
330
1F
100
AcDbEntity
  8
0
  6
SLD-實線
 62
     7
100
AcDbLine
 10
2181.544114357247
 20
1822.318633760725
 30
0.0
 11
2181.544114357247
 21
1815.318633544658
 31
0.0
  0
LINE
  5
8DF
330
1F
100
AcDbEntity
  8
0
  6
SLD-實線
 62
     7
100
AcDbLine
 10
2241.544113016143
 20
1826.768633651947
 30
0.0
 11
2241.544113016143
 21
1826.568633526033
 31
0.0
  0
LINE
  5
8E0
330
1F
100
AcDbEntity
  8
0
  6
SLD-實線
 62
     7
100
AcDbLine
 10
2241.544113016143
 20
1822.318633760726
 30
0.0
 11
2241.544113016143
 21
1815.318633544659
 31
0.0
  0
LINE
  5
8E1
330
1F
100
AcDbEntity
  8
0
  6
SLD-實線
 62
     7
100
AcDbLine
 10
2183.339750847236
 20
1799.668634052788
 30
0.0
 11
2183.294117903725
 21
1799.669328819429
 31
0.0
  0
LINE
  5
8E2
330
1F
100
AcDbEntity
  8
0
  6
SLD-實線
 62
     7
100
AcDbLine
 10
2239.748476526156
 20
1799.668634052788
 30
0.0
 11
2239.794109469667
 21
1799.669328819429
 31
0.0
  0
LINE
  5
8E3
330
1F
100
AcDbEntity
  8
0
  6
SLD-實線
 62
     7
100
AcDbLine
 10
2219.22042638661
 20
1801.059033464109
 30
0.0
 11
2219.244113644973
 21
1801.059033464109
 31
0.0
  0
LINE
  5
8E4
330
1F
100
AcDbEntity
  8
0
  6
SLD-實線
 62
     7
100
AcDbLine
 10
2231.844114592687
 20
1801.059033464109
 30
0.0
 11
2231.867799988404
 21
1801.059033464109
 31
0.0
  0
LINE
  5
8E5
330
1F
100
AcDbEntity
  8
0
  6
SLD-實線
 62
     7
100
AcDbLine
 10
2203.867800986782
 20
1801.059033464109
 30
0.0
 11
2203.844113728419
 21
1801.059033464109
 31
0.0
  0
LINE
  5
8E6
330
1F
100
AcDbEntity
  8
0
  6
SLD-實線
 62
     7
100
AcDbLine
 10
2191.244112780705
 20
1801.059033464109
 30
0.0
 11
2191.220427384988
 21
1801.059033464109
 31
0.0
  0
LINE
  5
8E7
330
1F
100
AcDbEntity
  8
0
  6
SLD-實線
 62
     8
100
AcDbLine
 10
2219.183512485042
 20
1801.318634043848
 30
0.0
 11
2219.581613770142
 21
1801.318634043848
 31
0.0
  0
LINE
  5
8E8
330
1F
100
AcDbEntity
  8
0
  6
SLD-實線
 62
     8
100
AcDbLine
 10
2231.506614467517
 20
1801.318634043848
 30
0.0
 11
2231.904713889972
 21
1801.318634043848
 31
0.0
  0
LINE
  5
8E9
330
1F
100
AcDbEntity
  8
0
  6
SLD-實線
 62
     8
100
AcDbLine
 10
2191.18351348342
 20
1801.318634043847
 30
0.0
 11
2191.581612905875
 21
1801.318634043847
 31
0.0
  0
LINE
  5
8EA
330
1F
100
AcDbEntity
  8
0
  6
SLD-實線
 62
     8
100
AcDbLine
 10
2203.506613603249
 20
1801.318634043847
 30
0.0
 11
2203.904714888349
 21
1801.318634043847
 31
0.0
  0
LINE
  5
8EB
330
1F
100
AcDbEntity
  8
0
  6
SLD-實線
 62
     8
100
AcDbLine
 10
2231.091797804848
 20
1800.985129292523
 30
0.0
 11
2231.12383716406
 21
1801.668634380614
 31
0.0
  0
LINE
  5
8EC
330
1F
100
AcDbEntity
  8
0
  6
SLD-實線
 62
     8
100
AcDbLine
 10
2219.964390142277
 20
1801.668634380614
 30
0.0
 11
2219.996429501489
 21
1800.985129292523
 31
0.0
  0
LWPOLYLINE
  5
8ED
330
1F
100
AcDbEntity
  8
0
  6
SLD-實線
 62
     8
100
AcDbPolyline
 90
       10
 70
     0
 43
0.0
 10
2219.996429501489
 20
1800.985129292523
 10
2219.997248134032
 20
1800.897856916701
 10
2219.998030444995
 20
1800.814352672016
 10
2219.998753151313
 20
1800.737226124322
 10
2219.999393901244
 20
1800.668883811151
 10
2219.999932205692
 20
1800.611458461201
 10
2220.000352232173
 20
1800.566743801748
 10
2220.000639079526
 20
1800.536134954011
 10
2220.000784365848
 20
1800.52058745495
 10
2220.000802992299
 20
1800.518633540189
  0
LWPOLYLINE
  5
8EE
330
1F
100
AcDbEntity
  8
0
  6
SLD-實線
 62
     8
100
AcDbPolyline
 90
       10
 70
     0
 43
0.0
 10
2231.087424314037
 20
1800.518633540189
 10
2231.087442940489
 20
1800.52058745495
 10
2231.08758822681
 20
1800.536134954011
 10
2231.087875074163
 20
1800.566743801748
 10
2231.088294169322
 20
1800.611458461201
 10
2231.08883247377
 20
1800.668883811151
 10
2231.089473223701
 20
1800.737226124322
 10
2231.090195930019
 20
1800.814352672016
 10
2231.090980103627
 20
1800.897856916701
 10
2231.091797804848
 20
1800.985129292523
  0
LINE
  5
8EF
330
1F
100
AcDbEntity
  8
0
  6
SLD-實線
 62
     8
100
AcDbLine
 10
2203.091797871903
 20
1800.985129292523
 30
0.0
 11
2203.123837231115
 21
1801.668634380613
 31
0.0
  0
LINE
  5
8F0
330
1F
100
AcDbEntity
  8
0
  6
SLD-實線
 62
     8
100
AcDbLine
 10
2191.964390209332
 20
1801.668634380613
 30
0.0
 11
2191.996429568544
 21
1800.985129292523
 31
0.0
  0
LWPOLYLINE
  5
8F1
330
1F
100
AcDbEntity
  8
0
  6
SLD-實線
 62
     8
100
AcDbPolyline
 90
       10
 70
     0
 43
0.0
 10
2203.087424381092
 20
1800.518633540188
 10
2203.087443007544
 20
1800.520587454949
 10
2203.087588293866
 20
1800.53613495401
 10
2203.087875141219
 20
1800.566743801747
 10
2203.0882951677
 20
1800.6114584612
 10
2203.088833472148
 20
1800.668883811151
 10
2203.089474222079
 20
1800.737226124321
 10
2203.090196928397
 20
1800.814352672015
 10
2203.09097923936
 20
1800.8978569167
 10
2203.091797871903
 20
1800.985129292523
  0
LWPOLYLINE
  5
8F2
330
1F
100
AcDbEntity
  8
0
  6
SLD-實線
 62
     8
100
AcDbPolyline
 90
       10
 70
     0
 43
0.0
 10
2191.996429568544
 20
1800.985129292523
 10
2191.997247269765
 20
1800.8978569167
 10
2191.998031443373
 20
1800.814352672015
 10
2191.998754149691
 20
1800.737226124321
 10
2191.999394899622
 20
1800.668883811151
 10
2191.99993320407
 20
1800.6114584612
 10
2192.000352299229
 20
1800.566743801747
 10
2192.000639146582
 20
1800.53613495401
 10
2192.000784432903
 20
1800.520587454949
 10
2192.000803059355
 20
1800.518633540188
  0
LINE
  5
8F3
330
1F
100
AcDbEntity
  8
0
  6
SLD-實線
 62
     8
100
AcDbLine
 10
2221.294113887861
 20
1840.622060674643
 30
0.0
 11
2221.294113887861
 21
1841.118633489525
 31
0.0
  0
LINE
  5
8F4
330
1F
100
AcDbEntity
  8
0
  6
SLD-實線
 62
     8
100
AcDbLine
 10
2201.794113485529
 20
1841.118633489525
 30
0.0
 11
2201.794113485529
 21
1840.622060674643
 31
0.0
  0
LINE
  5
8F5
330
1F
100
AcDbEntity
  8
0
  6
SLD-實線
 62
     8
100
AcDbLine
 10
2238.582628300801
 20
1800.009008239424
 30
0.0
 11
2238.582628300801
 21
1800.010753537928
 31
0.0
  0
LINE
  5
8F6
330
1F
100
AcDbEntity
  8
0
  6
SLD-實線
 62
     8
100
AcDbLine
 10
2184.505599072591
 20
1800.010753537928
 30
0.0
 11
2184.505599072591
 21
1800.009008239423
 31
0.0
  0
LINE
  5
8F7
330
1F
100
AcDbEntity
  8
0
  6
SLD-實線
 62
     8
100
AcDbLine
 10
2181.544185137763
 20
1826.768633651947
 30
0.0
 11
2181.544114357247
 21
1826.768633651947
 31
0.0
  0
LINE
  5
8F8
330
1F
100
AcDbEntity
  8
0
  6
SLD-實線
 62
     8
100
AcDbLine
 10
2241.544042235627
 20
1826.768633651947
 30
0.0
 11
2241.544113016143
 21
1826.768633651947
 31
0.0
  0
ENDSEC
  0
SECTION
  2
OBJECTS
  0
DICTIONARY
  5
C
330
0
100
AcDbDictionary
281
     1
  3
ACAD_CIP_PREVIOUS_PRODUCT_INFO
350
216
  3
ACAD_COLOR
350
6B
  3
ACAD_DETAILVIEWSTYLE
350
21B
  3
ACAD_GROUP
350
D
  3
ACAD_LAST_SAVED_VERSION_INFO
350
903
  3
ACAD_LAYOUT
350
1A
  3
ACAD_MATERIAL
350
6A
  3
ACAD_MLEADERSTYLE
350
12D
  3
ACAD_MLINESTYLE
350
17
  3
ACAD_PLOTSETTINGS
350
19
  3
ACAD_PLOTSTYLENAME
350
E
  3
ACAD_SCALELIST
350
10C
  3
ACAD_SECTIONVIEWSTYLE
350
219
  3
ACAD_TABLESTYLE
350
7E
  3
ACAD_VISUALSTYLE
350
EF
  3
ACDB_RECOMPOSE_DATA
350
905
  3
AcDbVariableDictionary
350
5E
  0
DICTIONARY
  5
1FF
330
2
100
AcDbDictionary
280
     1
281
     1
  3
ACAD_LAYERSTATES
360
200
  0
DICTIONARY
  5
13C
330
10
100
AcDbDictionary
280
     1
281
     1
  0
DICTIONARY
  5
1CE
330
1F
100
AcDbDictionary
280
     1
281
     1
  0
XRECORD
  5
216
102
{ACAD_REACTORS
330
C
102
}
330
C
100
AcDbXrecord
280
     1
300
ACD
300
2024
300

  0
DICTIONARY
  5
6B
102
{ACAD_REACTORS
330
C
102
}
330
C
100
AcDbDictionary
281
     1
  0
DICTIONARY
  5
21B
102
{ACAD_REACTORS
330
C
102
}
330
C
100
AcDbDictionary
281
     1
  3
Metric50
350
21C
  0
DICTIONARY
  5
D
102
{ACAD_REACTORS
330
C
102
}
330
C
100
AcDbDictionary
281
     1
  0
XRECORD
  5
903
102
{ACAD_REACTORS
330
C
102
}
330
C
100
AcDbXrecord
280
     1
300
{57728E39-F56C-A24C-A1CA-F99F84CACA44}
301
{D72EA1C6-2516-914E-A575-26C11F06C466}
302
{57728E39-F56C-A24C-A1CA-F99F84CACA44}
303
C:\Users\dsp199\Desktop\CAD HP UP\ローゼットボックス\NSBOX2.dxf
  0
DICTIONARY
  5
1A
102
{ACAD_REACTORS
330
C
102
}
330
C
100
AcDbDictionary
281
     1
  3
Model
350
22
  3
レイアウト1
350
D3
  3
レイアウト2
350
D7
  0
DICTIONARY
  5
6A
102
{ACAD_REACTORS
330
C
102
}
330
C
100
AcDbDictionary
281
     1
  3
ByBlock
350
ED
  3
ByLayer
350
EC
  3
Global
350
EE
  0
DICTIONARY
  5
12D
102
{ACAD_REACTORS
330
C
102
}
330
C
100
AcDbDictionary
281
     1
  3
Annotative
350
13B
  3
Standard
350
12E
  0
DICTIONARY
  5
17
102
{ACAD_REACTORS
330
C
102
}
330
C
100
AcDbDictionary
281
     1
  3
Standard
350
18
  0
DICTIONARY
  5
19
102
{ACAD_REACTORS
330
C
102
}
330
C
100
AcDbDictionary
281
     1
  0
ACDBDICTIONARYWDFLT
  5
E
102
{ACAD_REACTORS
330
C
102
}
330
C
100
AcDbDictionary
281
     1
  3
Normal
350
F
100
AcDbDictionaryWithDefault
340
F
  0
DICTIONARY
  5
10C
102
{ACAD_REACTORS
330
C
102
}
330
C
100
AcDbDictionary
281
     1
  3
A0
350
10D
  3
A1
350
1BE
  3
A2
350
1BF
  3
A3
350
1C0
  3
A4
350
1C1
  3
A5
350
1C2
  3
A6
350
1C3
  3
A7
350
1C4
  3
A8
350
1C5
  3
A9
350
1C6
  3
B0
350
1C7
  3
B1
350
1C8
  3
B2
350
1C9
  3
B3
350
1CA
  3
B4
350
1CB
  3
B5
350
1CC
  3
B6
350
1CD
  0
DICTIONARY
  5
219
102
{ACAD_REACTORS
330
C
102
}
330
C
100
AcDbDictionary
281
     1
  3
Metric50
350
21A
  0
DICTIONARY
  5
7E
102
{ACAD_REACTORS
330
C
102
}
330
C
100
AcDbDictionary
281
     1
  3
Standard
350
7F
  0
DICTIONARY
  5
EF
102
{ACAD_REACTORS
330
C
102
}
330
C
100
AcDbDictionary
281
     1
  3
2dWireframe
350
F5
  3
Basic
350
F4
  3
Brighten
350
FB
  3
ColorChange
350
FF
  3
Conceptual
350
F8
  3
Dim
350
FA
  3
EdgeColorOff
350
1E6
  3
Facepattern
350
FE
  3
Flat
350
F0
  3
FlatWithEdges
350
F1
  3
Gouraud
350
F2
  3
GouraudWithEdges
350
F3
  3
Hidden
350
F7
  3
JitterOff
350
1E4
  3
Linepattern
350
FD
  3
OverhangOff
350
1E5
  3
Realistic
350
F9
  3
Shaded
350
1F3
  3
Shaded with edges
350
1F2
  3
Shades of Gray
350
1EF
  3
Sketchy
350
1F0
  3
Thicken
350
FC
  3
Wireframe
350
F6
  3
X-Ray
350
1F1
  0
XRECORD
  5
905
102
{ACAD_REACTORS
330
C
102
}
330
C
100
AcDbXrecord
280
     1
 90
        1
330
7F
  0
DICTIONARY
  5
5E
102
{ACAD_REACTORS
330
C
102
}
330
C
100
AcDbDictionary
281
     1
  3
CANNOSCALE
350
146
  3
CENTEREXE
350
259
  3
CENTERLTYPEFILE
350
25A
  3
CMLEADERSTYLE
350
145
  3
CTABLESTYLE
350
84
  3
CVIEWDETAILSTYLE
350
227
  3
CVIEWSECTIONSTYLE
350
228
  3
DIMASSOC
350
5F
  3
HIDETEXT
350
63
  3
LAYEREVAL
350
1AE
  3
LAYERNOTIFY
350
1AF
  0
DICTIONARY
  5
200
102
{ACAD_REACTORS
330
1FF
102
}
330
1FF
100
AcDbDictionary
281
     1
  0
ACDBDETAILVIEWSTYLE
  5
21C
102
{ACAD_REACTORS
330
21B
102
}
330
21B
100
AcDbModelDocViewStyle
 70
     0
  3
Metric50
290
     0
300
Metric50
 90
        0
100
AcDbDetailViewStyle
 70
     0
 71
     0
 90
        3
 71
     1
340
11
 62
   256
 40
5.0
340
0
 62
   256
 40
5.0
300

 40
0.0
280
     1
 71
     2
340
16
 90
       25
 62
   256
 71
     3
340
11
 62
   256
 40
5.0
 90
        0
 40
15.0
 90
        1
300
%<\AcVar ViewDetailId>% (%<\AcVar ViewScale \f "%sn">%)
 71
     4
340
16
 90
       25
 62
   256
340
16
 90
       25
 62
   256
280
     0
  0
LAYOUT
  5
22
102
{ACAD_XDICTIONARY
360
205
102
}
102
{ACAD_REACTORS
330
1A
102
}
330
1A
100
AcDbPlotSettings
  1

  2
none_device
  4
ISO_A4_(210.00_x_297.00_MM)
  6

 40
7.5
 41
20.0
 42
7.5
 43
20.0
 44
210.0
 45
297.0
 46
11.54999923706054
 47
-13.65000009536743
 48
0.0
 49
0.0
140
0.0
141
0.0
142
1.0
143
8.704084754739808
 70
 11952
 72
     1
 73
     0
 74
     0
  7

 75
     0
147
0.1148885871608098
 76
     0
 77
     2
 78
   300
148
0.0
149
0.0
100
AcDbLayout
  1
Model
 70
     1
 71
     0
 10
0.0
 20
0.0
 11
12.0
 21
9.0
 12
0.0
 22
0.0
 32
0.0
 14
0.0
 24
0.0
 34
0.0
 15
0.0
 25
0.0
 35
0.0
146
0.0
 13
0.0
 23
0.0
 33
0.0
 16
1.0
 26
0.0
 36
0.0
 17
0.0
 27
1.0
 37
0.0
 76
     0
330
1F
331
EA
1001
ACAD_PSEXT
1000
None
1000
None
1000
Not applicable
1000
The layout will not be plotted unless a new plotter configuration name is selected.
1070
     0
  0
LAYOUT
  5
D3
102
{ACAD_REACTORS
330
1A
102
}
330
1A
100
AcDbPlotSettings
  1

  2
C:\Documents and Settings\basas\Application Data\Autodesk\AutoCAD 2005\R16.1\enu\plotters\Default Windows System Printer.pc3
  4

  6

 40
0.0
 41
0.0
 42
0.0
 43
0.0
 44
0.0
 45
0.0
 46
0.0
 47
0.0
 48
0.0
 49
0.0
140
0.0
141
0.0
142
1.0
143
1.0
 70
   688
 72
     0
 73
     0
 74
     5
  7

 75
    16
147
1.0
 76
     0
 77
     2
 78
   300
148
0.0
149
0.0
100
AcDbLayout
  1
レイアウト1
 70
     1
 71
     1
 10
0.0
 20
0.0
 11
12.0
 21
9.0
 12
0.0
 22
0.0
 32
0.0
 14
0.0
 24
0.0
 34
0.0
 15
0.0
 25
0.0
 35
0.0
146
0.0
 13
0.0
 23
0.0
 33
0.0
 16
1.0
 26
0.0
 36
0.0
 17
0.0
 27
1.0
 37
0.0
 76
     0
330
D2
  0
LAYOUT
  5
D7
102
{ACAD_REACTORS
330
1A
102
}
330
1A
100
AcDbPlotSettings
  1

  2
C:\Documents and Settings\basas\Application Data\Autodesk\AutoCAD 2005\R16.1\enu\plotters\Default Windows System Printer.pc3
  4

  6

 40
0.0
 41
0.0
 42
0.0
 43
0.0
 44
0.0
 45
0.0
 46
0.0
 47
0.0
 48
0.0
 49
0.0
140
0.0
141
0.0
142
1.0
143
1.0
 70
   688
 72
     0
 73
     0
 74
     5
  7

 75
    16
147
1.0
 76
     0
 77
     2
 78
   300
148
0.0
149
0.0
100
AcDbLayout
  1
レイアウト2
 70
     1
 71
     2
 10
0.0
 20
0.0
 11
12.0
 21
9.0
 12
0.0
 22
0.0
 32
0.0
 14
0.0
 24
0.0
 34
0.0
 15
0.0
 25
0.0
 35
0.0
146
0.0
 13
0.0
 23
0.0
 33
0.0
 16
1.0
 26
0.0
 36
0.0
 17
0.0
 27
1.0
 37
0.0
 76
     0
330
D6
  0
MATERIAL
  5
ED
102
{ACAD_XDICTIONARY
360
1F9
102
}
102
{ACAD_REACTORS
330
6A
102
}
330
6A
100
AcDbMaterial
  1
ByBlock
 94
       63
  0
MATERIAL
  5
EC
102
{ACAD_XDICTIONARY
360
1F7
102
}
102
{ACAD_REACTORS
330
6A
102
}
330
6A
100
AcDbMaterial
  1
ByLayer
 94
       63
  0
MATERIAL
  5
EE
102
{ACAD_XDICTIONARY
360
173
102
}
102
{ACAD_REACTORS
330
6A
102
}
330
6A
100
AcDbMaterial
  1
Global
 43
0.0007999999797903
 43
0.0
 43
0.0
 43
0.0
 43
0.0
 43
0.0007999999797903
 43
0.0
 43
0.0
 43
0.0
 43
0.0
 43
1.0
 43
0.0
 43
0.0
 43
0.0
 43
0.0
 43
1.0
 49
0.0007999999797903
 49
0.0
 49
0.0
 49
0.0
 49
0.0
 49
0.0007999999797903
 49
0.0
 49
0.0
 49
0.0
 49
0.0
 49
1.0
 49
0.0
 49
0.0
 49
0.0
 49
0.0
 49
1.0
142
0.0007999999797903
142
0.0
142
0.0
142
0.0
142
0.0
142
0.0007999999797903
142
0.0
142
0.0
142
0.0
142
0.0
142
1.0
142
0.0
142
0.0
142
0.0
142
0.0
142
1.0
144
0.0007999999797903
144
0.0
144
0.0
144
0.0
144
0.0
144
0.0007999999797903
144
0.0
144
0.0
144
0.0
144
0.0
144
1.0
144
0.0
144
0.0
144
0.0
144
0.0
144
1.0
 94
       63
1001
ACAD
1070
    -1
1070
     3
1070
     0
1000

1071
        0
1070
     0
  0
MLEADERSTYLE
  5
13B
102
{ACAD_REACTORS
330
12D
102
}
330
12D
100
AcDbMLeaderStyle
179
     2
170
     2
171
     1
172
     0
 90
        2
 40
0.0
 41
0.0
173
     1
 91
-1056964608
340
14
 92
       -2
290
     1
 42
2.0
291
     1
 43
8.0
  3
Standard
 44
4.0
300

342
11
174
     1
178
     1
175
     1
176
     0
 93
-1056964608
 45
4.0
292
     0
297
     0
 46
4.0
 94
-1056964608
 47
1.0
 49
1.0
140
1.0
293
     1
141
0.0
294
     1
177
     0
142
1.0
295
     0
296
     1
143
3.75
271
     0
272
     9
273
     9
298
     0
  0
MLEADERSTYLE
  5
12E
102
{ACAD_REACTORS
330
12D
102
}
330
12D
100
AcDbMLeaderStyle
179
     2
170
     2
171
     1
172
     0
 90
        2
 40
0.0
 41
0.0
173
     1
 91
-1056964608
340
14
 92
       -2
290
     1
 42
2.0
291
     1
 43
8.0
  3
Standard
 44
4.0
300

342
11
174
     1
178
     1
175
     1
176
     0
 93
-1056964608
 45
4.0
292
     0
297
     0
 46
4.0
 94
-1056964608
 47
1.0
 49
1.0
140
1.0
293
     1
141
0.0
294
     1
177
     0
142
1.0
295
     0
296
     0
143
3.75
271
     0
272
     9
273
     9
298
     0
  0
MLINESTYLE
  5
18
102
{ACAD_REACTORS
330
17
102
}
330
17
100
AcDbMlineStyle
  2
STANDARD
 70
     0
  3

 62
   256
 51
90.0
 52
90.0
 71
     2
 49
0.5
 62
   256
  6
BYLAYER
 49
-0.5
 62
   256
  6
BYLAYER
  0
ACDBPLACEHOLDER
  5
F
102
{ACAD_REACTORS
330
E
102
}
330
E
  0
SCALE
  5
10D
102
{ACAD_REACTORS
330
10C
102
}
330
10C
100
AcDbScale
 70
     0
300
1:1
140
1.0
141
1.0
290
     1
  0
SCALE
  5
1BE
102
{ACAD_REACTORS
330
10C
102
}
330
10C
100
AcDbScale
 70
     0
300
1:2
140
1.0
141
2.0
290
     0
  0
SCALE
  5
1BF
102
{ACAD_REACTORS
330
10C
102
}
330
10C
100
AcDbScale
 70
     0
300
1:4
140
1.0
141
4.0
290
     0
  0
SCALE
  5
1C0
102
{ACAD_REACTORS
330
10C
102
}
330
10C
100
AcDbScale
 70
     0
300
1:5
140
1.0
141
5.0
290
     0
  0
SCALE
  5
1C1
102
{ACAD_REACTORS
330
10C
102
}
330
10C
100
AcDbScale
 70
     0
300
1:8
140
1.0
141
8.0
290
     0
  0
SCALE
  5
1C2
102
{ACAD_REACTORS
330
10C
102
}
330
10C
100
AcDbScale
 70
     0
300
1:10
140
1.0
141
10.0
290
     0
  0
SCALE
  5
1C3
102
{ACAD_REACTORS
330
10C
102
}
330
10C
100
AcDbScale
 70
     0
300
1:16
140
1.0
141
16.0
290
     0
  0
SCALE
  5
1C4
102
{ACAD_REACTORS
330
10C
102
}
330
10C
100
AcDbScale
 70
     0
300
1:20
140
1.0
141
20.0
290
     0
  0
SCALE
  5
1C5
102
{ACAD_REACTORS
330
10C
102
}
330
10C
100
AcDbScale
 70
     0
300
1:30
140
1.0
141
30.0
290
     0
  0
SCALE
  5
1C6
102
{ACAD_REACTORS
330
10C
102
}
330
10C
100
AcDbScale
 70
     0
300
1:40
140
1.0
141
40.0
290
     0
  0
SCALE
  5
1C7
102
{ACAD_REACTORS
330
10C
102
}
330
10C
100
AcDbScale
 70
     0
300
1:50
140
1.0
141
50.0
290
     0
  0
SCALE
  5
1C8
102
{ACAD_REACTORS
330
10C
102
}
330
10C
100
AcDbScale
 70
     0
300
1:100
140
1.0
141
100.0
290
     0
  0
SCALE
  5
1C9
102
{ACAD_REACTORS
330
10C
102
}
330
10C
100
AcDbScale
 70
     0
300
2:1
140
2.0
141
1.0
290
     0
  0
SCALE
  5
1CA
102
{ACAD_REACTORS
330
10C
102
}
330
10C
100
AcDbScale
 70
     0
300
4:1
140
4.0
141
1.0
290
     0
  0
SCALE
  5
1CB
102
{ACAD_REACTORS
330
10C
102
}
330
10C
100
AcDbScale
 70
     0
300
8:1
140
8.0
141
1.0
290
     0
  0
SCALE
  5
1CC
102
{ACAD_REACTORS
330
10C
102
}
330
10C
100
AcDbScale
 70
     0
300
10:1
140
10.0
141
1.0
290
     0
  0
SCALE
  5
1CD
102
{ACAD_REACTORS
330
10C
102
}
330
10C
100
AcDbScale
 70
     0
300
100:1
140
100.0
141
1.0
290
     0
  0
ACDBSECTIONVIEWSTYLE
  5
21A
102
{ACAD_REACTORS
330
219
102
}
330
219
100
AcDbModelDocViewStyle
 70
     0
  3
Metric50
290
     0
300
Metric50
 90
        0
100
AcDbSectionViewStyle
 70
     0
 71
     0
 90
      102
 71
     1
340
11
 62
   256
 40
5.0
340
0
340
0
 62
   256
 40
5.0
300
I, O, Q, S, X, Z
 40
10.0
 90
        0
 40
2.5
 90
        0
 71
     2
340
16
 90
       25
 62
   256
340
16
 90
       50
 62
   256
 40
5.0
 40
2.5
 40
5.0
 71
     3
340
11
 62
   256
 40
5.0
 90
        0
 40
15.0
 90
        1
300
%<\AcVar ViewSectionStartId>%-%<\AcVar ViewSectionEndId>% (%<\AcVar ViewScale \f "%sn">%)
 71
     4
 62
   256
 62
   257
300
ANSI31
 40
1.0
 90
        0
290
     0
290
     0
 90
        6
 40
0.0
 40
1.570796326794896
 40
0.2617993877991494
 40
1.308996938995747
 40
-0.2617993877991494
 40
1.832595714594046
  0
TABLESTYLE
  5
7F
102
{ACAD_XDICTIONARY
360
162
102
}
102
{ACAD_REACTORS
330
7E
102
}
330
7E
100
AcDbTableStyle
280
     0
  3
Standard
 70
     0
 71
     0
 40
1.5
 41
1.5
280
     0
281
     0
  7
Standard
140
4.5
170
     2
 62
     0
 63
     7
283
     0
 90
      512
 91
        0
  1

274
    -2
284
     1
 64
     0
275
    -2
285
     1
 65
     0
276
    -2
286
     1
 66
     0
277
    -2
287
     1
 67
     0
278
    -2
288
     1
 68
     0
279
    -2
289
     1
 69
     0
  7
Standard
140
6.0
170
     5
 62
     0
 63
     7
283
     0
 90
      512
 91
        0
  1

274
    -2
284
     1
 64
     0
275
    -2
285
     1
 65
     0
276
    -2
286
     1
 66
     0
277
    -2
287
     1
 67
     0
278
    -2
288
     1
 68
     0
279
    -2
289
     1
 69
     0
  7
Standard
140
4.5
170
     5
 62
     0
 63
     7
283
     0
 90
      512
 91
        0
  1

274
    -2
284
     1
 64
     0
275
    -2
285
     1
 65
     0
276
    -2
286
     1
 66
     0
277
    -2
287
     1
 67
     0
278
    -2
288
     1
 68
     0
279
    -2
289
     1
 69
     0
  0
VISUALSTYLE
  5
F5
102
{ACAD_REACTORS
330
EF
102
}
330
EF
100
AcDbVisualStyle
  2
2dWireframe
 70
     4
177
     3
291
     0
 70
    58
 90
        0
176
     1
 90
        2
176
     1
 90
        1
176
     1
 90
        0
176
     1
 40
0.6
176
     1
 40
30.0
176
     1
 62
     7
420
 16777215
176
     1
 90
        1
176
     1
 90
        4
176
     1
 62
     7
176
     1
 62
   257
176
     1
 90
        1
176
     1
 90
        1
176
     1
 40
1.0
176
     1
 90
        0
176
     1
 62
   257
176
     1
 40
1.0
176
     1
 90
        1
176
     1
 90
        6
176
     1
 90
        2
176
     1
 62
     7
176
     1
 90
        5
176
     1
 90
        0
176
     1
 90
        0
176
     1
290
     0
176
     1
 90
        1
176
     1
 40
0.0
176
     1
 90
        0
176
     1
290
     1
176
     1
290
     1
176
     1
290
     0
176
     1
290
     0
176
     1
290
     0
176
     1
290
     0
176
     1
290
     0
176
     1
290
     0
176
     1
290
     0
176
     1
 90
       50
176
     1
 40
0.0
176
     1
 40
1.0
176
     1
 90
        0
176
     1
 62
    18
420
        0
176
     1
 90
       50
176
     1
 90
        3
176
     1
 62
     5
420
      255
176
     1
290
     0
176
     1
 90
       50
176
     1
 90
       50
176
     1
 90
       50
176
     1
290
     0
176
     1
 90
       50
176
     1
 62
   256
176
     0
 40
1.0
176
     0
 90
        2
176
     1
  1
strokes_ogs.tif
176
     1
290
     0
176
     1
 40
1.0
176
     1
 40
1.0
176
     1
  0
VISUALSTYLE
  5
F4
102
{ACAD_REACTORS
330
EF
102
}
330
EF
100
AcDbVisualStyle
  2
Basic
 70
     7
177
     3
291
     1
 70
    58
 90
        1
176
     1
 90
        0
176
     1
 90
        1
176
     1
 90
        0
176
     1
 40
0.6
176
     1
 40
30.0
176
     1
 62
     7
420
 16777215
176
     1
 90
        0
176
     1
 90
        4
176
     1
 62
     7
176
     1
 62
   257
176
     1
 90
        1
176
     1
 90
        1
176
     1
 40
1.0
176
     1
 90
        8
176
     1
 62
     7
176
     1
 40
1.0
176
     1
 90
        1
176
     1
 90
        6
176
     1
 90
        2
176
     1
 62
     7
176
     1
 90
        5
176
     1
 90
        0
176
     1
 90
        0
176
     1
290
     0
176
     1
 90
        1
176
     1
 40
0.0
176
     1
 90
        0
176
     1
290
     0
176
     1
290
     1
176
     1
290
     1
176
     1
290
     0
176
     1
290
     0
176
     1
290
     0
176
     1
290
     0
176
     1
290
     0
176
     1
290
     0
176
     1
 90
       50
176
     1
 40
0.0
176
     1
 40
1.0
176
     1
 90
        0
176
     1
 62
    18
420
        0
176
     1
 90
       50
176
     1
 90
        3
176
     1
 62
     5
420
      255
176
     1
290
     0
176
     1
 90
       50
176
     1
 90
       50
176
     1
 90
       50
176
     1
290
     0
176
     1
 90
       50
176
     1
 62
   256
176
     0
 40
1.0
176
     0
 90
        2
176
     1
  1
strokes_ogs.tif
176
     1
290
     0
176
     1
 40
1.0
176
     1
 40
1.0
176
     1
  0
VISUALSTYLE
  5
FB
102
{ACAD_REACTORS
330
EF
102
}
330
EF
100
AcDbVisualStyle
  2
Brighten
 70
    12
177
     3
291
     1
 70
    58
 90
        2
176
     1
 90
        2
176
     1
 90
        1
176
     1
 90
        0
176
     1
 40
0.6
176
     1
 40
30.0
176
     1
 62
     7
420
 16777215
176
     1
 90
        1
176
     1
 90
        4
176
     1
 62
     7
176
     1
 62
   257
176
     1
 90
        1
176
     1
 90
        1
176
     1
 40
1.0
176
     1
 90
        8
176
     1
 62
     7
176
     1
 40
1.0
176
     1
 90
        1
176
     1
 90
        6
176
     1
 90
        2
176
     1
 62
     7
176
     1
 90
        5
176
     1
 90
        0
176
     1
 90
        0
176
     1
290
     0
176
     1
 90
        1
176
     1
 40
50.0
176
     1
 90
        0
176
     1
290
     0
176
     1
290
     1
176
     1
290
     1
176
     1
290
     0
176
     1
290
     0
176
     1
290
     0
176
     1
290
     0
176
     1
290
     0
176
     1
290
     0
176
     1
 90
       50
176
     1
 40
0.0
176
     1
 40
1.0
176
     1
 90
        0
176
     1
 62
    18
420
        0
176
     1
 90
       50
176
     1
 90
        3
176
     1
 62
     5
420
      255
176
     1
290
     0
176
     1
 90
       50
176
     1
 90
       50
176
     1
 90
       50
176
     1
290
     0
176
     1
 90
       50
176
     1
 62
   256
176
     0
 40
1.0
176
     0
 90
        2
176
     1
  1
strokes_ogs.tif
176
     1
290
     0
176
     1
 40
1.0
176
     1
 40
1.0
176
     1
  0
VISUALSTYLE
  5
FF
102
{ACAD_REACTORS
330
EF
102
}
330
EF
100
AcDbVisualStyle
  2
ColorChange
 70
    16
177
     3
291
     1
 70
    58
 90
        2
176
     1
 90
        2
176
     1
 90
        3
176
     1
 90
        0
176
     1
 40
0.6
176
     1
 40
30.0
176
     1
 62
     8
420
  8421504
176
     1
 90
        1
176
     1
 90
        4
176
     1
 62
     7
176
     1
 62
   257
176
     1
 90
        1
176
     1
 90
        1
176
     1
 40
1.0
176
     1
 90
        8
176
     1
 62
     8
420
  8421504
176
     1
 40
1.0
176
     1
 90
        1
176
     1
 90
        6
176
     1
 90
        2
176
     1
 62
     7
176
     1
 90
        5
176
     1
 90
        0
176
     1
 90
        0
176
     1
290
     0
176
     1
 90
        1
176
     1
 40
0.0
176
     1
 90
        0
176
     1
290
     0
176
     1
290
     1
176
     1
290
     1
176
     1
290
     0
176
     1
290
     0
176
     1
290
     0
176
     1
290
     0
176
     1
290
     0
176
     1
290
     0
176
     1
 90
       50
176
     1
 40
0.0
176
     1
 40
1.0
176
     1
 90
        0
176
     1
 62
    18
420
        0
176
     1
 90
       50
176
     1
 90
        3
176
     1
 62
     5
420
      255
176
     1
290
     0
176
     1
 90
       50
176
     1
 90
       50
176
     1
 90
       50
176
     1
290
     0
176
     1
 90
       50
176
     1
 62
   256
176
     0
 40
1.0
176
     0
 90
        2
176
     1
  1
strokes_ogs.tif
176
     1
290
     0
176
     1
 40
1.0
176
     1
 40
1.0
176
     1
  0
VISUALSTYLE
  5
F8
102
{ACAD_REACTORS
330
EF
102
}
330
EF
100
AcDbVisualStyle
  2
Conceptual
 70
     9
177
     3
291
     0
 70
    58
 90
        3
176
     1
 90
        2
176
     1
 90
        1
176
     1
 90
        0
176
     1
 40
0.6
176
     1
 40
30.0
176
     1
 62
     7
420
 16777215
176
     1
 90
        2
176
     1
 90
        2
176
     1
 62
     7
176
     1
 62
   257
176
     1
 90
        1
176
     1
 90
        1
176
     1
 40
40.0
176
     1
 90
        8
176
     1
 62
     7
176
     1
 40
1.0
176
     1
 90
        1
176
     1
 90
        6
176
     1
 90
        2
176
     1
 62
     7
176
     1
 90
        3
176
     1
 90
        0
176
     1
 90
        0
176
     1
290
     0
176
     1
 90
        1
176
     1
 40
0.0
176
     1
 90
        0
176
     1
290
     0
176
     1
290
     1
176
     1
290
     1
176
     1
290
     0
176
     1
290
     0
176
     1
290
     0
176
     1
290
     0
176
     1
290
     0
176
     1
290
     0
176
     1
 90
       50
176
     1
 40
0.0
176
     1
 40
1.0
176
     1
 90
        0
176
     1
 62
    18
420
        0
176
     1
 90
       50
176
     1
 90
        3
176
     1
 62
     5
420
      255
176
     1
290
     0
176
     1
 90
       50
176
     1
 90
       50
176
     1
 90
       50
176
     1
290
     0
176
     1
 90
       50
176
     1
 62
   256
176
     0
 40
1.0
176
     0
 90
        2
176
     1
  1
strokes_ogs.tif
176
     1
290
     0
176
     1
 40
1.0
176
     1
 40
1.0
176
     1
  0
VISUALSTYLE
  5
FA
102
{ACAD_REACTORS
330
EF
102
}
330
EF
100
AcDbVisualStyle
  2
Dim
 70
    11
177
     3
291
     1
 70
    58
 90
        2
176
     1
 90
        2
176
     1
 90
        1
176
     1
 90
        0
176
     1
 40
0.6
176
     1
 40
30.0
176
     1
 62
     7
420
 16777215
176
     1
 90
        1
176
     1
 90
        4
176
     1
 62
     7
176
     1
 62
   257
176
     1
 90
        1
176
     1
 90
        1
176
     1
 40
1.0
176
     1
 90
        8
176
     1
 62
     7
176
     1
 40
1.0
176
     1
 90
        1
176
     1
 90
        6
176
     1
 90
        2
176
     1
 62
     7
176
     1
 90
        5
176
     1
 90
        0
176
     1
 90
        0
176
     1
290
     0
176
     1
 90
        1
176
     1
 40
-50.0
176
     1
 90
        0
176
     1
290
     0
176
     1
290
     1
176
     1
290
     1
176
     1
290
     0
176
     1
290
     0
176
     1
290
     0
176
     1
290
     0
176
     1
290
     0
176
     1
290
     0
176
     1
 90
       50
176
     1
 40
0.0
176
     1
 40
1.0
176
     1
 90
        0
176
     1
 62
    18
420
        0
176
     1
 90
       50
176
     1
 90
        3
176
     1
 62
     5
420
      255
176
     1
290
     0
176
     1
 90
       50
176
     1
 90
       50
176
     1
 90
       50
176
     1
290
     0
176
     1
 90
       50
176
     1
 62
   256
176
     0
 40
1.0
176
     0
 90
        2
176
     1
  1
strokes_ogs.tif
176
     1
290
     0
176
     1
 40
1.0
176
     1
 40
1.0
176
     1
  0
VISUALSTYLE
  5
1E6
102
{ACAD_REACTORS
330
EF
102
}
330
EF
100
AcDbVisualStyle
  2
EdgeColorOff
 70
    22
177
     3
291
     1
 70
    58
 90
        2
176
     0
 90
        2
176
     0
 90
        0
176
     0
 90
        0
176
     0
 40
0.6
176
     0
 40
30.0
176
     0
 62
     7
420
 16777215
176
     0
 90
        1
176
     0
 90
        4
176
     0
 62
     7
176
     0
 62
   257
176
     0
 90
        1
176
     0
 90
        1
176
     0
 40
1.0
176
     0
 90
        8
176
     2
 62
     7
176
     0
 40
1.0
176
     0
 90
        1
176
     0
 90
        6
176
     0
 90
        2
176
     0
 62
     7
176
     0
 90
        5
176
     0
 90
        0
176
     0
 90
        0
176
     0
290
     0
176
     0
 90
        1
176
     0
 40
0.0
176
     0
 90
        0
176
     0
290
     0
176
     1
290
     1
176
     1
290
     1
176
     1
290
     0
176
     1
290
     0
176
     1
290
     0
176
     1
290
     0
176
     1
290
     0
176
     1
290
     0
176
     1
 90
       50
176
     1
 40
0.0
176
     1
 40
1.0
176
     1
 90
        0
176
     1
 62
    18
420
        0
176
     1
 90
       50
176
     1
 90
        3
176
     1
 62
     5
420
      255
176
     1
290
     0
176
     1
 90
       50
176
     1
 90
       50
176
     1
 90
       50
176
     1
290
     0
176
     1
 90
       50
176
     1
 62
   256
176
     0
 40
1.0
176
     0
 90
        2
176
     1
  1
strokes_ogs.tif
176
     1
290
     0
176
     1
 40
1.0
176
     1
 40
1.0
176
     1
  0
VISUALSTYLE
  5
FE
102
{ACAD_REACTORS
330
EF
102
}
330
EF
100
AcDbVisualStyle
  2
Facepattern
 70
    15
177
     3
291
     1
 70
    58
 90
        2
176
     1
 90
        2
176
     1
 90
        1
176
     1
 90
        0
176
     1
 40
0.6
176
     1
 40
30.0
176
     1
 62
     7
420
 16777215
176
     1
 90
        1
176
     1
 90
        4
176
     1
 62
     7
176
     1
 62
   257
176
     1
 90
        1
176
     1
 90
        1
176
     1
 40
1.0
176
     1
 90
        8
176
     1
 62
     7
176
     1
 40
1.0
176
     1
 90
        1
176
     1
 90
        6
176
     1
 90
        2
176
     1
 62
     7
176
     1
 90
        5
176
     1
 90
        0
176
     1
 90
        0
176
     1
290
     0
176
     1
 90
        1
176
     1
 40
0.0
176
     1
 90
        0
176
     1
290
     0
176
     1
290
     1
176
     1
290
     1
176
     1
290
     0
176
     1
290
     0
176
     1
290
     0
176
     1
290
     0
176
     1
290
     0
176
     1
290
     0
176
     1
 90
       50
176
     1
 40
0.0
176
     1
 40
1.0
176
     1
 90
        0
176
     1
 62
    18
420
        0
176
     1
 90
       50
176
     1
 90
        3
176
     1
 62
     5
420
      255
176
     1
290
     0
176
     1
 90
       50
176
     1
 90
       50
176
     1
 90
       50
176
     1
290
     0
176
     1
 90
       50
176
     1
 62
   256
176
     0
 40
1.0
176
     0
 90
        2
176
     1
  1
strokes_ogs.tif
176
     1
290
     0
176
     1
 40
1.0
176
     1
 40
1.0
176
     1
  0
VISUALSTYLE
  5
F0
102
{ACAD_REACTORS
330
EF
102
}
330
EF
100
AcDbVisualStyle
  2
Flat
 70
     0
177
     3
291
     1
 70
    58
 90
        2
176
     1
 90
        1
176
     1
 90
        1
176
     1
 90
        2
176
     1
 40
0.6
176
     1
 40
30.0
176
     1
 62
     7
420
 16777215
176
     1
 90
        0
176
     1
 90
        0
176
     1
 62
     7
176
     1
 62
   257
176
     1
 90
        1
176
     1
 90
        1
176
     1
 40
1.0
176
     1
 90
        8
176
     1
 62
     7
176
     1
 40
1.0
176
     1
 90
        1
176
     1
 90
        6
176
     1
 90
        2
176
     1
 62
     7
176
     1
 90
        5
176
     1
 90
        0
176
     1
 90
        0
176
     1
290
     0
176
     1
 90
       13
176
     1
 40
0.0
176
     1
 90
        0
176
     1
290
     0
176
     1
290
     1
176
     1
290
     1
176
     1
290
     0
176
     1
290
     0
176
     1
290
     0
176
     1
290
     0
176
     1
290
     0
176
     1
290
     0
176
     1
 90
       50
176
     1
 40
0.0
176
     1
 40
1.0
176
     1
 90
        0
176
     1
 62
    18
420
        0
176
     1
 90
       50
176
     1
 90
        3
176
     1
 62
     5
420
      255
176
     1
290
     0
176
     1
 90
       50
176
     1
 90
       50
176
     1
 90
       50
176
     1
290
     0
176
     1
 90
       50
176
     1
 62
   256
176
     0
 40
1.0
176
     0
 90
        2
176
     1
  1
strokes_ogs.tif
176
     1
290
     0
176
     1
 40
1.0
176
     1
 40
1.0
176
     1
  0
VISUALSTYLE
  5
F1
102
{ACAD_REACTORS
330
EF
102
}
330
EF
100
AcDbVisualStyle
  2
FlatWithEdges
 70
     1
177
     3
291
     1
 70
    58
 90
        2
176
     1
 90
        1
176
     1
 90
        1
176
     1
 90
        2
176
     1
 40
0.6
176
     1
 40
30.0
176
     1
 62
     7
420
 16777215
176
     1
 90
        1
176
     1
 90
        0
176
     1
 62
     7
176
     1
 62
   257
176
     1
 90
        1
176
     1
 90
        1
176
     1
 40
1.0
176
     1
 90
        0
176
     1
 62
   257
176
     1
 40
1.0
176
     1
 90
        1
176
     1
 90
        6
176
     1
 90
        2
176
     1
 62
     7
176
     1
 90
        5
176
     1
 90
        0
176
     1
 90
        0
176
     1
290
     0
176
     1
 90
       13
176
     1
 40
0.0
176
     1
 90
        0
176
     1
290
     0
176
     1
290
     1
176
     1
290
     1
176
     1
290
     0
176
     1
290
     0
176
     1
290
     0
176
     1
290
     0
176
     1
290
     0
176
     1
290
     0
176
     1
 90
       50
176
     1
 40
0.0
176
     1
 40
1.0
176
     1
 90
        0
176
     1
 62
    18
420
        0
176
     1
 90
       50
176
     1
 90
        3
176
     1
 62
     5
420
      255
176
     1
290
     0
176
     1
 90
       50
176
     1
 90
       50
176
     1
 90
       50
176
     1
290
     0
176
     1
 90
       50
176
     1
 62
   256
176
     0
 40
1.0
176
     0
 90
        2
176
     1
  1
strokes_ogs.tif
176
     1
290
     0
176
     1
 40
1.0
176
     1
 40
1.0
176
     1
  0
VISUALSTYLE
  5
F2
102
{ACAD_REACTORS
330
EF
102
}
330
EF
100
AcDbVisualStyle
  2
Gouraud
 70
     2
177
     3
291
     1
 70
    58
 90
        2
176
     1
 90
        2
176
     1
 90
        1
176
     1
 90
        2
176
     1
 40
0.6
176
     1
 40
30.0
176
     1
 62
     7
420
 16777215
176
     1
 90
        0
176
     1
 90
        0
176
     1
 62
     7
176
     1
 62
   257
176
     1
 90
        1
176
     1
 90
        1
176
     1
 40
1.0
176
     1
 90
        0
176
     1
 62
     7
176
     1
 40
1.0
176
     1
 90
        1
176
     1
 90
        6
176
     1
 90
        2
176
     1
 62
     7
176
     1
 90
        5
176
     1
 90
        0
176
     1
 90
        0
176
     1
290
     0
176
     1
 90
       13
176
     1
 40
0.0
176
     1
 90
        0
176
     1
290
     0
176
     1
290
     1
176
     1
290
     1
176
     1
290
     0
176
     1
290
     0
176
     1
290
     0
176
     1
290
     0
176
     1
290
     0
176
     1
290
     0
176
     1
 90
       50
176
     1
 40
0.0
176
     1
 40
1.0
176
     1
 90
        0
176
     1
 62
    18
420
        0
176
     1
 90
       50
176
     1
 90
        3
176
     1
 62
     5
420
      255
176
     1
290
     0
176
     1
 90
       50
176
     1
 90
       50
176
     1
 90
       50
176
     1
290
     0
176
     1
 90
       50
176
     1
 62
   256
176
     0
 40
1.0
176
     0
 90
        2
176
     1
  1
strokes_ogs.tif
176
     1
290
     0
176
     1
 40
1.0
176
     1
 40
1.0
176
     1
  0
VISUALSTYLE
  5
F3
102
{ACAD_REACTORS
330
EF
102
}
330
EF
100
AcDbVisualStyle
  2
GouraudWithEdges
 70
     3
177
     3
291
     1
 70
    58
 90
        2
176
     1
 90
        2
176
     1
 90
        1
176
     1
 90
        2
176
     1
 40
0.6
176
     1
 40
30.0
176
     1
 62
     7
420
 16777215
176
     1
 90
        1
176
     1
 90
        0
176
     1
 62
     7
176
     1
 62
   257
176
     1
 90
        1
176
     1
 90
        1
176
     1
 40
1.0
176
     1
 90
        0
176
     1
 62
   257
176
     1
 40
1.0
176
     1
 90
        1
176
     1
 90
        6
176
     1
 90
        2
176
     1
 62
     7
176
     1
 90
        5
176
     1
 90
        0
176
     1
 90
        0
176
     1
290
     0
176
     1
 90
       13
176
     1
 40
0.0
176
     1
 90
        0
176
     1
290
     0
176
     1
290
     1
176
     1
290
     1
176
     1
290
     0
176
     1
290
     0
176
     1
290
     0
176
     1
290
     0
176
     1
290
     0
176
     1
290
     0
176
     1
 90
       50
176
     1
 40
0.0
176
     1
 40
1.0
176
     1
 90
        0
176
     1
 62
    18
420
        0
176
     1
 90
       50
176
     1
 90
        3
176
     1
 62
     5
420
      255
176
     1
290
     0
176
     1
 90
       50
176
     1
 90
       50
176
     1
 90
       50
176
     1
290
     0
176
     1
 90
       50
176
     1
 62
   256
176
     0
 40
1.0
176
     0
 90
        2
176
     1
  1
strokes_ogs.tif
176
     1
290
     0
176
     1
 40
1.0
176
     1
 40
1.0
176
     1
  0
VISUALSTYLE
  5
F7
102
{ACAD_REACTORS
330
EF
102
}
330
EF
100
AcDbVisualStyle
  2
Hidden
 70
     6
177
     3
291
     0
 70
    58
 90
        1
176
     1
 90
        2
176
     1
 90
        2
176
     1
 90
        0
176
     1
 40
0.6
176
     1
 40
30.0
176
     1
 62
     7
420
 16777215
176
     1
 90
        2
176
     1
 90
        2
176
     1
 62
     7
176
     1
 62
   257
176
     1
 90
        2
176
     1
 90
        1
176
     1
 40
40.0
176
     1
 90
        0
176
     1
 62
   257
176
     1
 40
1.0
176
     1
 90
        1
176
     1
 90
        6
176
     1
 90
        2
176
     1
 62
     7
176
     1
 90
        3
176
     1
 90
        0
176
     1
 90
        0
176
     1
290
     0
176
     1
 90
        1
176
     1
 40
0.0
176
     1
 90
        0
176
     1
290
     0
176
     1
290
     1
176
     1
290
     1
176
     1
290
     0
176
     1
290
     0
176
     1
290
     0
176
     1
290
     0
176
     1
290
     0
176
     1
290
     0
176
     1
 90
       50
176
     1
 40
0.0
176
     1
 40
1.0
176
     1
 90
        0
176
     1
 62
    18
420
        0
176
     1
 90
       50
176
     1
 90
        3
176
     1
 62
     5
420
      255
176
     1
290
     0
176
     1
 90
       50
176
     1
 90
       50
176
     1
 90
       50
176
     1
290
     0
176
     1
 90
       50
176
     1
 62
   256
176
     0
 40
1.0
176
     0
 90
        2
176
     1
  1
strokes_ogs.tif
176
     1
290
     0
176
     1
 40
1.0
176
     1
 40
1.0
176
     1
  0
VISUALSTYLE
  5
1E4
102
{ACAD_REACTORS
330
EF
102
}
330
EF
100
AcDbVisualStyle
  2
JitterOff
 70
    20
177
     3
291
     1
 70
    58
 90
        2
176
     0
 90
        2
176
     0
 90
        0
176
     0
 90
        0
176
     0
 40
0.6
176
     0
 40
30.0
176
     0
 62
     7
420
 16777215
176
     0
 90
        1
176
     0
 90
        4
176
     0
 62
     7
176
     0
 62
   257
176
     0
 90
        1
176
     0
 90
        1
176
     0
 40
1.0
176
     0
 90
       10
176
     2
 62
     7
176
     0
 40
1.0
176
     0
 90
        1
176
     0
 90
        6
176
     0
 90
        2
176
     0
 62
     7
176
     0
 90
        5
176
     0
 90
        0
176
     0
 90
        0
176
     0
290
     0
176
     0
 90
        1
176
     0
 40
0.0
176
     0
 90
        0
176
     0
290
     0
176
     1
290
     1
176
     1
290
     1
176
     1
290
     0
176
     1
290
     0
176
     1
290
     0
176
     1
290
     0
176
     1
290
     0
176
     1
290
     0
176
     1
 90
       50
176
     1
 40
0.0
176
     1
 40
1.0
176
     1
 90
        0
176
     1
 62
    18
420
        0
176
     1
 90
       50
176
     1
 90
        3
176
     1
 62
     5
420
      255
176
     1
290
     0
176
     1
 90
       50
176
     1
 90
       50
176
     1
 90
       50
176
     1
290
     0
176
     1
 90
       50
176
     1
 62
   256
176
     0
 40
1.0
176
     0
 90
        2
176
     1
  1
strokes_ogs.tif
176
     1
290
     0
176
     1
 40
1.0
176
     1
 40
1.0
176
     1
  0
VISUALSTYLE
  5
FD
102
{ACAD_REACTORS
330
EF
102
}
330
EF
100
AcDbVisualStyle
  2
Linepattern
 70
    14
177
     3
291
     1
 70
    58
 90
        2
176
     1
 90
        2
176
     1
 90
        1
176
     1
 90
        0
176
     1
 40
0.6
176
     1
 40
30.0
176
     1
 62
     7
420
 16777215
176
     1
 90
        1
176
     1
 90
        4
176
     1
 62
     7
176
     1
 62
   257
176
     1
 90
        7
176
     1
 90
        7
176
     1
 40
1.0
176
     1
 90
        8
176
     1
 62
     7
176
     1
 40
1.0
176
     1
 90
        1
176
     1
 90
        6
176
     1
 90
        2
176
     1
 62
     7
176
     1
 90
        5
176
     1
 90
        0
176
     1
 90
        0
176
     1
290
     0
176
     1
 90
        1
176
     1
 40
0.0
176
     1
 90
        0
176
     1
290
     0
176
     1
290
     1
176
     1
290
     1
176
     1
290
     0
176
     1
290
     0
176
     1
290
     0
176
     1
290
     0
176
     1
290
     0
176
     1
290
     0
176
     1
 90
       50
176
     1
 40
0.0
176
     1
 40
1.0
176
     1
 90
        0
176
     1
 62
    18
420
        0
176
     1
 90
       50
176
     1
 90
        3
176
     1
 62
     5
420
      255
176
     1
290
     0
176
     1
 90
       50
176
     1
 90
       50
176
     1
 90
       50
176
     1
290
     0
176
     1
 90
       50
176
     1
 62
   256
176
     0
 40
1.0
176
     0
 90
        2
176
     1
  1
strokes_ogs.tif
176
     1
290
     0
176
     1
 40
1.0
176
     1
 40
1.0
176
     1
  0
VISUALSTYLE
  5
1E5
102
{ACAD_REACTORS
330
EF
102
}
330
EF
100
AcDbVisualStyle
  2
OverhangOff
 70
    21
177
     3
291
     1
 70
    58
 90
        2
176
     0
 90
        2
176
     0
 90
        0
176
     0
 90
        0
176
     0
 40
0.6
176
     0
 40
30.0
176
     0
 62
     7
420
 16777215
176
     0
 90
        1
176
     0
 90
        4
176
     0
 62
     7
176
     0
 62
   257
176
     0
 90
        1
176
     0
 90
        1
176
     0
 40
1.0
176
     0
 90
        9
176
     2
 62
     7
176
     0
 40
1.0
176
     0
 90
        1
176
     0
 90
        6
176
     0
 90
        2
176
     0
 62
     7
176
     0
 90
        5
176
     0
 90
        0
176
     0
 90
        0
176
     0
290
     0
176
     0
 90
        1
176
     0
 40
0.0
176
     0
 90
        0
176
     0
290
     0
176
     1
290
     1
176
     1
290
     1
176
     1
290
     0
176
     1
290
     0
176
     1
290
     0
176
     1
290
     0
176
     1
290
     0
176
     1
290
     0
176
     1
 90
       50
176
     1
 40
0.0
176
     1
 40
1.0
176
     1
 90
        0
176
     1
 62
    18
420
        0
176
     1
 90
       50
176
     1
 90
        3
176
     1
 62
     5
420
      255
176
     1
290
     0
176
     1
 90
       50
176
     1
 90
       50
176
     1
 90
       50
176
     1
290
     0
176
     1
 90
       50
176
     1
 62
   256
176
     0
 40
1.0
176
     0
 90
        2
176
     1
  1
strokes_ogs.tif
176
     1
290
     0
176
     1
 40
1.0
176
     1
 40
1.0
176
     1
  0
VISUALSTYLE
  5
F9
102
{ACAD_REACTORS
330
EF
102
}
330
EF
100
AcDbVisualStyle
  2
Realistic
 70
     8
177
     3
291
     0
 70
    58
 90
        2
176
     1
 90
        3
176
     1
 90
        0
176
     1
 90
        2
176
     1
 40
0.6
176
     1
 40
30.0
176
     1
 62
     7
420
 16777215
176
     1
 90
        0
176
     1
 90
        0
176
     1
 62
     7
176
     1
 62
   257
176
     1
 90
        1
176
     1
 90
        1
176
     1
 40
1.0
176
     1
 90
        8
176
     1
 62
   257
176
     1
 40
1.0
176
     1
 90
        1
176
     1
 90
        6
176
     1
 90
        2
176
     1
 62
     7
176
     1
 90
        3
176
     1
 90
        0
176
     1
 90
        0
176
     1
290
     0
176
     1
 90
       13
176
     1
 40
0.0
176
     1
 90
        0
176
     1
290
     0
176
     1
290
     1
176
     1
290
     1
176
     1
290
     0
176
     1
290
     0
176
     1
290
     0
176
     1
290
     0
176
     1
290
     0
176
     1
290
     0
176
     1
 90
       50
176
     1
 40
0.0
176
     1
 40
1.0
176
     1
 90
        0
176
     1
 62
    18
420
        0
176
     1
 90
       50
176
     1
 90
        3
176
     1
 62
     5
420
      255
176
     1
290
     0
176
     1
 90
       50
176
     1
 90
       50
176
     1
 90
       50
176
     1
290
     0
176
     1
 90
       50
176
     1
 62
   256
176
     0
 40
1.0
176
     0
 90
        2
176
     1
  1
strokes_ogs.tif
176
     1
290
     0
176
     1
 40
1.0
176
     1
 40
1.0
176
     1
  0
VISUALSTYLE
  5
1F3
102
{ACAD_REACTORS
330
EF
102
}
330
EF
100
AcDbVisualStyle
  2
Shaded
 70
    27
177
     3
291
     0
 70
    58
 90
        2
176
     1
 90
        2
176
     1
 90
        1
176
     1
 90
        2
176
     1
 40
0.6
176
     1
 40
30.0
176
     1
 62
     7
420
 16777215
176
     1
 90
        0
176
     1
 90
        4
176
     1
 62
     7
176
     1
 62
   257
176
     1
 90
        1
176
     1
 90
        1
176
     1
 40
1.0
176
     1
 90
        8
176
     1
 62
   257
176
     1
 40
1.0
176
     1
 90
        1
176
     1
 90
        6
176
     1
 90
        2
176
     1
 62
     8
420
  7895160
176
     1
 90
        3
176
     1
 90
        0
176
     1
 90
        0
176
     1
290
     0
176
     1
 90
        5
176
     1
 40
0.0
176
     1
 90
        0
176
     1
290
     0
176
     1
290
     1
176
     1
290
     1
176
     1
290
     0
176
     1
290
     0
176
     1
290
     0
176
     1
290
     0
176
     1
290
     0
176
     1
290
     0
176
     1
 90
       50
176
     1
 40
0.0
176
     1
 40
1.0
176
     1
 90
        0
176
     1
 62
    18
420
        0
176
     1
 90
       50
176
     1
 90
        3
176
     1
 62
     5
420
      255
176
     1
290
     0
176
     1
 90
       50
176
     1
 90
       50
176
     1
 90
       50
176
     1
290
     0
176
     1
 90
       50
176
     1
 62
   256
176
     0
 40
1.0
176
     0
 90
        2
176
     1
  1
strokes_ogs.tif
176
     1
290
     0
176
     1
 40
1.0
176
     1
 40
1.0
176
     1
  0
VISUALSTYLE
  5
1F2
102
{ACAD_REACTORS
330
EF
102
}
330
EF
100
AcDbVisualStyle
  2
Shaded with edges
 70
    26
177
     3
291
     0
 70
    58
 90
        2
176
     1
 90
        2
176
     1
 90
        1
176
     1
 90
        2
176
     1
 40
0.6
176
     1
 40
30.0
176
     1
 62
     7
420
 16777215
176
     1
 90
        1
176
     1
 90
        2
176
     1
 62
     7
176
     1
 62
   257
176
     1
 90
        2
176
     1
 90
        1
176
     1
 40
1.0
176
     1
 90
        8
176
     1
 62
   257
176
     1
 40
1.0
176
     1
 90
        1
176
     1
 90
        6
176
     1
 90
        2
176
     1
 62
     7
176
     1
 90
        3
176
     1
 90
        0
176
     1
 90
        0
176
     1
290
     0
176
     1
 90
        5
176
     1
 40
0.0
176
     1
 90
        0
176
     1
290
     0
176
     1
290
     1
176
     1
290
     1
176
     1
290
     0
176
     1
290
     0
176
     1
290
     0
176
     1
290
     0
176
     1
290
     0
176
     1
290
     0
176
     1
 90
       50
176
     1
 40
0.0
176
     1
 40
1.0
176
     1
 90
        0
176
     1
 62
    18
420
        0
176
     1
 90
       50
176
     1
 90
        3
176
     1
 62
     5
420
      255
176
     1
290
     0
176
     1
 90
       50
176
     1
 90
       50
176
     1
 90
       50
176
     1
290
     0
176
     1
 90
       50
176
     1
 62
   256
176
     0
 40
1.0
176
     0
 90
        2
176
     1
  1
strokes_ogs.tif
176
     1
290
     0
176
     1
 40
1.0
176
     1
 40
1.0
176
     1
  0
VISUALSTYLE
  5
1EF
102
{ACAD_REACTORS
330
EF
102
}
330
EF
100
AcDbVisualStyle
  2
Shades of Gray
 70
    23
177
     3
291
     0
 70
    58
 90
        2
176
     1
 90
        2
176
     1
 90
        3
176
     1
 90
        0
176
     1
 40
0.6
176
     1
 40
30.0
176
     1
 62
     7
420
 16777215
176
     1
 90
        2
176
     1
 90
        2
176
     1
 62
     7
176
     1
 62
     7
176
     1
 90
        1
176
     1
 90
        1
176
     1
 40
40.0
176
     1
 90
        8
176
     1
 62
     7
176
     1
 40
1.0
176
     1
 90
        1
176
     1
 90
        6
176
     1
 90
        2
176
     1
 62
     7
176
     1
 90
        3
176
     1
 90
        0
176
     1
 90
        0
176
     1
290
     0
176
     1
 90
        1
176
     1
 40
0.0
176
     1
 90
        0
176
     1
290
     0
176
     1
290
     1
176
     1
290
     1
176
     1
290
     0
176
     1
290
     0
176
     1
290
     0
176
     1
290
     0
176
     1
290
     0
176
     1
290
     0
176
     1
 90
       50
176
     1
 40
0.0
176
     1
 40
1.0
176
     1
 90
        0
176
     1
 62
    18
420
        0
176
     1
 90
       50
176
     1
 90
        3
176
     1
 62
     5
420
      255
176
     1
290
     0
176
     1
 90
       50
176
     1
 90
       50
176
     1
 90
       50
176
     1
290
     0
176
     1
 90
       50
176
     1
 62
   256
176
     0
 40
1.0
176
     0
 90
        2
176
     1
  1
strokes_ogs.tif
176
     1
290
     0
176
     1
 40
1.0
176
     1
 40
1.0
176
     1
  0
VISUALSTYLE
  5
1F0
102
{ACAD_REACTORS
330
EF
102
}
330
EF
100
AcDbVisualStyle
  2
Sketchy
 70
    24
177
     3
291
     0
 70
    58
 90
        1
176
     1
 90
        2
176
     1
 90
        2
176
     1
 90
        0
176
     1
 40
0.6
176
     1
 40
30.0
176
     1
 62
     7
420
 16777215
176
     1
 90
        2
176
     1
 90
        2
176
     1
 62
     7
176
     1
 62
     7
176
     1
 90
        1
176
     1
 90
        1
176
     1
 40
40.0
176
     1
 90
       11
176
     1
 62
     7
176
     1
 40
1.0
176
     1
 90
        1
176
     1
 90
        6
176
     1
 90
        2
176
     1
 62
     7
176
     1
 90
        6
176
     1
 90
        0
176
     1
 90
        0
176
     1
290
     0
176
     1
 90
        1
176
     1
 40
0.0
176
     1
 90
        0
176
     1
290
     0
176
     1
290
     1
176
     1
290
     1
176
     1
290
     0
176
     1
290
     0
176
     1
290
     0
176
     1
290
     0
176
     1
290
     0
176
     1
290
     0
176
     1
 90
       50
176
     1
 40
0.0
176
     1
 40
1.0
176
     1
 90
        0
176
     1
 62
    18
420
        0
176
     1
 90
       50
176
     1
 90
        3
176
     1
 62
     5
420
      255
176
     1
290
     0
176
     1
 90
       50
176
     1
 90
       50
176
     1
 90
       50
176
     1
290
     0
176
     1
 90
       50
176
     1
 62
   256
176
     0
 40
1.0
176
     0
 90
        2
176
     1
  1
strokes_ogs.tif
176
     1
290
     0
176
     1
 40
1.0
176
     1
 40
1.0
176
     1
  0
VISUALSTYLE
  5
FC
102
{ACAD_REACTORS
330
EF
102
}
330
EF
100
AcDbVisualStyle
  2
Thicken
 70
    13
177
     3
291
     1
 70
    58
 90
        2
176
     1
 90
        2
176
     1
 90
        1
176
     1
 90
        0
176
     1
 40
0.6
176
     1
 40
30.0
176
     1
 62
     7
420
 16777215
176
     1
 90
        1
176
     1
 90
        4
176
     1
 62
     7
176
     1
 62
   257
176
     1
 90
        1
176
     1
 90
        1
176
     1
 40
1.0
176
     1
 90
       12
176
     1
 62
     7
176
     1
 40
1.0
176
     1
 90
        1
176
     1
 90
        6
176
     1
 90
        2
176
     1
 62
     7
176
     1
 90
        5
176
     1
 90
        0
176
     1
 90
        0
176
     1
290
     0
176
     1
 90
        1
176
     1
 40
0.0
176
     1
 90
        0
176
     1
290
     0
176
     1
290
     1
176
     1
290
     1
176
     1
290
     0
176
     1
290
     0
176
     1
290
     0
176
     1
290
     0
176
     1
290
     0
176
     1
290
     0
176
     1
 90
       50
176
     1
 40
0.0
176
     1
 40
1.0
176
     1
 90
        0
176
     1
 62
    18
420
        0
176
     1
 90
       50
176
     1
 90
        3
176
     1
 62
     5
420
      255
176
     1
290
     0
176
     1
 90
       50
176
     1
 90
       50
176
     1
 90
       50
176
     1
290
     0
176
     1
 90
       50
176
     1
 62
   256
176
     0
 40
1.0
176
     0
 90
        2
176
     1
  1
strokes_ogs.tif
176
     1
290
     0
176
     1
 40
1.0
176
     1
 40
1.0
176
     1
  0
VISUALSTYLE
  5
F6
102
{ACAD_REACTORS
330
EF
102
}
330
EF
100
AcDbVisualStyle
  2
Wireframe
 70
     5
177
     3
291
     0
 70
    58
 90
        0
176
     1
 90
        2
176
     1
 90
        0
176
     1
 90
        0
176
     1
 40
0.6
176
     1
 40
30.0
176
     1
 62
     7
420
 16777215
176
     1
 90
        1
176
     1
 90
        4
176
     1
 62
     7
176
     1
 62
   257
176
     1
 90
        1
176
     1
 90
        1
176
     1
 40
1.0
176
     1
 90
        0
176
     1
 62
   257
176
     1
 40
1.0
176
     1
 90
        1
176
     1
 90
        6
176
     1
 90
        2
176
     1
 62
     7
176
     1
 90
        3
176
     1
 90
        0
176
     1
 90
        0
176
     1
290
     0
176
     1
 90
        1
176
     1
 40
0.0
176
     1
 90
        0
176
     1
290
     0
176
     1
290
     1
176
     1
290
     1
176
     1
290
     0
176
     1
290
     0
176
     1
290
     0
176
     1
290
     0
176
     1
290
     0
176
     1
290
     0
176
     1
 90
       50
176
     1
 40
0.0
176
     1
 40
1.0
176
     1
 90
        0
176
     1
 62
    18
420
        0
176
     1
 90
       50
176
     1
 90
        3
176
     1
 62
     5
420
      255
176
     1
290
     0
176
     1
 90
       50
176
     1
 90
       50
176
     1
 90
       50
176
     1
290
     0
176
     1
 90
       50
176
     1
 62
   256
176
     0
 40
1.0
176
     0
 90
        2
176
     1
  1
strokes_ogs.tif
176
     1
290
     0
176
     1
 40
1.0
176
     1
 40
1.0
176
     1
  0
VISUALSTYLE
  5
1F1
102
{ACAD_REACTORS
330
EF
102
}
330
EF
100
AcDbVisualStyle
  2
X-Ray
 70
    25
177
     3
291
     0
 70
    58
 90
        2
176
     1
 90
        2
176
     1
 90
        1
176
     1
 90
        1
176
     1
 40
0.5
176
     1
 40
30.0
176
     1
 62
     7
420
 16777215
176
     1
 90
        1
176
     1
 90
        0
176
     1
 62
     7
176
     1
 62
   257
176
     1
 90
        1
176
     1
 90
        1
176
     1
 40
1.0
176
     1
 90
        8
176
     1
 62
     7
176
     1
 40
1.0
176
     1
 90
        1
176
     1
 90
        6
176
     1
 90
        2
176
     1
 62
     7
176
     1
 90
        3
176
     1
 90
        0
176
     1
 90
        0
176
     1
290
     0
176
     1
 90
       13
176
     1
 40
0.0
176
     1
 90
        0
176
     1
290
     0
176
     1
290
     1
176
     1
290
     1
176
     1
290
     0
176
     1
290
     0
176
     1
290
     0
176
     1
290
     0
176
     1
290
     0
176
     1
290
     0
176
     1
 90
       50
176
     1
 40
0.0
176
     1
 40
1.0
176
     1
 90
        0
176
     1
 62
    18
420
        0
176
     1
 90
       50
176
     1
 90
        3
176
     1
 62
     5
420
      255
176
     1
290
     0
176
     1
 90
       50
176
     1
 90
       50
176
     1
 90
       50
176
     1
290
     0
176
     1
 90
       50
176
     1
 62
   256
176
     0
 40
1.0
176
     0
 90
        2
176
     1
  1
strokes_ogs.tif
176
     1
290
     0
176
     1
 40
1.0
176
     1
 40
1.0
176
     1
  0
DICTIONARYVAR
  5
146
102
{ACAD_REACTORS
330
5E
102
}
330
5E
100
DictionaryVariables
280
     0
  1
1:1
  0
DICTIONARYVAR
  5
259
102
{ACAD_REACTORS
330
5E
102
}
330
5E
100
DictionaryVariables
280
     0
  1
3.500000
  0
DICTIONARYVAR
  5
25A
102
{ACAD_REACTORS
330
5E
102
}
330
5E
100
DictionaryVariables
280
     0
  1
acadiso.lin
  0
DICTIONARYVAR
  5
145
102
{ACAD_REACTORS
330
5E
102
}
330
5E
100
DictionaryVariables
280
     0
  1
STANDARD
  0
DICTIONARYVAR
  5
84
102
{ACAD_REACTORS
330
5E
102
}
330
5E
100
DictionaryVariables
280
     0
  1
STANDARD
  0
DICTIONARYVAR
  5
227
102
{ACAD_REACTORS
330
5E
102
}
330
5E
100
DictionaryVariables
280
     0
  1
Metric50
  0
DICTIONARYVAR
  5
228
102
{ACAD_REACTORS
330
5E
102
}
330
5E
100
DictionaryVariables
280
     0
  1
Metric50
  0
DICTIONARYVAR
  5
5F
102
{ACAD_REACTORS
330
5E
102
}
330
5E
100
DictionaryVariables
280
     0
  1
2
  0
DICTIONARYVAR
  5
63
102
{ACAD_REACTORS
330
5E
102
}
330
5E
100
DictionaryVariables
280
     0
  1
1
  0
DICTIONARYVAR
  5
1AE
102
{ACAD_REACTORS
330
5E
102
}
330
5E
100
DictionaryVariables
280
     0
  1
0
  0
DICTIONARYVAR
  5
1AF
102
{ACAD_REACTORS
330
5E
102
}
330
5E
100
DictionaryVariables
280
     0
  1
0
  0
DICTIONARY
  5
205
330
22
100
AcDbDictionary
280
     1
281
     1
  0
DICTIONARY
  5
1F9
330
ED
100
AcDbDictionary
280
     1
281
     1
  3
FBXASSET
360
1FA
  0
DICTIONARY
  5
1F7
330
EC
100
AcDbDictionary
280
     1
281
     1
  3
FBXASSET
360
1F8
  0
DICTIONARY
  5
173
330
EE
100
AcDbDictionary
280
     1
281
     1
  3
BUMPTILE
360
175
  3
DIFFUSETILE
360
174
  3
FBXASSET
360
1FB
  3
OPACITYTILE
360
176
  3
REFLECTIONTILE
360
177
  0
DICTIONARY
  5
162
330
7F
100
AcDbDictionary
280
     1
281
     1
  3
ACAD_ROUNDTRIP_2008_TABLESTYLE_CELLSTYLEMAP
360
904
  0
XRECORD
  5
1FA
102
{ACAD_REACTORS
330
1F9
102
}
330
1F9
100
AcDbXrecord
280
     1
 70
     1
 90
429727718
  1
D62C5603-E3A1-4AEA-B7FB-FE5D8D0755AF
310
504B03040A0000080000CC70623B3DEE336E79000000790000001B0000006175746F6465736B2D64657369676E2D7061636B6167652E786D6C3C3F786D6C2076657273696F6E3D22312E302220656E636F64696E673D227574662D3822203F3E3C666F726D6174733E3C666F726D61743E687474703A2F2F736368656D612E
310
6175746F6465736B2E636F6D2F64657369676E2D7061636B6167652F323030393C2F666F726D61743E3C2F666F726D6174733E504B0304140006080800CC70623BD486FD9CA0000000F4000000130000005B436F6E74656E745F54797065735D2E786D6C7D8EC10E82300C865F65E91D8A1E8C310C0EEA1BF002731658846E
310
D98AC1B77784ABF1D8FE5FBFBF75BBCE937A534CCEB38643598122B6FEE978D0B0485F9C41B54DDD7D022595594E1A469170414C76A4D9A4D207E29CF43ECE46F218070CC6BECC4078ACAA135ACF422C856C0E68EA1BF5669944DDD7BCDE7B1F8E415D77AECB980613C2E4AC91FC167A2B244592486606FC29C8FD7F045B9A
310
EF7053A7E60B504B0304140006080800CC70623B853B8169EB0000007C01000008000000636F72652E786D6C8D90416EC3201045AF62CDB6C206821CC7C244919D9CA01740401C94182C03558F5F9C3852BBEB6A467FFE9B197D7EFC9E1EC5975982F5AE035262288C535E5B377690E21535501C055FBC8FBF6C503839990E
310
5619041F179FE64D52DE45E362569DD7661365082642A11EB9E920A89B99642953CC8E702F67A9EE7234257977194EC9EAE275C4EABCCF5EAD5940D4AC6F0E35A568B8F43562CD7046CD199FD07E60174276A7BE677B5EADB0E0D14EEFFB6A31321A0D82627C4084204C3F096B71DD52F6819B16635EADF63F509AF53FA164
310
5DDCD1EDDD17164090FCC8732078B56691CB33A85CD7DCC40F504B0304140006080800CC70623B55019EA25F0000007C00000007000000636E782E786D6C4DCB3B0E80201045D1AD90E915ED2CF8AC45050C11660C8261F98AB1B07AC9C97D42D718D865D3E909258CFD00CCE24AC6E326A164D74DC0B4128928FF32603847
310
2BA13128B1252AC747C6BAB984FC68F0B87FE8960A5C09FE86CFB69FBA01504B0304140006080800CC70623BDBABAAF470010000D40300000C0000006662782F636F72652E786D6CC553D16E823014FD95A6AF4B694182CC941A83FA05FB810A9511A125A5257EFE2E82712ECEB8A7F100CD39F7F69E734AF9FADC366850B6
310
AF8DCE7018308C942E4C59EB2AC3DE1D498AD15A706B8CFB56869196ADCAF00863C12B6B7C374385D14E6907A836A59A41D9F7CA615434B0C8705F7CAA5606D23BA8E84F41278B93AC54100640439DE0BDB320004D43C63716C7C399D30917DCFBBA9CD9BA8469F5B156168B24CED3F7248AC8769F27244EB73B92EED8862C
310
B7F13E0C179B3C8F979C8ECD82BBBABDAA2BAC924E9558448CBD9330242CFA08E3154B5651FCC6D215639C8EE5774DBE2B5F6CF2B5768B68963BB5F5588420E442FC700B1139D4CB01F450C1E918227C2E09DF070D8140C84E1E9AAB8F1340832A9CB13130A5F1376A908D57309505ECF2A0DF179C4E9D30F5B239B87E3823
310
7A79C6F31DE1A8A5AEC08474B03C7837EAE4938639B44E5932B833D2C6B6B279CDC613877FA26EE21F4A2A4C63EC7F29A2F301D1F9F7A0E37D145F504B0304140006080800CC70623B9C113CC27E0000009D0000000B0000006662782F636E782E786D6C4DCCDF0A83201C86E15B91DFB94BFB330DD428C8FB886521330DA7
310
6397BF1A1DECE883878F57749FCDA1B7892F1BBC047A23808C7F84D9FA55424E0BE6803A256208E9EF06C84F9B91703228B1C690F78B66B34CD9A5439DF5CF0BFBF65E35BCA1B8D6A5C6F540381E886698B5741C695F9503EBA150A2F8958E3DC3EA0B504B0304140006080800CC70623B7DF2F77C2A010000120200003100
310
00006662782F41393633353835312D344632462D344230382D423046372D3739314545314133324237412F636F72652E786D6C8D51DB8EC22014FC15C2939B0D2DB4B45643319AE817EC0F6041255A68B86CFCFC856D4D76DF7CE190393373060EDB3DC707F856CE6B6B7A480A0C81328395DA5C7B18C3057510EC3873D686
310
3F34088C18550F330C39BB3A1BA7051AAC09CA84841A2BD5020AEF55806078A44B0FFD7053A328440C89E1EFC52486BBB8AA8214A99D789CF9E05200300FC927E4FB4D5B375D43103D5527440FB843077C5AA3F5861C8F645F5787F59E95B390B318B55CE45AA638FAA2957BD7248B390B7A7CC51F9C124149C82B8C378810
310
84AB2F42B7B8DD56F413775B8C5999E9FF4471926F8AA236A1AE96B8B3CC434E5839373893369E1FAF30EA395917409EB7F26AF8801C171837A4A6AC9C89E9F9C9B1A58BA30FD6A5EF5DDDCF894B9AD9B6A59C957943A9FCAE2FD5BC4DFE03504B0304140006080800CC70623BAD7543B64E01000033030000300000006662
310
782F41393633353835312D344632462D344230382D423046372D3739314545314133324237412F636E782E786D6CD593CD6EC32010845F0571AD6CE3D48AD20813A9873E410FBD12D82434182C7EAAE6EDBB2424CD25871E7B41D6EC30B3FA84F9E67BB2E40B4234DE8DB46F1925E094D7C6ED479AD3AE5951B2113C789FEE
310
6C943839C1488B4C05DF079FE72A69D8C96C13AAD6B8631503449F83828872B949AC57D26200B826A308D316B4064D6E46FCDA41C05550DC9E483A00797BFD207EFB092A45DE9514C1BBD22178396BD39D891265658C238DEA00936C654E5E433CB65A26D9F6EDB5EBC14EBF49A45CB856E66048291F6939A9A81BB5C89177
310
38143CA680F4AA299D66A042CEB3354A2684DC9D8D178FE0D9B8B41CAAD720F880EE7EF93C0C18769E099ECC04D5A102C8049A8A05632F4DDF376CF1DE0F6BB65C2F8627B65A33C6BB62177CEBBDAD973006829F89F22E814B54F4BC2BE347F8AA8F681390B50FA73F804400B5F542E796F19FF974E7F78DB802FE05E20750
310
4B0304140006080800CC70623BE75B7789680500003C100000340000006662782F41393633353835312D344632462D344230382D423046372D3739314545314133324237412F6F626A656374732E786D6CAD575B8F9B3818FD2B887D06C22499CB8AA1CA655245D5B455A356FB305264C061D8018C6C3393D95FBFC7600890
310
A4CD5EF210B0B1BFEBF98E3F7B1FF6596ABC522E1296DF9BAE3D320D9A872C4AF2F8DE2CE5CEBA358D0FBEC719939D65A691938CDE9B6ADAF4BD98B3B2D05311DD91329583D9D5FC0F438434A7A611A644887B5384CF34233629258BA878B12322891DEFF6B66BD70BFB62634E8AE781D082709A4B588AF91C528CDA28B73F
310
1C998EEF39EABBEFA97FBD6A7C7E9553F9D3D79FE442923C3C523610337627CB87ABE99D359D4CC6D6E4FACAB5E6ABF9D2726FC6A3C5F56271377BB88362213924694B38DD99FE47C48627A1E7D49F5A8BB5E1A74C0A599ED3B0F21F1E56366B89112D681E218F0915D0D6F17AD41FBA2A369DCF6335D62ABBD39779D5DDD1
310
11D4D8DE3CBB96B2E04FB8202E41051754A1AA8E8F76B4C6DFE810B580B1547F4B84911149794252234D024EF8BBE963A95AE27B3D310A9D5C215C7960FAEE415ED75694C6AFB17BCACA5D99A60A9AA65F217B0BFC53292ACB92BF283FAD0D3621576592CB5BED907C2FA8E9DF794E35E97BEA31BED21FEB401ABB94C44839
310
DCACBF0E1C5DA8DA5B2F4DFFD32AD86F543D9E565E7056502E157C00AD2671CD534549AB752FCA9CDA00677A313F04E51B22FF19E57B300579E3C97EB29F682D92935CEC18CF901B7B54FD8C51F362B56FC72FE0B3C1EAE335EDCCBF5AEC39ADB17DC238973F804BA5E6F6BFE7AF1FB32E523BE9F3BD571418E3631DCA4D48
310
5250CF639223210A9446CA30052EDF057BD35F8329C1ECD84552BF0DC8D18BE7BCE23BFE6BD960AB4A7DE79923A103BEBD80F911CBAA2C60DB19B01CF164A5583B772EE6D3FFA56666CBCDA74DC97724A48F9A58967497E489C4D979006FD7A05E227A1EBDD0F737C623387A9C844D3709995625106D157315F8B8392CD4E0
310
A0B9A720C4BE9829CEF37EA1E13111214D53925356365ADA634861B52519DD27A00AEB808EAF0628E6F435519D446F45CF2C9CF5214F0A15B2F6D06B79DA3EE3CBF7F56780D2F4E7EF73A0F5E5B02A38D07DC852C6B7C1FBB6664213E0C39E3EBA7FF4E1AD23EA2829407C85E586727488B751B2DB9502BC7B228A3FD68B6E
310
A65A22397E690AA8D158D7E404EC8CDA235CC3B7D1898680131CEC2CDF2638C65196279577750F15884AEE19F94199155B92B13297978469D4F8D358DF0AEF7631E28DC8F0D9F437D5D39A83B2231A1D52D543813A824EF8D44BCFF2FA6A31BD1E8DAD87F1CCB526B3879935BF59CDADD5C37479BB1CDD4CA7B3556B516589
310
EF352754B706114D9C885EC9131DE6EFEB43D99AFE2391C2F958179413D7CFEF6B1B6DB1E7600F00DE6E5C67454A339A4BA2E0FBA85ED26F045D454F463DBFCE484C2F90F2E5E3666003662ED8F755951A7D1BECD5B30B550B2785C8E7320B7292A4838DDA71BBC863ED7613CAF659337A3354231D4FF4A182A54904C2898C
310
98B28C4AD0CE056CCF332A80986E571EE9DBC305BB5FEB7E509220A58D25CF042D712A806AC0AD0C657FDEF80D2D9CEAA2EE4D1C76F60BFE74219A06527D6F82DF6412526107381E55E353090704D085B52408A8913C4ED159D79BDA71BB4BC506F4831350EB6F975CD22D69BF7AC49B91A2C0A9DDA3D5CA36AD20FC478E37
310
E61844E2352865EBCB61A275A65283CAAA9DD27703B4102F5AF51EF5F573B75CBB5AD38BC845F7A49F82A0966A49C2E3EA5EA0ECD326CD965F1DB402C6FA8B51A4658C5C5E2EC9E214602E55810345408596591009A82E7E7FFACA19EEA299B14A0081A705CB3296EBC14CDF658DCD336EA6D1136881AAEB87B81AB9EE53D5
310
F5EB8BC8362082DA24122F98680A4E7930C01A0079749CEA14382A0783E5EBA5A10F8C098456A03D6A4AEB6BB881E2513747552A5DB22C7EDAF83BD5528081A365F7FF06504B0304140006080000CC70623B000000000000000000000000350000006662782F41393633353835312D344632462D344230382D423046372D37
310
39314545314133324237412F76657274696365732E62696E504B0304140006080800CC70623BF270F1330600000004000000360000006662782F41393633353835312D344632462D344230382D423046372D3739314545314133324237412F747269616E676C65732E62696E636660600000504B0304140006080000CC7062
310
3B000000000000000000000000370000006662782F41393633353835312D344632462D344230382D423046372D3739314545314133324237412F617474726962757465732E62696E504B0304140006080800CC70623B08DA0BD19000000041010000360000006662782F41393633353835312D344632462D344230382D4230
310
46372D3739314545314133324237412F6469726563746F72792E786D6C858F410AC3201045AF22B36F53E9A60B35CBEEBAE80D244E44489C6234F4F835464A48035D0DF398FF9F8AF63D0E6CC63039F212F8F9020C7D47C6792B21C5FE7403D62A1188E2E60C98D7234A5830286103A55745067B9D86B8A3CF9C7F90C11DE6
310
07FB144396D7B6A82D282E9A152AD114D5EF2CB866EEE831B8EEA07A7BB5A8D7D61A2BAAEB7FD5F70921FF497D00504B0304140006080800CC70623BEDD1DC58FD000000A00100003B0000006662782F41393633353835312D344632462D344230382D423046372D3739314545314133324237412F7265736F75726365732F
310
636F72652E786D6C8D504B6E833010BD0A9A6D65B00922041947112427E8052C33A156828DFCA97AFC9A40A576D7CDCCE87D344F8F9FBFE667F689CE6B6B3A6039850C8DB2A336530731DC4903D95970676DF82583CCC8193B5861107C72362E3BA4AC096842428D1D7107A5F7182053CF7474E0D507CE32973124857FE48B
310
540F3961CEF244279DE03EB81420DB9EAC1384436FA353E879B1B182C7A8C75DA3C7F453DF353A1075D537A7BA6464B8F535A99AE14A9A2BBD90E350DD183B5CFABE3AF262350B1EF4FC9351399401471025A527C218A1E53BAB5A5AB765F5469B96525EACF23FA6B88CFF34456DC2A1DCE36E360F82A5202F42F062ED2BAD
310
579969AFDD8A6F504B010214000A0000080000CC70623B3DEE336E79000000790000001B00000000000000000000000000000000006175746F6465736B2D64657369676E2D7061636B6167652E786D6C504B01021400140006080800CC70623BD486FD9CA0000000F40000001300000000000000000000000000B20000005B
310
436F6E74656E745F54797065735D2E786D6C504B01021400140006080800CC70623B853B8169EB0000007C010000080000000000000000000000000083010000636F72652E786D6C504B01021400140006080800CC70623B55019EA25F0000007C000000070000000000000000000000000094020000636E782E786D6C504B
310
01021400140006080800CC70623BDBABAAF470010000D40300000C00000000000000000000000000180300006662782F636F72652E786D6C504B01021400140006080800CC70623B9C113CC27E0000009D0000000B00000000000000000000000000B20400006662782F636E782E786D6C504B01021400140006080800CC70
310
623B7DF2F77C2A010000120200003100000000000000000000000000590500006662782F41393633353835312D344632462D344230382D423046372D3739314545314133324237412F636F72652E786D6C504B01021400140006080800CC70623BAD7543B64E010000330300003000000000000000000000000000D2060000
310
6662782F41393633353835312D344632462D344230382D423046372D3739314545314133324237412F636E782E786D6C504B01021400140006080800CC70623BE75B7789680500003C10000034000000000000000000000000006E0800006662782F41393633353835312D344632462D344230382D423046372D3739314545
310
314133324237412F6F626A656374732E786D6C504B01021400140006080000CC70623B0000000000000000000000003500000000000000000000000000280E00006662782F41393633353835312D344632462D344230382D423046372D3739314545314133324237412F76657274696365732E62696E504B01021400140006
310
080800CC70623BF270F133060000000400000036000000000000000000000000007B0E00006662782F41393633353835312D344632462D344230382D423046372D3739314545314133324237412F747269616E676C65732E62696E504B01021400140006080000CC70623B0000000000000000000000003700000000000000
310
000000000000D50E00006662782F41393633353835312D344632462D344230382D423046372D3739314545314133324237412F617474726962757465732E62696E504B01021400140006080800CC70623B08DA0BD1900000004101000036000000000000000000000000002A0F00006662782F41393633353835312D344632
310
462D344230382D423046372D3739314545314133324237412F6469726563746F72792E786D6C504B01021400140006080800CC70623BEDD1DC58FD000000A00100003B000000000000000000000000000E1000006662782F41393633353835312D344632462D344230382D423046372D3739314545314133324237412F7265
310
736F75726365732F636F72652E786D6C504B0506000000000E000E0080040000641100000000
  0
XRECORD
  5
1F8
102
{ACAD_REACTORS
330
1F7
102
}
330
1F7
100
AcDbXrecord
280
     1
 70
     1
 90
429727718
  1
30362254-06B7-45E0-A893-8CFA70E3D6BC
310
504B03040A0000080000CC70623B3DEE336E79000000790000001B0000006175746F6465736B2D64657369676E2D7061636B6167652E786D6C3C3F786D6C2076657273696F6E3D22312E302220656E636F64696E673D227574662D3822203F3E3C666F726D6174733E3C666F726D61743E687474703A2F2F736368656D612E
310
6175746F6465736B2E636F6D2F64657369676E2D7061636B6167652F323030393C2F666F726D61743E3C2F666F726D6174733E504B0304140006080800CC70623BD486FD9CA0000000F4000000130000005B436F6E74656E745F54797065735D2E786D6C7D8EC10E82300C865F65E91D8A1E8C310C0EEA1BF002731658846E
310
D98AC1B77784ABF1D8FE5FBFBF75BBCE937A534CCEB38643598122B6FEE978D0B0485F9C41B54DDD7D022595594E1A469170414C76A4D9A4D207E29CF43ECE46F218070CC6BECC4078ACAA135ACF422C856C0E68EA1BF5669944DDD7BCDE7B1F8E415D77AECB980613C2E4AC91FC167A2B244592486606FC29C8FD7F045B9A
310
EF7053A7E60B504B0304140006080800CC70623B1EC5D7A3EB0000007C01000008000000636F72652E786D6C8D90416EC3201045AF82665B6103C6756C6122AB4D4ED00B204C5C94182C03558F5F9C3852BBEB6A467FFE9B197D71FC9E6FE8CBACC17AD7032D0820E3B41FAD9B7A48F1820F808E52ACDEC75F36404ECDA687
310
4D0629A6D5A76597B477D1B89855E747B38B2A041301E95B6E7A08FAD3CCAA50296647B8168BD2573599823EBB0CA76447F43862C7BCCF5EAC59410E4DDD9C7973C2755553CCCFA4C603E3040F1565ED3B1FDE4E432BCA0D9622DAF9795FAF464533826484B498524CD807E51D79ED187F21878E10516EF63F505AC67F42C9
310
BA58B1FDDD071640D2FCC87D2045B96591CB3DA85CB7DCE40F504B0304140006080800CC70623B55019EA25F0000007C00000007000000636E782E786D6C4DCB3B0E80201045D1AD90E915ED2CF8AC45050C11660C8261F98AB1B07AC9C97D42D718D865D3E909258CFD00CCE24AC6E326A164D74DC0B4128928FF32603847
310
2BA13128B1252AC747C6BAB984FC68F0B87FE8960A5C09FE86CFB69FBA01504B0304140006080800CC70623B8C9102E971010000D40300000C0000006662782F636F72652E786D6CC5535B6E833010BC8AE5DF0A6C08340F1947A84D4ED00B38C6A128602363A31CBFCB234A53A551FA553EC09AD9F5CE8C31DB9E9B1AF5CA
310
7695D1198E428A91D2D214952E33ECDD315861B4E5CC1AE3BE9561A445A3323CC098B3D21ADFCE9034DA29ED00D5A6503328BA4E398C640D8B0C77F253352214DE4145770A5B214FA2546114020D759C75CE8200340D19DE981F0F6746269C33EFAB6266AB02A655C74A59CCF365BADC27CB5D902ED22848F6340DF238A141
310
BE88E2F57B92BFEDF23523433367AE6A2EEAA455C2A902F398D2751045018D3FA264435F3771F242571B4A1919CA6F9A7C5B3CD9E42BED16F12C776AEB308F40C848FC700B1139D4891EF410CEC810227CC6846F8386402064270EF5C5C709A05E49676C024C61FC95EA45ED154CA5211D1FF4FB8291A913A68E9B83EBBB33
310
E2A7673CDE118E5AE8124C0807CB8377834E366998436B950D7A7746DAD846D4CFD978E0F04FD455FC5D49D2D4C6FE9722321F10997F0F32DC47FE05504B0304140006080800CC70623BFFEA85907E0000009D0000000B0000006662782F636E782E786D6C4DCCD10A83201886E15B91FFDC95D95A811AB6F23E625948A6C3
310
E9D8E5AF46073BFAE0E1E365ED67B3E8ADC3CB78C7815C7240DA3DFC64DCC221C519D7805AC182F7F1EF06C88D9BE6703008B6049F9E274D7A1E938DBB5AE3D6131B2589BA0D3D965551E0B2EA732C9B9A624AAEB41E3A557677029960D9AFB4EF11165F504B0304140006080800CC70623B4FEEA4082C0100001202000031
310
0000006662782F39464131463745442D413632322D343644302D413938332D3331353338454246344243312F636F72652E786D6C8D515B6EC32010BC0AE2AB55850DD871ED0813254D72825EC00192A2C460F1A872FC42ED48ED5F7E00CDCECCCEB26C731F6FE05B39AFADE921293004CA082BB5B9F43086336A21D870E6AC
310
0D7F68109861543DCC30E4ECE26C9C164858139409093556AA051CBC570102714B8F1E7AF1A5C6A11862480C7F2DA6415C878B2A4891CA89C7990F2E050073937C42DE1DB7E4F87ED8A36D4329AA9B3D46DBAEAD504556557BD81DEBDD0761E52CE42C462D17B996298E3E6BE59E35C962CE821E1FF18553435012728A7187
310
0841987E927A8D9B35ADDF70BBC6989599FE4F1427F9A4286A132ABAC49D651EF234CD5CE04CDA78BA3DC2A8FB645D00B9DF8B57E215725C60BCA2A463E54C4CE327C7A65E1C7DB02E7DEFCBF594B864C5CA6CDBD49C957943E9FA5D5FBAF336F90F504B0304140006080800CC70623BAD7543B64E01000033030000300000
310
006662782F39464131463745442D413632322D343644302D413938332D3331353338454246344243312F636E782E786D6CD593CD6EC32010845F0571AD6CE3D48AD20813A9873E410FBD12D82434182C7EAAE6EDBB2424CD25871E7B41D6EC30B3FA84F9E67BB2E40B4234DE8DB46F1925E094D7C6ED479AD3AE5951B2113C
310
789FEE6C943839C1488B4C05DF079FE72A69D8C96C13AAD6B8631503449F83828872B949AC57D26200B826A308D316B4064D6E46FCDA41C05550DC9E483A00797BFD207EFB092A45DE9514C1BBD22178396BD39D891265658C238DEA00936C654E5E433CB65A26D9F6EDB5EBC14EBF49A45CB856E66048291F6939A9A81BB5
310
C8917738143CA680F4AA299D66A042CEB3354A2684DC9D8D178FE0D9B8B41CAAD720F880EE7EF93C0C18769E099ECC04D5A102C8049A8A05632F4DDF376CF1DE0F6BB65C2F8627B65A33C6BB62177CEBBDAD973006829F89F22E814B54F4BC2BE347F8AA8F681390B50FA73F804400B5F542E796F19FF974E7F78DB802FE05
310
E207504B0304140006080800CC70623B16AB87BA640500003C100000340000006662782F39464131463745442D413632322D343644302D413938332D3331353338454246344243312F6F626A656374732E786D6CAD575B6FA33818FD2B887DE6924B3BED8A326A92B68A663B534DD4D13E548A0C38942D60649B369D5FBFC7
310
600890A493BDE42160637FD7F31D7FF63E6FB3D478A55C242CBF3247B66B1A340F5994E4F19559CA8D75611A9F7D8F33263BCB4C232719BD32D5B4E97B316765A1A722BA21652A07B3B7B33F0D11D29C9A46981221AE4C113ED38CD8A4942CA2E2C58E882476BCD9DA23BB5ED8171B73523C0F841684D35CC252CCE79062D4
310
468DFA43D7747CCF51DF7D4FFDEB5593E3AB9CCA9FBEFE241792E4E19EB28198C968BAB8199F5D5A67D3E9C49A9E8F47D6EC76B6B0469F26EEFC7C3EBFBCBEB98462213924694B38DD98FE1D62C393D073EA4FADC5DAF04326852CCF6958F90F0F2B9BB5C48816348F90C7840A68EB78EDF68723159BCEE7891A6B95DDE9D3
310
BCEAEEE8086A6C6F9E5D4B59F0175C10A7A0820BAA5055C7473B5AE3CFDD452D602CD5DF12616444529E90D448938013FE6EFA58AA96F85E4F8C42275708571E98FE6827AF6B2B4AE3D7D83D64E5A64C53054DD3AF90BD06FEA9149565C94FCA0F6B834DC85599E4F2423B24DF0B6AFA979E534DFA9E7A4CC6FA631D486393
310
921829879BF5D781A373557BCB85E97FB90DB62B558F8795179C15944B051F40AB495CF35451D26A4727654E6D8033BD98EF82F21D91FF8AF2DD9982BCF1643BDD4EB516C9492E368C67C88DED563FC36D5EACF66DFF057C3658BDBFA69DF9578B3DA735B64F18C7F20770A9D45CFCF7FCF563D6456A277DBEF78A02637CA2
310
43B90A490AEAB94F72244481D24819A6C0E59B606BFA4B3025981DBB48EAB701D97BF19C577CC77F2D1B6C55A9EF3C732474C0B727303F625995056C3B02963D9EAC146BE78EC5FCEC7FA999EBC5EACBAAE41B12D27B4D2C0BBA49F244E2ECDC81B76B502F113D8F5EE8FB1BE3111CDD4FC2AA9B844CAB1288B68AB90A7CDC
310
1C166AB0D3DC5310625FCC14E779BFD0709F8890A629C9292B1B2DED31A4B0DA928CEE135085754027E3018A397D4D5427D15BD1330B677DC8934285AC3DF45A9EB68FF8F2B8FC0A509AFEECFD0FF2DE25CC6047F7214B195F07EFEB9A094D800F7BFAE8FED187B78EA8A3A400F115961BCAD1215E47C966530AF0EE8128FE
310
58CEBB996A8964FFA529A046635D9353B0336A8F700DDF46271A024E70B0B37C9DE01847591E54DED53D54202AB947E4076556AC49C6CA5C9E1226B7F1A7B1BE15DEED62C41B91E1B3E9AFAAA735036547343A925075041DF0A9979E893B391F8FCFA6967B3EFB644DCF6E5CEBFAE272625DCC6FAF3FB93793C5F90CE1EF57
310
407342756B10D1C489E8953CD1617E5CEECAD6F4EF8914CE5D5D504E5C3F1F9736DA62CFC11E00BCDDB8CC8A9466349744C1F75EBDA4DF09BA8A9E8C7A7E9991989E20E5DBDD6A6003664ED8F7A04A8DBE0DF6EAD9B9AA858342E47399053949D2C146EDB85DE4B176BB0965FBAC19BD19AA918E27FA50C1D22402E144464C
310
59462568E704B6E71915404CB72B8FF4EDE184DDAF753F284990D2C6926782963815403548A70C657FDEF80D2D9CEAA2AE4C1C76F60BFE74219A06527D6582DF6412526107381E55E353090704D085B52408D0933C4ED159D79BDA71BB4BC506F4831350EB6F979CD22D69BF7AC49B91A2C0A9DDA3D5CA36AD20FC478E37E6
310
1844E2352865EBCB6EA275A652E3836BE04EFB400BF1A2556F515F1FBB35B2AB35BD889C744FFA1004B5544B121E57F70215746DD2F5E2C1412B602CBF19455AC6C8E5E9922C4E01E65215385004546899059180EAFCF7A707CE7017CD8CDB0410789AB32C63B91E5CEBBBACB17AC6CD347A022D5075FD106377347AAABA7E
310
7D11590744509B44E205134DC1290F06580320F78E537D3D73540E06CB970B431F185308AD40BBD794D6D77003C5A36E8EAA54BA64597CD8F83BD552A080A365F7FF06504B0304140006080000CC70623B000000000000000000000000350000006662782F39464131463745442D413632322D343644302D413938332D3331
310
353338454246344243312F76657274696365732E62696E504B0304140006080800CC70623BF270F1330600000004000000360000006662782F39464131463745442D413632322D343644302D413938332D3331353338454246344243312F747269616E676C65732E62696E636660600000504B0304140006080000CC70623B
310
000000000000000000000000370000006662782F39464131463745442D413632322D343644302D413938332D3331353338454246344243312F617474726962757465732E62696E504B0304140006080800CC70623B08DA0BD19000000041010000360000006662782F39464131463745442D413632322D343644302D413938
310
332D3331353338454246344243312F6469726563746F72792E786D6C858F410AC3201045AF22B36F53E9A60B35CBEEBAE80D244E44489C6234F4F835464A48035D0DF398FF9F8AF63D0E6CC63039F212F8F9020C7D47C6792B21C5FE7403D62A1188E2E60C98D7234A5830286103A55745067B9D86B8A3CF9C7F90C11DE607
310
FB144396D7B6A82D282E9A152AD114D5EF2CB866EEE831B8EEA07A7BB5A8D7D61A2BAAEB7FD5F70921FF497D00504B0304140006080800CC70623B0D6EF93BFE000000A00100003B0000006662782F39464131463745442D413632322D343644302D413938332D3331353338454246344243312F7265736F75726365732F63
310
6F72652E786D6C8D50596E833010BD0A9ADFCA60B334011947A8694ED00B586642AC041B79A97AFC9A40A5F6AF3F33A3B7689E1E3F7DCD8FEC139DD7D6F4C0720A191A65476DA61E62B892236427C19DB5E1970C322367EC618541F0C9D9B8EC90B226A009093576C41D94DE63804C3DD2D18357379C652E63480A7FCF17A9
310
EE72C29CE5894E3AC17D702940B63D59270887DE46A7D0F36263058F518FBB468FE9A7BE6A7420864373B8D4873369AA8691FA421B3294352543C5CAF65C0F6FEF43CB8BD52C78D0F34F46E550061C419494B6843142CB0F5677F4B52BEB177AEC28E5C52AFF638ACBF84F53D42654E51E77B379102C05791282176B5F693D
310
CB4C7BED567C03504B010214000A0000080000CC70623B3DEE336E79000000790000001B00000000000000000000000000000000006175746F6465736B2D64657369676E2D7061636B6167652E786D6C504B01021400140006080800CC70623BD486FD9CA0000000F40000001300000000000000000000000000B20000005B
310
436F6E74656E745F54797065735D2E786D6C504B01021400140006080800CC70623B1EC5D7A3EB0000007C010000080000000000000000000000000083010000636F72652E786D6C504B01021400140006080800CC70623B55019EA25F0000007C000000070000000000000000000000000094020000636E782E786D6C504B
310
01021400140006080800CC70623B8C9102E971010000D40300000C00000000000000000000000000180300006662782F636F72652E786D6C504B01021400140006080800CC70623BFFEA85907E0000009D0000000B00000000000000000000000000B30400006662782F636E782E786D6C504B01021400140006080800CC70
310
623B4FEEA4082C0100001202000031000000000000000000000000005A0500006662782F39464131463745442D413632322D343644302D413938332D3331353338454246344243312F636F72652E786D6C504B01021400140006080800CC70623BAD7543B64E010000330300003000000000000000000000000000D5060000
310
6662782F39464131463745442D413632322D343644302D413938332D3331353338454246344243312F636E782E786D6C504B01021400140006080800CC70623B16AB87BA640500003C1000003400000000000000000000000000710800006662782F39464131463745442D413632322D343644302D413938332D3331353338
310
454246344243312F6F626A656374732E786D6C504B01021400140006080000CC70623B0000000000000000000000003500000000000000000000000000270E00006662782F39464131463745442D413632322D343644302D413938332D3331353338454246344243312F76657274696365732E62696E504B01021400140006
310
080800CC70623BF270F133060000000400000036000000000000000000000000007A0E00006662782F39464131463745442D413632322D343644302D413938332D3331353338454246344243312F747269616E676C65732E62696E504B01021400140006080000CC70623B0000000000000000000000003700000000000000
310
000000000000D40E00006662782F39464131463745442D413632322D343644302D413938332D3331353338454246344243312F617474726962757465732E62696E504B01021400140006080800CC70623B08DA0BD190000000410100003600000000000000000000000000290F00006662782F39464131463745442D413632
310
322D343644302D413938332D3331353338454246344243312F6469726563746F72792E786D6C504B01021400140006080800CC70623B0D6EF93BFE000000A00100003B000000000000000000000000000D1000006662782F39464131463745442D413632322D343644302D413938332D3331353338454246344243312F7265
310
736F75726365732F636F72652E786D6C504B0506000000000E000E0080040000641100000000
  0
XRECORD
  5
175
102
{ACAD_REACTORS
330
173
102
}
330
173
100
AcDbXrecord
280
     1
270
     1
271
     1
  0
XRECORD
  5
174
102
{ACAD_REACTORS
330
173
102
}
330
173
100
AcDbXrecord
280
     1
270
     1
271
     1
  0
XRECORD
  5
1FB
102
{ACAD_REACTORS
330
173
102
}
330
173
100
AcDbXrecord
280
     1
 70
     0
 90
1673772943
  1
ECE7A1D2-D628-4531-984C-D00F80459256
310
504B03040A0000080000CC70623B3DEE336E79000000790000001B0000006175746F6465736B2D64657369676E2D7061636B6167652E786D6C3C3F786D6C2076657273696F6E3D22312E302220656E636F64696E673D227574662D3822203F3E3C666F726D6174733E3C666F726D61743E687474703A2F2F736368656D612E
310
6175746F6465736B2E636F6D2F64657369676E2D7061636B6167652F323030393C2F666F726D61743E3C2F666F726D6174733E504B0304140006080800CC70623BD486FD9CA0000000F4000000130000005B436F6E74656E745F54797065735D2E786D6C7D8EC10E82300C865F65E91D8A1E8C310C0EEA1BF002731658846E
310
D98AC1B77784ABF1D8FE5FBFBF75BBCE937A534CCEB38643598122B6FEE978D0B0485F9C41B54DDD7D022595594E1A469170414C76A4D9A4D207E29CF43ECE46F218070CC6BECC4078ACAA135ACF422C856C0E68EA1BF5669944DDD7BCDE7B1F8E415D77AECB980613C2E4AC91FC167A2B244592486606FC29C8FD7F045B9A
310
EF7053A7E60B504B0304140006080800CC70623BD9DDAED0EC0000007C01000008000000636F72652E786D6C8D90416EC3201045AF82665B61836D9CD8C2444DD39CA01740405C94182C03558F5F9C3852BBEB6A467FFE9B197D7EF89E6EE8CB2CC17A37002D0820E394D7D68D03A478C17B4007C117EFE32F1B20272733C0
310
2A83E0E3E2D3BC49CABB685CCCAAF3DA6CA20CC14440EA969B0182FA34932C648AD911AEC52CD5558EA6A0CF2EC329598D1E47ACCEFBECC59A050463A7EA5833865FEBDD0E37353BE3EE8DBDE3F6786A48D375FBF6CC78B9C282473B3DEFABC5C86834888A900E538A49F5419B9EB47DD5BC907D4F082F57FB1F28CDFA9F50
310
B22ED6D5F6EE030B20687EE43E10BC5CB3C8E51E54AE6B6EE207504B0304140006080800CC70623B55019EA25F0000007C00000007000000636E782E786D6C4DCB3B0E80201045D1AD90E915ED2CF8AC45050C11660C8261F98AB1B07AC9C97D42D718D865D3E909258CFD00CCE24AC6E326A164D74DC0B4128928FF326038
310
472BA13128B1252AC747C6BAB984FC68F0B87FE8960A5C09FE86CFB69FBA01504B0304140006080800CC70623BA24EB22D72010000D40300000C0000006662782F636F72652E786D6CC5535B6E833010BC8AE5DF0A6C5E49888CA3A6694ED00B38E05014B091B1518EDFE511A5A9D228FD2A1F60CDEC7A67C6986DCE4D8D7A
310
69BA4AAB0C073EC548AA5C17952A33ECECD15B61B4E1CC686DBF9561A44423333CC098B3D268D7CE50AE9595CA02AA74216750749DB418E5352C32DCE59FB211BE70162ABA93DF8AFC244AE9073ED050C759670D0840D390E18DF9F1706664C23973AE2A66B62A605A75ACA4C13C4976E1364A12EF355A2EBD384AF65EFA96
310
BC7B8BED2EA6719AAE16FB8491A199335B351775B991C2CA02F390D2D40B028F861F41BCA68B7518BFD0D59A524686F29B26D7164F36B94AD9289CE54E6D1DE6010819891F6E21228B3AD1831EC219194284CF98F06DD01008846CC5A1BEF83801D4CBDC6A1303536877A57A513B0953A94FC707FDBE6064EA84A9E3E6E0FA
310
EE8CF0E9198F7784A316AA0413C2C2F2E0ECA0934D1AE6D05A69BCDE9E91D2A611F573361E38FC1375157F5752AE6B6DFE4B11990F88CCBF0719EE23FF02504B0304140006080800CC70623B408A7D3B7C0000009D0000000B0000006662782F636E782E786D6C4DCCD10A83201886E15B91FFDC552A92A0064DBC8F581632
310
D3703A76F9ABD1C18E3E78F878E5F0D9027ABBFCF2292AE86E2D20171F69F6715550CB827B40839639A5F2770314A7CD293819B45C73AAFB45B35BA61ACAA1C1C7E7855C58C15BC331339661262CC762340413D68D77DA5B42298546CBE6573AF60CEB2F504B0304140006080800CC70623B449FB9BD290100001202000031
310
0000006662782F36394639363044362D344446342D343946362D394244322D3234314243333846323333332F636F72652E786D6C8D515B6EC32010BC0AE22B55850D98B871848994463E412FE002495162B07854397EA176A4F62F3F2C9A9D991D587EB84F37F0AD7D30CEF6905418026DA553C65E7A98E219ED203808EE9D
310
8B7F6810D871D23D2C3014FCE25D9A57483A1BB58D19B54EE9151C43D0110279CB971E06F9A5A7B11A53CC8C70ADE6515EC78BAE4895DB992778883E0700CB907242D17643D7E2538BD869608875438BBAE38922CAC8F1BDD90DB4691A5E2F42C153326A951B95E398B3D1FE599322163C9AE9115F7A3D46ADA0A018778810
310
84E907617BDCEE297BC5BB3DC6BC2EF47FA234AB2745C9D8D8D035EE220B50105E2F0DC1954B9FB747187D9F9D8FA0CCDB042D5FA0C015C65B42DF78BD10F3F3B363CB56C7109DCFDFBBB97E662ED92EB62D13BC2E1BCAE5777DB9966D8A1F504B0304140006080800CC70623BAD7543B64E01000033030000300000006662
310
782F36394639363044362D344446342D343946362D394244322D3234314243333846323333332F636E782E786D6CD593CD6EC32010845F0571AD6CE3D48AD20813A9873E410FBD12D82434182C7EAAE6EDBB2424CD25871E7B41D6EC30B3FA84F9E67BB2E40B4234DE8DB46F1925E094D7C6ED479AD3AE5951B2113C789FEE
310
6C943839C1488B4C05DF079FE72A69D8C96C13AAD6B8631503449F83828872B949AC57D26200B826A308D316B4064D6E46FCDA41C05550DC9E483A00797BFD207EFB092A45DE9514C1BBD22178396BD39D891265658C238DEA00936C654E5E433CB65A26D9F6EDB5EBC14EBF49A45CB856E66048291F6939A9A81BB5C89177
310
38143CA680F4AA299D66A042CEB3354A2684DC9D8D178FE0D9B8B41CAAD720F880EE7EF93C0C18769E099ECC04D5A102C8049A8A05632F4DDF376CF1DE0F6BB65C2F8627B65A33C6BB62177CEBBDAD973006829F89F22E814B54F4BC2BE347F8AA8F681390B50FA73F804400B5F542E796F19FF974E7F78DB802FE05E20750
310
4B0304140006080800CC70623B8D05915C650500003B100000340000006662782F36394639363044362D344446342D343946362D394244322D3234314243333846323333332F6F626A656374732E786D6CAD575B6FA33814FE2B887D06429276DA1565D4266D158D3A339A6846FB502932E050B66023DB74D2FDF5FB190C01
310
9276B2973C046C8ECFF53B17071F77456EBD502133CEAE6CDF9DD81665314F32965ED995DA3A17B6F5310C04E7AA47665B8C14F4CAD6DB7618A48257A5D94AE89654B91AEDDEDDFC61C998326A5B714EA4BCB265FC440BE2924AF184CA6737218AB8E976E7FA6E4338649B0A523E8D98964450A6A029F619B8588D52FE7039
310
B1BD30F0F4F730D0FF866AF6369557DB33949F31A9088B0F848DD8CCFCF9F2767A76E99CCDE733677E3EF59D9BBB9BA5E37F984D16E78BC5E5F5ED25044B25C0C96822E8D60EEFE11B91C581D77CEA34368A1F5329E68CD1B8B61F16D63A1B8E092D294B10C78C4A48EB593D192E7DED9BDEE7995E1B91FDEDD3ACEA9FE831
310
6A756F9F7D4D79F4274C90A7A04248AA51D5F8C718DAE06FB2F75AC4796EBE65D22A88A22223B995679120E2D50E41AA49C260C046A35368846B0BECD0DFF3EBEB8AD4F835768F69B9ADF25C43D30E6B646F807FAA64AD59F61715C7A54127C4AACA98BA3006A9D792DAE165E0D59B61A01FB3A9F9D838D2DAE62445C86166
310
F37564E842E7DE6A69879FEEA2DD5AE7E371E1A5E025154AC307D06A03D73EB5978C58FFA4C8E9033066E0F3BD53BEC1F39F91BE7B55103791EDE6BBB991A2046172CB4581D8B893FA674DDA17A77B3B7C413D1B511FD2743BFF8A38F03A658705E3ADF8015C3A3417FF3D7E439FF591DA0B5F18BC20C1B8981957AE6392A3
310
F43C640C01D1A0B4728E2DD4F26DB4B3C3152A252A3B4E913CEC1C72F012782FF88EFF8637AA552DBEF76408E8A8DE9E50F9E1CB3A2DA0DB1B6039A893B56063DC5B3E3FFB5F72E67AB9FEB4AEC496C4F4C1149625DD662C53E89D7BF0F6151A046260D1337DFDC94502430F83B0EE07A130A224BCAD7DAE1D9FB6CD422FF6
310
920702629C4BB9AE79C12F243C6432A6794E18E5552BA56B431AAB5D91317302B2B071E86C3A42B1A02F999E24061403B5D0EB639195DA655DD3EBEAB4FB862DDF579F014AD0E73C22F99E28DA57FB98E75C6CA2D74D53086D600F4786E0FE3144B771A8A7B900F03594DB8A633CBC49B2EDB69228BB479CF863B5E807AAAB
310
23872F6DFEB4129B949CA33823F58830E86D65621E10047D9DB34D862E8EAC3C2ABC2F7B2C40D67CDFE01F5545B92105AF983AC54D93D69E56FB8E797F88913F898A9FEC705D3F9D1B54EC8426FB500D40A03BD0119B06E1B95DDC7EB8F6975367793EBD70E66733DFB9BC982F9CE564727731999F5D4ECFCE3B8D6A4DC2A0
310
6D50FD148437D110834A64C6CDDF57FBACB5C307A2A477DFE4939736CFEF2B175371E0E10CF0DD1D5C15654E0BCA14D1E87DD02FF93782A162C0A3D95F1524A52770F972BF1EE9809D13CE7DD599467F8ECE9ADD85CE85A34CD45355448C64F9E8A031DC2D596ACC6E5DD93D9B82DE2EF5CAF81363A8E47996A0DE24564A79
310
4115AACE09C55E14540231FDA13C319787134EBF34E3A022514E5B4D9E0826E25C02D5805B15ABE1BEF51B26383D445DD9E875EE33FE4C22DA16427D65A3BCA92CA6D28DD01DF5DC53330704308475351050232CCD31583787BA75774AFB06E5070DD0C8EF484E19968C5D83BA5B90B244D31E54D55A372320FE4786B7EA58
310
44E135AA5467CB7EA333A61683CC6A8C3257034C10CF46F40EF9F5BE59BE5BD30C3C72D235E95D10345C1D45445A5F0BB47E46A5EBE5570F9380B5FA629579952296A773720405982B9DE04011506178964401AA8BDF1FBF0A8EAB6861DD6580C0E38217056766716DAEB2D6FA0917D3E4116581EADB879C4E7CFFB11EFACD
310
3D641311495D92C8676CB409A72D18610D803CE8A626049E8EC1887CB5B44CC39883690DDA8399B4B9855B481E7D71D4A9D22F96E5BB73BF5793020C02137BF837504B0304140006080000CC70623B000000000000000000000000350000006662782F36394639363044362D344446342D343946362D394244322D32343142
310
43333846323333332F76657274696365732E62696E504B0304140006080800CC70623BF270F1330600000004000000360000006662782F36394639363044362D344446342D343946362D394244322D3234314243333846323333332F747269616E676C65732E62696E636660600000504B0304140006080000CC70623B0000
310
00000000000000000000370000006662782F36394639363044362D344446342D343946362D394244322D3234314243333846323333332F617474726962757465732E62696E504B0304140006080800CC70623B08DA0BD19000000041010000360000006662782F36394639363044362D344446342D343946362D394244322D
310
3234314243333846323333332F6469726563746F72792E786D6C858F410AC3201045AF22B36F53E9A60B35CBEEBAE80D244E44489C6234F4F835464A48035D0DF398FF9F8AF63D0E6CC63039F212F8F9020C7D47C6792B21C5FE7403D62A1188E2E60C98D7234A5830286103A55745067B9D86B8A3CF9C7F90C11DE607FB14
310
4396D7B6A82D282E9A152AD114D5EF2CB866EEE831B8EEA07A7BB5A8D7D61A2BAAEB7FD5F70921FF497D00504B0304140006080800CC70623BCA768048FE000000A00100003B0000006662782F36394639363044362D344446342D343946362D394244322D3234314243333846323333332F7265736F75726365732F636F72
310
652E786D6C8D50596E833010BD0A9ADFCA60D600328E9AA639412F609909B1126CE4A5EAF16B0295DABFFECC8CDEA2797AECF8353F924FB44E193D409E5248504B332A3D0D10FC95B4901C39B3C6F85F3248B49871801506CE266BC2B243D2688FDA47549B11775038871E12F988C7004EDE7016A9083E2ADC3D5D84BC8B09
310
D33C8D74D471E6BC8D0192EDC93A815B742658898E651BCB59086ADC356A8C3FD555A1055ED7E7E254D615792D0F075295F585746FF53B694EE78A565DD736979A65AB9933AFE69F8CD2A2F038022F28ED489E135A7CE4554F9BBEA85E68DB53CAB255FEC71496F19FA6A0B42F8B3DEE6673C0F318E4497096AD7DC5F52C33
310
EEB55BFE0D504B010214000A0000080000CC70623B3DEE336E79000000790000001B00000000000000000000000000000000006175746F6465736B2D64657369676E2D7061636B6167652E786D6C504B01021400140006080800CC70623BD486FD9CA0000000F40000001300000000000000000000000000B20000005B436F
310
6E74656E745F54797065735D2E786D6C504B01021400140006080800CC70623BD9DDAED0EC0000007C010000080000000000000000000000000083010000636F72652E786D6C504B01021400140006080800CC70623B55019EA25F0000007C000000070000000000000000000000000095020000636E782E786D6C504B0102
310
1400140006080800CC70623BA24EB22D72010000D40300000C00000000000000000000000000190300006662782F636F72652E786D6C504B01021400140006080800CC70623B408A7D3B7C0000009D0000000B00000000000000000000000000B50400006662782F636E782E786D6C504B01021400140006080800CC70623B
310
449FB9BD290100001202000031000000000000000000000000005A0500006662782F36394639363044362D344446342D343946362D394244322D3234314243333846323333332F636F72652E786D6C504B01021400140006080800CC70623BAD7543B64E010000330300003000000000000000000000000000D20600006662
310
782F36394639363044362D344446342D343946362D394244322D3234314243333846323333332F636E782E786D6C504B01021400140006080800CC70623B8D05915C650500003B10000034000000000000000000000000006E0800006662782F36394639363044362D344446342D343946362D394244322D32343142433338
310
46323333332F6F626A656374732E786D6C504B01021400140006080000CC70623B0000000000000000000000003500000000000000000000000000250E00006662782F36394639363044362D344446342D343946362D394244322D3234314243333846323333332F76657274696365732E62696E504B010214001400060808
310
00CC70623BF270F13306000000040000003600000000000000000000000000780E00006662782F36394639363044362D344446342D343946362D394244322D3234314243333846323333332F747269616E676C65732E62696E504B01021400140006080000CC70623B00000000000000000000000037000000000000000000
310
00000000D20E00006662782F36394639363044362D344446342D343946362D394244322D3234314243333846323333332F617474726962757465732E62696E504B01021400140006080800CC70623B08DA0BD190000000410100003600000000000000000000000000270F00006662782F36394639363044362D344446342D
310
343946362D394244322D3234314243333846323333332F6469726563746F72792E786D6C504B01021400140006080800CC70623BCA768048FE000000A00100003B000000000000000000000000000B1000006662782F36394639363044362D344446342D343946362D394244322D3234314243333846323333332F7265736F
310
75726365732F636F72652E786D6C504B0506000000000E000E0080040000621100000000
  0
XRECORD
  5
176
102
{ACAD_REACTORS
330
173
102
}
330
173
100
AcDbXrecord
280
     1
270
     1
271
     1
  0
XRECORD
  5
177
102
{ACAD_REACTORS
330
173
102
}
330
173
100
AcDbXrecord
280
     1
270
     1
271
     1
  0
CELLSTYLEMAP
  5
904
102
{ACAD_REACTORS
330
162
102
}
330
162
100
AcDbCellStyleMap
 90
        3
300
CELLSTYLE
  1
TABLEFORMAT_BEGIN
 90
        5
170
     1
 91
        0
 92
    32768
 62
   257
 93
        1
300
CONTENTFORMAT
  1
CONTENTFORMAT_BEGIN
 90
        0
 91
        0
 92
      512
 93
        0
300

 40
0.0
140
1.0
 94
        5
 62
     0
340
11
144
6.0
309
CONTENTFORMAT_END
171
     1
301
MARGIN
  1
CELLMARGIN_BEGIN
 40
1.5
 40
1.5
 40
1.5
 40
1.5
 40
4.5
 40
4.5
309
CELLMARGIN_END
 94
        6
 95
        1
302
GRIDFORMAT
  1
GRIDFORMAT_BEGIN
 90
        0
 91
        1
 62
     0
 92
       -2
340
14
 93
        0
 40
1.125
309
GRIDFORMAT_END
 95
        2
302
GRIDFORMAT
  1
GRIDFORMAT_BEGIN
 90
        0
 91
        1
 62
     0
 92
       -2
340
14
 93
        0
 40
1.125
309
GRIDFORMAT_END
 95
        4
302
GRIDFORMAT
  1
GRIDFORMAT_BEGIN
 90
        0
 91
        1
 62
     0
 92
       -2
340
14
 93
        0
 40
1.125
309
GRIDFORMAT_END
 95
        8
302
GRIDFORMAT
  1
GRIDFORMAT_BEGIN
 90
        0
 91
        1
 62
     0
 92
       -2
340
14
 93
        0
 40
1.125
309
GRIDFORMAT_END
 95
       16
302
GRIDFORMAT
  1
GRIDFORMAT_BEGIN
 90
        0
 91
        1
 62
     0
 92
       -2
340
14
 93
        0
 40
1.125
309
GRIDFORMAT_END
 95
       32
302
GRIDFORMAT
  1
GRIDFORMAT_BEGIN
 90
        0
 91
        1
 62
     0
 92
       -2
340
14
 93
        0
 40
1.125
309
GRIDFORMAT_END
309
TABLEFORMAT_END
  1
CELLSTYLE_BEGIN
 90
        1
 91
        1
300
_TITLE
309
CELLSTYLE_END
300
CELLSTYLE
  1
TABLEFORMAT_BEGIN
 90
        5
170
     1
 91
        0
 92
        0
 62
   257
 93
        1
300
CONTENTFORMAT
  1
CONTENTFORMAT_BEGIN
 90
        0
 91
        0
 92
      512
 93
        0
300

 40
0.0
140
1.0
 94
        5
 62
     0
340
11
144
4.5
309
CONTENTFORMAT_END
171
     1
301
MARGIN
  1
CELLMARGIN_BEGIN
 40
1.5
 40
1.5
 40
1.5
 40
1.5
 40
4.5
 40
4.5
309
CELLMARGIN_END
 94
        6
 95
        1
302
GRIDFORMAT
  1
GRIDFORMAT_BEGIN
 90
        0
 91
        1
 62
     0
 92
       -2
340
14
 93
        0
 40
1.125
309
GRIDFORMAT_END
 95
        2
302
GRIDFORMAT
  1
GRIDFORMAT_BEGIN
 90
        0
 91
        1
 62
     0
 92
       -2
340
14
 93
        0
 40
1.125
309
GRIDFORMAT_END
 95
        4
302
GRIDFORMAT
  1
GRIDFORMAT_BEGIN
 90
        0
 91
        1
 62
     0
 92
       -2
340
14
 93
        0
 40
1.125
309
GRIDFORMAT_END
 95
        8
302
GRIDFORMAT
  1
GRIDFORMAT_BEGIN
 90
        0
 91
        1
 62
     0
 92
       -2
340
14
 93
        0
 40
1.125
309
GRIDFORMAT_END
 95
       16
302
GRIDFORMAT
  1
GRIDFORMAT_BEGIN
 90
        0
 91
        1
 62
     0
 92
       -2
340
14
 93
        0
 40
1.125
309
GRIDFORMAT_END
 95
       32
302
GRIDFORMAT
  1
GRIDFORMAT_BEGIN
 90
        0
 91
        1
 62
     0
 92
       -2
340
14
 93
        0
 40
1.125
309
GRIDFORMAT_END
309
TABLEFORMAT_END
  1
CELLSTYLE_BEGIN
 90
        2
 91
        1
300
_HEADER
309
CELLSTYLE_END
300
CELLSTYLE
  1
TABLEFORMAT_BEGIN
 90
        5
170
     1
 91
        0
 92
        0
 62
   257
 93
        1
300
CONTENTFORMAT
  1
CONTENTFORMAT_BEGIN
 90
        0
 91
        0
 92
      512
 93
        0
300

 40
0.0
140
1.0
 94
        2
 62
     0
340
11
144
4.5
309
CONTENTFORMAT_END
171
     1
301
MARGIN
  1
CELLMARGIN_BEGIN
 40
1.5
 40
1.5
 40
1.5
 40
1.5
 40
4.5
 40
4.5
309
CELLMARGIN_END
 94
        6
 95
        1
302
GRIDFORMAT
  1
GRIDFORMAT_BEGIN
 90
        0
 91
        1
 62
     0
 92
       -2
340
14
 93
        0
 40
1.125
309
GRIDFORMAT_END
 95
        2
302
GRIDFORMAT
  1
GRIDFORMAT_BEGIN
 90
        0
 91
        1
 62
     0
 92
       -2
340
14
 93
        0
 40
1.125
309
GRIDFORMAT_END
 95
        4
302
GRIDFORMAT
  1
GRIDFORMAT_BEGIN
 90
        0
 91
        1
 62
     0
 92
       -2
340
14
 93
        0
 40
1.125
309
GRIDFORMAT_END
 95
        8
302
GRIDFORMAT
  1
GRIDFORMAT_BEGIN
 90
        0
 91
        1
 62
     0
 92
       -2
340
14
 93
        0
 40
1.125
309
GRIDFORMAT_END
 95
       16
302
GRIDFORMAT
  1
GRIDFORMAT_BEGIN
 90
        0
 91
        1
 62
     0
 92
       -2
340
14
 93
        0
 40
1.125
309
GRIDFORMAT_END
 95
       32
302
GRIDFORMAT
  1
GRIDFORMAT_BEGIN
 90
        0
 91
        1
 62
     0
 92
       -2
340
14
 93
        0
 40
1.125
309
GRIDFORMAT_END
309
TABLEFORMAT_END
  1
CELLSTYLE_BEGIN
 90
        3
 91
        2
300
_DATA
309
CELLSTYLE_END
  0
ENDSEC
  0
SECTION
  2
ACDSDATA
 70
     2
 71
     8
  0
ACDSSCHEMA
 90
        0
  1
AcDb_Thumbnail_Schema
  2
AcDbDs::ID
280
    10
 91
        8
  2
Thumbnail_Data
280
    15
 91
        0
101
ACDSRECORD
 95
        0
 90
        1
  2
AcDbDs::TreatedAsObjectData
280
     1
291
     1
101
ACDSRECORD
 95
        0
 90
        2
  2
AcDbDs::Legacy
280
     1
291
     1
101
ACDSRECORD
  1
AcDbDs::ID
 90
        3
  2
AcDs:Indexable
280
     1
291
     1
101
ACDSRECORD
  1
AcDbDs::ID
 90
        4
  2
AcDbDs::HandleAttribute
280
     7
282
     1
  0
ACDSSCHEMA
 90
        1
  1
AcDbDs::TreatedAsObjectDataSchema
  2
AcDbDs::TreatedAsObjectData
280
     1
 91
        0
  0
ACDSSCHEMA
 90
        2
  1
AcDbDs::LegacySchema
  2
AcDbDs::Legacy
280
     1
 91
        0
  0
ACDSSCHEMA
 90
        3
  1
AcDbDs::IndexedPropertySchema
  2
AcDs:Indexable
280
     1
 91
        0
  0
ACDSSCHEMA
 90
        4
  1
AcDbDs::HandleAttributeSchema
  2
AcDbDs::HandleAttribute
280
     7
 91
        1
284
     1
  0
ACDSRECORD
 90
        0
  2
AcDbDs::ID
280
    10
320
22
  2
Thumbnail_Data
280
    15
 94
      896
310
89504E470D0A1A0A0000000D49484452000001000000009108030000001BE1960600000300504C5445212830FFFFFF2128300000000000000000000000000000000000000000000000000000330000660000990000CC0000FF0033000033330033660033990033CC0033FF0066000066330066660066990066CC0066FF0099
310
000099330099660099990099CC0099FF00CC0000CC3300CC6600CC9900CCCC00CCFF00FF0000FF3300FF6600FF9900FFCC00FFFF3300003300333300663300993300CC3300FF3333003333333333663333993333CC3333FF3366003366333366663366993366CC3366FF3399003399333399663399993399CC3399FF33CC00
310
33CC3333CC6633CC9933CCCC33CCFF33FF0033FF3333FF6633FF9933FFCC33FFFF6600006600336600666600996600CC6600FF6633006633336633666633996633CC6633FF6666006666336666666666996666CC6666FF6699006699336699666699996699CC6699FF66CC0066CC3366CC6666CC9966CCCC66CCFF66FF0066
310
FF3366FF6666FF9966FFCC66FFFF9900009900339900669900999900CC9900FF9933009933339933669933999933CC9933FF9966009966339966669966999966CC9966FF9999009999339999669999999999CC9999FF99CC0099CC3399CC6699CC9999CCCC99CCFF99FF0099FF3399FF6699FF9999FFCC99FFFFCC0000CC00
310
33CC0066CC0099CC00CCCC00FFCC3300CC3333CC3366CC3399CC33CCCC33FFCC6600CC6633CC6666CC6699CC66CCCC66FFCC9900CC9933CC9966CC9999CC99CCCC99FFCCCC00CCCC33CCCC66CCCC99CCCCCCCCCCFFCCFF00CCFF33CCFF66CCFF99CCFFCCCCFFFFFF0000FF0033FF0066FF0099FF00CCFF00FFFF3300FF3333
310
FF3366FF3399FF33CCFF33FFFF6600FF6633FF6666FF6699FF66CCFF66FFFF9900FF9933FF9966FF9999FF99CCFF99FFFFCC00FFCC33FFCC66FFCC99FFCCCCFFCCFFFFFF00FFFF33FFFF66FFFF99FFFFCCFFFFFF0000000D0D0D1A1A1A2828283535354343435050505D5D5D6B6B6B787878868686939393A1A1A1AEAEAEBB
310
BBBBC9C9C9D6D6D6E4E4E4F1F1F1FFFFFF0000000000000000000000000000000000000000000000000000000000002E4550F10000003B4944415478DAEDC13101000000C2A0F54F6D0B2FA0000000000000000000000000000000000000000000000000000000000000000000000000CE06919100016C9A5B1B0000000049
310
454E44AE426082
  0
ENDSEC
  0
EOF
