  0
SECTION
  2
HEADER
  9
$ACADVER
  1
AC1032
  9
$ACADMAINTVER
 90
      250
  9
$DWGCODEPAGE
  3
ANSI_932
  9
$LASTSAVEDBY
  1
dsp199
  9
$REQUIREDVERSIONS
160
                 0
  9
$INSBASE
 10
0.0
 20
0.0
 30
0.0
  9
$EXTMIN
 10
93.50642129473454
 20
82.998735880823
 30
-0.0000000000000223
  9
$EXTMAX
 10
217.1910014859657
 20
193.1752967693136
 30
0.0000000000000001
  9
$LIMMIN
 10
0.0
 20
0.0
  9
$LIMMAX
 10
12.0
 20
9.0
  9
$ORTHOMODE
 70
     0
  9
$REGENMODE
 70
     1
  9
$FILLMODE
 70
     1
  9
$QTEXTMODE
 70
     0
  9
$MIRRTEXT
 70
     0
  9
$LTSCALE
 40
1.0
  9
$ATTMODE
 70
     1
  9
$TEXTSIZE
 40
2.5
  9
$TRACEWID
 40
1.0
  9
$TEXTSTYLE
  7
Standard
  9
$CLAYER
  8
0
  9
$CELTYPE
  6
ByLayer
  9
$CECOLOR
 62
   256
  9
$CELTSCALE
 40
1.0
  9
$DISPSILH
 70
     0
  9
$DIMSCALE
 40
1.0
  9
$DIMASZ
 40
2.5
  9
$DIMEXO
 40
0.625
  9
$DIMDLI
 40
3.75
  9
$DIMRND
 40
0.0
  9
$DIMDLE
 40
0.0
  9
$DIMEXE
 40
1.25
  9
$DIMTP
 40
0.0
  9
$DIMTM
 40
0.0
  9
$DIMTXT
 40
2.5
  9
$DIMCEN
 40
2.5
  9
$DIMTSZ
 40
0.0
  9
$DIMTOL
 70
     0
  9
$DIMLIM
 70
     0
  9
$DIMTIH
 70
     0
  9
$DIMTOH
 70
     0
  9
$DIMSE1
 70
     0
  9
$DIMSE2
 70
     0
  9
$DIMTAD
 70
     1
  9
$DIMZIN
 70
     8
  9
$DIMBLK
  1

  9
$DIMASO
 70
     1
  9
$DIMSHO
 70
     1
  9
$DIMPOST
  1

  9
$DIMAPOST
  1

  9
$DIMALT
 70
     0
  9
$DIMALTD
 70
     3
  9
$DIMALTF
 40
0.03937007874016
  9
$DIMLFAC
 40
1.0
  9
$DIMTOFL
 70
     1
  9
$DIMTVP
 40
0.0
  9
$DIMTIX
 70
     0
  9
$DIMSOXD
 70
     0
  9
$DIMSAH
 70
     0
  9
$DIMBLK1
  1

  9
$DIMBLK2
  1

  9
$DIMSTYLE
  2
ISO-25
  9
$DIMCLRD
 70
     0
  9
$DIMCLRE
 70
     0
  9
$DIMCLRT
 70
     0
  9
$DIMTFAC
 40
1.0
  9
$DIMGAP
 40
0.625
  9
$DIMJUST
 70
     0
  9
$DIMSD1
 70
     0
  9
$DIMSD2
 70
     0
  9
$DIMTOLJ
 70
     0
  9
$DIMTZIN
 70
     8
  9
$DIMALTZ
 70
     0
  9
$DIMALTTZ
 70
     0
  9
$DIMUPT
 70
     0
  9
$DIMDEC
 70
     2
  9
$DIMTDEC
 70
     2
  9
$DIMALTU
 70
     2
  9
$DIMALTTD
 70
     3
  9
$DIMTXSTY
  7
Standard
  9
$DIMAUNIT
 70
     0
  9
$DIMADEC
 70
     0
  9
$DIMALTRND
 40
0.0
  9
$DIMAZIN
 70
     0
  9
$DIMDSEP
 70
    44
  9
$DIMATFIT
 70
     3
  9
$DIMFRAC
 70
     0
  9
$DIMLDRBLK
  1

  9
$DIMLUNIT
 70
     2
  9
$DIMLWD
 70
    -2
  9
$DIMLWE
 70
    -2
  9
$DIMTMOVE
 70
     0
  9
$DIMFXL
 40
1.0
  9
$DIMFXLON
 70
     0
  9
$DIMJOGANG
 40
0.7853981633974483
  9
$DIMTFILL
 70
     0
  9
$DIMTFILLCLR
 70
     0
  9
$DIMARCSYM
 70
     0
  9
$DIMLTYPE
  6

  9
$DIMLTEX1
  6

  9
$DIMLTEX2
  6

  9
$DIMTXTDIRECTION
 70
     0
  9
$LUNITS
 70
     2
  9
$LUPREC
 70
     4
  9
$SKETCHINC
 40
1.0
  9
$FILLETRAD
 40
0.0
  9
$AUNITS
 70
     0
  9
$AUPREC
 70
     0
  9
$MENU
  1
.
  9
$ELEVATION
 40
0.0
  9
$PELEVATION
 40
0.0
  9
$THICKNESS
 40
0.0
  9
$LIMCHECK
 70
     0
  9
$CHAMFERA
 40
0.0
  9
$CHAMFERB
 40
0.0
  9
$CHAMFERC
 40
0.0
  9
$CHAMFERD
 40
0.0
  9
$SKPOLY
 70
     0
  9
$TDCREATE
 40
2460383.452418982
  9
$TDUCREATE
 40
2460383.077418982
  9
$TDUPDATE
 40
2460383.452789352
  9
$TDUUPDATE
 40
2460383.077789352
  9
$TDINDWG
 40
0.0003472222
  9
$TDUSRTIMER
 40
0.0003472222
  9
$USRTIMER
 70
     1
  9
$ANGBASE
 50
0.0
  9
$ANGDIR
 70
     0
  9
$PDMODE
 70
     0
  9
$PDSIZE
 40
0.0
  9
$PLINEWID
 40
0.0
  9
$SPLFRAME
 70
     0
  9
$SPLINETYPE
 70
     6
  9
$SPLINESEGS
 70
     8
  9
$HANDSEED
  5
287
  9
$SURFTAB1
 70
     6
  9
$SURFTAB2
 70
     6
  9
$SURFTYPE
 70
     6
  9
$SURFU
 70
     6
  9
$SURFV
 70
     6
  9
$UCSBASE
  2

  9
$UCSNAME
  2

  9
$UCSORG
 10
0.0
 20
0.0
 30
0.0
  9
$UCSXDIR
 10
1.0
 20
0.0
 30
0.0
  9
$UCSYDIR
 10
0.0
 20
1.0
 30
0.0
  9
$UCSORTHOREF
  2

  9
$UCSORTHOVIEW
 70
     0
  9
$UCSORGTOP
 10
0.0
 20
0.0
 30
0.0
  9
$UCSORGBOTTOM
 10
0.0
 20
0.0
 30
0.0
  9
$UCSORGLEFT
 10
0.0
 20
0.0
 30
0.0
  9
$UCSORGRIGHT
 10
0.0
 20
0.0
 30
0.0
  9
$UCSORGFRONT
 10
0.0
 20
0.0
 30
0.0
  9
$UCSORGBACK
 10
0.0
 20
0.0
 30
0.0
  9
$PUCSBASE
  2

  9
$PUCSNAME
  2

  9
$PUCSORG
 10
0.0
 20
0.0
 30
0.0
  9
$PUCSXDIR
 10
1.0
 20
0.0
 30
0.0
  9
$PUCSYDIR
 10
0.0
 20
1.0
 30
0.0
  9
$PUCSORTHOREF
  2

  9
$PUCSORTHOVIEW
 70
     0
  9
$PUCSORGTOP
 10
0.0
 20
0.0
 30
0.0
  9
$PUCSORGBOTTOM
 10
0.0
 20
0.0
 30
0.0
  9
$PUCSORGLEFT
 10
0.0
 20
0.0
 30
0.0
  9
$PUCSORGRIGHT
 10
0.0
 20
0.0
 30
0.0
  9
$PUCSORGFRONT
 10
0.0
 20
0.0
 30
0.0
  9
$PUCSORGBACK
 10
0.0
 20
0.0
 30
0.0
  9
$USERI1
 70
     0
  9
$USERI2
 70
     0
  9
$USERI3
 70
     0
  9
$USERI4
 70
     0
  9
$USERI5
 70
     0
  9
$USERR1
 40
0.0
  9
$USERR2
 40
0.0
  9
$USERR3
 40
0.0
  9
$USERR4
 40
0.0
  9
$USERR5
 40
0.0
  9
$WORLDVIEW
 70
     1
  9
$SHADEDGE
 70
     3
  9
$SHADEDIF
 70
    70
  9
$TILEMODE
 70
     1
  9
$MAXACTVP
 70
    64
  9
$PINSBASE
 10
0.0
 20
0.0
 30
0.0
  9
$PLIMCHECK
 70
     0
  9
$PEXTMIN
 10
1.000000000000000E+20
 20
1.000000000000000E+20
 30
1.000000000000000E+20
  9
$PEXTMAX
 10
-1.000000000000000E+20
 20
-1.000000000000000E+20
 30
-1.000000000000000E+20
  9
$PLIMMIN
 10
0.0
 20
0.0
  9
$PLIMMAX
 10
12.0
 20
9.0
  9
$UNITMODE
 70
     0
  9
$VISRETAIN
 70
     1
  9
$PLINEGEN
 70
     0
  9
$PSLTSCALE
 70
     1
  9
$TREEDEPTH
 70
  3020
  9
$CMLSTYLE
  2
Standard
  9
$CMLJUST
 70
     0
  9
$CMLSCALE
 40
20.0
  9
$PROXYGRAPHICS
 70
     1
  9
$MEASUREMENT
 70
     1
  9
$CELWEIGHT
370
    -1
  9
$ENDCAPS
280
     0
  9
$JOINSTYLE
280
     0
  9
$LWDISPLAY
290
     0
  9
$INSUNITS
 70
     4
  9
$HYPERLINKBASE
  1

  9
$STYLESHEET
  1

  9
$XEDIT
290
     1
  9
$CEPSNTYPE
380
     0
  9
$PSTYLEMODE
290
     1
  9
$FINGERPRINTGUID
  2
{C9ED8D4C-489C-5D44-A8CA-374A125B0ACA}
  9
$VERSIONGUID
  2
{D9ABA1C2-9BF9-4647-82FF-D25391335E68}
  9
$EXTNAMES
290
     1
  9
$PSVPSCALE
 40
0.0
  9
$OLESTARTUP
290
     0
  9
$SORTENTS
280
   127
  9
$INDEXCTL
280
     0
  9
$HIDETEXT
280
     1
  9
$XCLIPFRAME
280
     2
  9
$HALOGAP
280
     0
  9
$OBSCOLOR
 70
   257
  9
$OBSLTYPE
280
     0
  9
$INTERSECTIONDISPLAY
280
     0
  9
$INTERSECTIONCOLOR
 70
   257
  9
$DIMASSOC
280
     2
  9
$PROJECTNAME
  1

  9
$CAMERADISPLAY
290
     0
  9
$LENSLENGTH
 40
50.0
  9
$CAMERAHEIGHT
 40
0.0
  9
$STEPSPERSEC
 40
2.0
  9
$STEPSIZE
 40
6.0
  9
$3DDWFPREC
 40
2.0
  9
$PSOLWIDTH
 40
5.0
  9
$PSOLHEIGHT
 40
80.0
  9
$LOFTANG1
 40
1.570796326794896
  9
$LOFTANG2
 40
1.570796326794896
  9
$LOFTMAG1
 40
0.0
  9
$LOFTMAG2
 40
0.0
  9
$LOFTPARAM
 70
     7
  9
$LOFTNORMALS
280
     1
  9
$LATITUDE
 40
37.795
  9
$LONGITUDE
 40
-122.394
  9
$NORTHDIRECTION
 40
0.0
  9
$TIMEZONE
 70
 -8000
  9
$LIGHTGLYPHDISPLAY
280
     1
  9
$TILEMODELIGHTSYNCH
280
     1
  9
$CMATERIAL
347
11
  9
$SOLIDHIST
280
     0
  9
$SHOWHIST
280
     1
  9
$DWFFRAME
280
     2
  9
$DGNFRAME
280
     0
  9
$REALWORLDSCALE
290
     1
  9
$INTERFERECOLOR
 62
     1
  9
$INTERFEREOBJVS
345
33
  9
$INTERFEREVPVS
346
30
  9
$CSHADOW
280
     0
  9
$SHADOWPLANELOCATION
 40
0.0
  0
ENDSEC
  0
SECTION
  2
CLASSES
  0
CLASS
  1
ACDBDICTIONARYWDFLT
  2
AcDbDictionaryWithDefault
  3
ObjectDBX Classes
 90
        0
 91
        1
280
     0
281
     0
  0
CLASS
  1
MATERIAL
  2
AcDbMaterial
  3
ObjectDBX Classes
 90
     1153
 91
        3
280
     0
281
     0
  0
CLASS
  1
VISUALSTYLE
  2
AcDbVisualStyle
  3
ObjectDBX Classes
 90
     4095
 91
       24
280
     0
281
     0
  0
CLASS
  1
SCALE
  2
AcDbScale
  3
ObjectDBX Classes
 90
     1153
 91
       17
280
     0
281
     0
  0
CLASS
  1
TABLESTYLE
  2
AcDbTableStyle
  3
ObjectDBX Classes
 90
     4095
 91
        1
280
     0
281
     0
  0
CLASS
  1
MLEADERSTYLE
  2
AcDbMLeaderStyle
  3
ACDB_MLEADERSTYLE_CLASS
 90
     4095
 91
        1
280
     0
281
     0
  0
CLASS
  1
ACDBSECTIONVIEWSTYLE
  2
AcDbSectionViewStyle
  3
ObjectDBX Classes
 90
     1025
 91
        2
280
     0
281
     0
  0
CLASS
  1
ACDBDETAILVIEWSTYLE
  2
AcDbDetailViewStyle
  3
ObjectDBX Classes
 90
     1025
 91
        2
280
     0
281
     0
  0
CLASS
  1
SORTENTSTABLE
  2
AcDbSortentsTable
  3
ObjectDBX Classes
 90
        0
 91
        1
280
     0
281
     0
  0
CLASS
  1
DICTIONARYVAR
  2
AcDbDictionaryVar
  3
ObjectDBX Classes
 90
        0
 91
        7
280
     0
281
     0
  0
CLASS
  1
CELLSTYLEMAP
  2
AcDbCellStyleMap
  3
ObjectDBX Classes
 90
     1152
 91
        1
280
     0
281
     0
  0
ENDSEC
  0
SECTION
  2
TABLES
  0
TABLE
  2
VPORT
  5
8
330
0
100
AcDbSymbolTable
 70
     1
  0
VPORT
  5
57
330
8
100
AcDbSymbolTableRecord
100
AcDbViewportTableRecord
  2
*Active
 70
     0
 10
0.0
 20
0.0
 11
1.0
 21
1.0
 12
181.9270905015432
 22
119.1590124326873
 13
0.0
 23
0.0
 14
10.0
 24
10.0
 15
10.0
 25
10.0
 16
0.0
 26
0.0
 36
1.0
 17
0.0
 27
0.0
 37
0.0
 40
177.5252602604145
 41
2.028535980148883
 42
50.0
 43
0.0
 44
0.0
 50
0.0
 51
0.0
 71
     0
 72
  1000
 73
     1
 74
     1
 75
     0
 76
     0
 77
     0
 78
     0
281
     0
 65
     1
110
0.0
120
0.0
130
0.0
111
1.0
121
0.0
131
0.0
112
0.0
122
1.0
132
0.0
 79
     0
146
0.0
348
2F
 60
     3
 61
     5
292
     1
282
     1
141
0.0
142
0.0
 63
   250
421
  3355443
1001
ACAD_NAV_VCDISPLAY
1070
     3
  0
ENDTAB
  0
TABLE
  2
LTYPE
  5
5
330
0
100
AcDbSymbolTable
 70
     1
  0
LTYPE
  5
5B
330
5
100
AcDbSymbolTableRecord
100
AcDbLinetypeTableRecord
  2
ByBlock
 70
     0
  3

 72
    65
 73
     0
 40
0.0
  0
LTYPE
  5
5C
330
5
100
AcDbSymbolTableRecord
100
AcDbLinetypeTableRecord
  2
ByLayer
 70
     0
  3

 72
    65
 73
     0
 40
0.0
  0
LTYPE
  5
5D
330
5
100
AcDbSymbolTableRecord
100
AcDbLinetypeTableRecord
  2
Continuous
 70
     0
  3
Solid line
 72
    65
 73
     0
 40
0.0
  0
ENDTAB
  0
TABLE
  2
LAYER
  5
2
330
0
100
AcDbSymbolTable
 70
     3
  0
LAYER
  5
54
330
2
100
AcDbSymbolTableRecord
100
AcDbLayerTableRecord
  2
0
 70
     0
 62
     7
  6
Continuous
370
    -3
390
F
347
21
348
0
1001
AcAecLayerStandard
1000

1000

  0
LAYER
  5
84
330
2
100
AcDbSymbolTableRecord
100
AcDbLayerTableRecord
  2
MD_可視
 70
     0
 62
     7
  6
Continuous
370
    50
390
F
347
21
348
0
  0
LAYER
  5
99
330
2
100
AcDbSymbolTableRecord
100
AcDbLayerTableRecord
  2
MD_狭い可視
 70
     0
 62
     7
  6
Continuous
370
    35
390
F
347
21
348
0
  0
ENDTAB
  0
TABLE
  2
STYLE
  5
3
330
0
100
AcDbSymbolTable
 70
     2
  0
STYLE
  5
55
330
3
100
AcDbSymbolTableRecord
100
AcDbTextStyleTableRecord
  2
Standard
 70
     0
 40
0.0
 41
1.0
 50
0.0
 71
     0
 42
2.5
  3
arial.ttf
  4

1001
ACAD
1000
Arial
1071
       34
  0
STYLE
  5
5A
330
3
100
AcDbSymbolTableRecord
100
AcDbTextStyleTableRecord
  2
Annotative
 70
     0
 40
0.0
 41
1.0
 50
0.0
 71
     0
 42
0.2
  3
txt
  4

1001
AcadAnnotative
1000
AnnotativeData
1002
{
1070
     1
1070
     1
1002
}
  0
ENDTAB
  0
TABLE
  2
VIEW
  5
6
330
0
100
AcDbSymbolTable
 70
     0
  0
ENDTAB
  0
TABLE
  2
UCS
  5
7
330
0
100
AcDbSymbolTable
 70
     0
  0
ENDTAB
  0
TABLE
  2
APPID
  5
9
330
0
100
AcDbSymbolTable
 70
     7
  0
APPID
  5
56
330
9
100
AcDbSymbolTableRecord
100
AcDbRegAppTableRecord
  2
ACAD
 70
     0
  0
APPID
  5
5E
330
9
100
AcDbSymbolTableRecord
100
AcDbRegAppTableRecord
  2
AcadAnnotative
 70
     0
  0
APPID
  5
78
330
9
100
AcDbSymbolTableRecord
100
AcDbRegAppTableRecord
  2
ACAD_PSEXT
 70
     0
  0
APPID
  5
7A
330
9
100
AcDbSymbolTableRecord
100
AcDbRegAppTableRecord
  2
ACAD_DSTYLE_DIMJAG
 70
     0
  0
APPID
  5
7B
330
9
100
AcDbSymbolTableRecord
100
AcDbRegAppTableRecord
  2
ACAD_DSTYLE_DIMTALN
 70
     0
  0
APPID
  5
271
330
9
100
AcDbSymbolTableRecord
100
AcDbRegAppTableRecord
  2
AcAecLayerStandard
 70
     0
  0
APPID
  5
283
330
9
100
AcDbSymbolTableRecord
100
AcDbRegAppTableRecord
  2
ACAD_NAV_VCDISPLAY
 70
     0
  0
ENDTAB
  0
TABLE
  2
DIMSTYLE
  5
A
330
0
100
AcDbSymbolTable
 70
     3
100
AcDbDimStyleTable
 71
     1
340
7C
  0
DIMSTYLE
105
58
330
A
100
AcDbSymbolTableRecord
100
AcDbDimStyleTableRecord
  2
Standard
 70
     0
340
55
  0
DIMSTYLE
105
59
330
A
100
AcDbSymbolTableRecord
100
AcDbDimStyleTableRecord
  2
Annotative
 70
     0
 40
0.0
 41
2.5
 42
0.625
 43
3.75
 44
1.25
 73
     0
 74
     0
 77
     1
 78
     8
140
2.5
141
2.5
143
0.03937007874016
147
0.625
171
     3
172
     1
271
     2
272
     2
274
     3
278
    44
283
     0
284
     8
340
55
1001
AcadAnnotative
1000
AnnotativeData
1002
{
1070
     1
1070
     1
1002
}
  0
DIMSTYLE
105
7C
330
A
100
AcDbSymbolTableRecord
100
AcDbDimStyleTableRecord
  2
ISO-25
 70
     0
 41
2.5
 42
0.625
 43
3.75
 44
1.25
 73
     0
 74
     0
 77
     1
 78
     8
140
2.5
141
2.5
143
0.03937007874016
147
0.625
171
     3
172
     1
271
     2
272
     2
274
     3
278
    44
283
     0
284
     8
340
55
  0
ENDTAB
  0
TABLE
  2
BLOCK_RECORD
  5
1
330
0
100
AcDbSymbolTable
 70
     4
  0
BLOCK_RECORD
  5
70
102
{ACAD_XDICTIONARY
360
7D
102
}
330
1
100
AcDbSymbolTableRecord
100
AcDbBlockTableRecord
  2
*Model_Space
340
73
 70
     0
280
     1
281
     0
  0
BLOCK_RECORD
  5
6C
330
1
100
AcDbSymbolTableRecord
100
AcDbBlockTableRecord
  2
*Paper_Space
340
6F
 70
     0
280
     1
281
     0
  0
BLOCK_RECORD
  5
74
330
1
100
AcDbSymbolTableRecord
100
AcDbBlockTableRecord
  2
*Paper_Space0
340
77
 70
     0
280
     1
281
     0
  0
BLOCK_RECORD
  5
81
330
1
100
AcDbSymbolTableRecord
100
AcDbBlockTableRecord
  2
CustomObjectsInViewport4_0
340
0
102
{BLKREFS
331
7F
102
}
 70
     0
280
     1
281
     0
  0
BLOCK_RECORD
  5
12E
330
1
100
AcDbSymbolTableRecord
100
AcDbBlockTableRecord
  2
CustomObjectsInViewport6_0
340
0
102
{BLKREFS
331
12C
102
}
 70
     0
280
     1
281
     0
  0
BLOCK_RECORD
  5
211
330
1
100
AcDbSymbolTableRecord
100
AcDbBlockTableRecord
  2
CustomObjectsInViewport8_0
340
0
102
{BLKREFS
331
20F
102
}
 70
     0
280
     1
281
     0
  0
ENDTAB
  0
ENDSEC
  0
SECTION
  2
BLOCKS
  0
BLOCK
  5
71
330
70
100
AcDbEntity
  8
0
100
AcDbBlockBegin
  2
*Model_Space
 70
     0
 10
0.0
 20
0.0
 30
0.0
  3
*Model_Space
  1

  0
ENDBLK
  5
72
330
70
100
AcDbEntity
  8
0
100
AcDbBlockEnd
  0
BLOCK
  5
6D
330
6C
100
AcDbEntity
 67
     1
  8
0
100
AcDbBlockBegin
  2
*Paper_Space
 70
     0
 10
0.0
 20
0.0
 30
0.0
  3
*Paper_Space
  1

  0
ENDBLK
  5
6E
330
6C
100
AcDbEntity
 67
     1
  8
0
100
AcDbBlockEnd
  0
BLOCK
  5
75
330
74
100
AcDbEntity
 67
     1
  8
0
100
AcDbBlockBegin
  2
*Paper_Space0
 70
     0
 10
0.0
 20
0.0
 30
0.0
  3
*Paper_Space0
  1

  0
ENDBLK
  5
76
330
74
100
AcDbEntity
 67
     1
  8
0
100
AcDbBlockEnd
  0
BLOCK
  5
82
330
81
100
AcDbEntity
  8
0
100
AcDbBlockBegin
  2
CustomObjectsInViewport4_0
 70
     0
 10
0.0
 20
0.0
 30
0.0
  3
CustomObjectsInViewport4_0
  1

  0
LINE
  5
83
330
81
100
AcDbEntity
  8
MD_可視
100
AcDbLine
 10
96.00642129473454
 20
89.99873588082664
 30
0.0
 11
93.50642129473454
 21
89.99873588082664
 31
0.0
  0
LINE
  5
85
330
81
100
AcDbEntity
  8
MD_可視
100
AcDbLine
 10
128.5064212947345
 20
89.99873588082664
 30
0.0
 11
126.0064212947345
 21
89.99873588082664
 31
0.0
  0
LINE
  5
86
330
81
100
AcDbEntity
  8
MD_可視
100
AcDbLine
 10
126.0064212947345
 20
89.99873588082664
 30
0.0
 11
126.0064212947345
 21
104.598735880827
 31
0.0
  0
LINE
  5
87
330
81
100
AcDbEntity
  8
MD_可視
100
AcDbLine
 10
126.0064212947345
 20
93.19873588082737
 30
0.0
 11
126.1064212947349
 21
93.19873588082737
 31
0.0
  0
LINE
  5
88
330
81
100
AcDbEntity
  8
MD_可視
100
AcDbLine
 10
96.00642129473454
 20
89.99873588082664
 30
0.0
 11
96.00642129473454
 21
104.598735880827
 31
0.0
  0
LINE
  5
89
330
81
100
AcDbEntity
  8
MD_可視
100
AcDbLine
 10
95.90642129473417
 20
93.19873588082737
 30
0.0
 11
96.00642129473454
 21
93.19873588082737
 31
0.0
  0
LINE
  5
8A
330
81
100
AcDbEntity
  8
MD_可視
100
AcDbLine
 10
104.6314212947345
 20
104.598735880827
 30
0.0
 11
105.0941713948141
 21
104.598735880827
 31
0.0
  0
LINE
  5
8B
330
81
100
AcDbEntity
  8
MD_可視
100
AcDbLine
 10
116.9186711946549
 20
104.598735880827
 30
0.0
 11
117.3814212947345
 21
104.598735880827
 31
0.0
  0
LINE
  5
8C
330
81
100
AcDbEntity
  8
MD_可視
100
AcDbLine
 10
102.6814212947338
 20
104.598735880827
 30
0.0
 11
102.6814212947338
 21
104.6987358808273
 31
0.0
  0
LINE
  5
8D
330
81
100
AcDbEntity
  8
MD_可視
100
AcDbLine
 10
119.3314212947352
 20
104.598735880827
 30
0.0
 11
119.3314212947352
 21
104.6987358808273
 31
0.0
  0
LINE
  5
8E
330
81
100
AcDbEntity
  8
MD_可視
100
AcDbLine
 10
96.00642129473454
 20
82.99873588082665
 30
0.0
 11
126.0064212947345
 21
82.99873588082665
 31
0.0
  0
LINE
  5
8F
330
81
100
AcDbEntity
  8
MD_可視
100
AcDbLine
 10
93.50642129473454
 20
82.99873588082665
 30
0.0
 11
96.00642129473454
 21
82.99873588082665
 31
0.0
  0
LINE
  5
90
330
81
100
AcDbEntity
  8
MD_可視
100
AcDbLine
 10
126.0064212947345
 20
82.99873588082665
 30
0.0
 11
128.5064212947345
 21
82.99873588082665
 31
0.0
  0
LINE
  5
91
330
81
100
AcDbEntity
  8
MD_可視
100
AcDbLine
 10
117.3814212947345
 20
91.99873588082665
 30
0.0
 11
117.3814212947345
 21
101.098735880827
 31
0.0
  0
LINE
  5
92
330
81
100
AcDbEntity
  8
MD_可視
100
AcDbLine
 10
117.3814212947345
 20
101.098735880827
 30
0.0
 11
117.3814212947345
 21
104.598735880827
 31
0.0
  0
LINE
  5
93
330
81
100
AcDbEntity
  8
MD_可視
100
AcDbLine
 10
104.6314212947345
 20
104.598735880827
 30
0.0
 11
104.6314212947345
 21
101.098735880827
 31
0.0
  0
LINE
  5
94
330
81
100
AcDbEntity
  8
MD_可視
100
AcDbLine
 10
104.6314212947345
 20
101.098735880827
 30
0.0
 11
104.6314212947345
 21
91.99873588082665
 31
0.0
  0
LINE
  5
95
330
81
100
AcDbEntity
  8
MD_可視
100
AcDbLine
 10
103.6314212947345
 20
91.99873588082665
 30
0.0
 11
118.3814212947345
 21
91.99873588082665
 31
0.0
  0
LINE
  5
96
330
81
100
AcDbEntity
  8
MD_可視
100
AcDbLine
 10
93.50642129473454
 20
82.99873588082665
 30
0.0
 11
93.50642129473454
 21
89.99873588082664
 31
0.0
  0
LINE
  5
97
330
81
100
AcDbEntity
  8
MD_可視
100
AcDbLine
 10
128.5064212947345
 20
89.99873588082664
 30
0.0
 11
128.5064212947345
 21
82.99873588082665
 31
0.0
  0
LINE
  5
98
330
81
100
AcDbEntity
  8
MD_狭い可視
100
AcDbLine
 10
96.00642129473454
 20
89.99873588082664
 30
0.0
 11
96.00642129473454
 21
82.99873588082665
 31
0.0
  0
LINE
  5
9A
330
81
100
AcDbEntity
  8
MD_狭い可視
100
AcDbLine
 10
126.0064212947345
 20
82.99873588082665
 30
0.0
 11
126.0064212947345
 21
89.99873588082664
 31
0.0
  0
LINE
  5
9B
330
81
100
AcDbEntity
  8
MD_可視
100
AcDbLine
 10
119.0885280759212
 20
104.598735880827
 30
0.0
 11
126.0064212947345
 21
104.598735880827
 31
0.0
  0
LINE
  5
9C
330
81
100
AcDbEntity
  8
MD_可視
100
AcDbLine
 10
119.0885280759212
 20
104.598735880827
 30
0.0
 11
118.3814212947345
 21
101.098735880827
 31
0.0
  0
LINE
  5
9D
330
81
100
AcDbEntity
  8
MD_可視
100
AcDbLine
 10
118.3814212947345
 20
101.098735880827
 30
0.0
 11
118.3814212947345
 21
91.99873588082665
 31
0.0
  0
LINE
  5
9E
330
81
100
AcDbEntity
  8
MD_可視
100
AcDbLine
 10
103.6314212947345
 20
91.99873588082665
 30
0.0
 11
103.6314212947345
 21
101.098735880827
 31
0.0
  0
LINE
  5
9F
330
81
100
AcDbEntity
  8
MD_可視
100
AcDbLine
 10
103.6314212947345
 20
101.098735880827
 30
0.0
 11
102.9243145135478
 21
104.598735880827
 31
0.0
  0
LINE
  5
A0
330
81
100
AcDbEntity
  8
MD_可視
100
AcDbLine
 10
96.00642129473454
 20
104.598735880827
 30
0.0
 11
102.9243145135478
 21
104.598735880827
 31
0.0
  0
LINE
  5
A1
330
81
100
AcDbEntity
  8
MD_可視
100
AcDbLine
 10
102.9243145135478
 20
104.598735880827
 30
0.0
 11
104.6314212947345
 21
104.598735880827
 31
0.0
  0
LINE
  5
A2
330
81
100
AcDbEntity
  8
MD_可視
100
AcDbLine
 10
117.3814212947345
 20
104.598735880827
 30
0.0
 11
119.0885280759212
 21
104.598735880827
 31
0.0
  0
LINE
  5
A3
330
81
100
AcDbEntity
  8
MD_可視
100
AcDbLine
 10
96.00642129473454
 20
90.99873588082663
 30
0.0
 11
95.90642129473417
 21
90.99873588082663
 31
0.0
  0
LINE
  5
A4
330
81
100
AcDbEntity
  8
MD_可視
100
AcDbLine
 10
126.1064212947349
 20
90.99873588082663
 30
0.0
 11
126.0064212947345
 21
90.99873588082663
 31
0.0
  0
LINE
  5
A5
330
81
100
AcDbEntity
  8
MD_可視
100
AcDbLine
 10
118.3814212947345
 20
101.098735880827
 30
0.0
 11
117.3814212947345
 21
101.098735880827
 31
0.0
  0
LINE
  5
A6
330
81
100
AcDbEntity
  8
MD_可視
100
AcDbLine
 10
104.6314212947345
 20
101.098735880827
 30
0.0
 11
103.6314212947345
 21
101.098735880827
 31
0.0
  0
LINE
  5
A7
330
81
100
AcDbEntity
  8
MD_狭い可視
100
AcDbLine
 10
126.0064212947345
 20
90.49873588082665
 30
0.0
 11
126.1064212947331
 21
90.49873588082665
 31
0.0
  0
LINE
  5
A8
330
81
100
AcDbEntity
  8
MD_狭い可視
100
AcDbLine
 10
95.90642129473598
 20
90.49873588082665
 30
0.0
 11
96.00642129473454
 21
90.49873588082665
 31
0.0
  0
ELLIPSE
  5
A9
330
81
100
AcDbEntity
  8
MD_狭い可視
100
AcDbEllipse
 10
116.5544194627764
 20
104.1737259247948
 30
0.0
 11
-0.0000000000000026
 21
-0.5000091749428605
 31
0.0
210
0.0
220
0.0
230
-1.0
 40
0.0093745880398468
 41
1.570816238494068
 42
3.074559350398853
  0
LINE
  5
AA
330
81
100
AcDbEntity
  8
MD_狭い可視
100
AcDbLine
 10
116.9492933524907
 20
104.1737358808259
 30
0.0
 11
116.5497320827435
 21
104.1737358808259
 31
0.0
  0
SPLINE
  5
AB
330
81
100
AcDbEntity
  8
MD_狭い可視
100
AcDbSpline
210
0.0
220
0.0
230
1.0
 70
    12
 71
     3
 72
    10
 73
     6
 74
     0
 42
0.000000001
 43
0.0000000001
 40
4.779446216558008
 40
4.779446216558008
 40
4.779446216558008
 40
4.779446216558008
 40
5.531315761868796
 40
5.531315761868796
 40
6.283185307179586
 40
6.283185307179586
 40
6.283185307179586
 40
6.283185307179586
 10
116.9536667572174
 20
104.2735111314177
 30
0.0
 41
1.0
 10
116.9524918377319
 20
104.2718278150841
 30
0.0
 41
1.0
 10
116.9513594193213
 20
104.2603419743227
 30
0.0
 41
1.0
 10
116.9497546615712
 20
104.2237308860276
 30
0.0
 41
1.0
 10
116.9492933527854
 20
104.1988572678692
 30
0.0
 41
1.0
 10
116.9492933524907
 20
104.1737358808259
 30
0.0
 41
1.0
  0
ELLIPSE
  5
AC
330
81
100
AcDbEntity
  8
MD_狭い可視
100
AcDbEllipse
 10
116.5541054874666
 20
104.2735111314141
 30
0.0
 11
0.3280034902802479
 21
-0.2289404078881126
 31
0.0
210
0.0
220
0.0
230
1.0
 40
0.9966630509587309
 41
0.6109397233092102
 42
2.178598537296706
  0
ELLIPSE
  5
AD
330
81
100
AcDbEntity
  8
MD_狭い可視
100
AcDbEllipse
 10
116.5544194627709
 20
104.1737458368588
 30
0.0
 11
-0.0000000000000006
 21
-0.5000091749428598
 31
0.0
210
0.0
220
0.0
230
-1.0
 40
0.0093745880398526
 41
0.0670333031895426
 42
1.570776415094329
  0
LINE
  5
AE
330
81
100
AcDbEntity
  8
MD_狭い可視
100
AcDbLine
 10
116.5497320827435
 20
104.1737358808259
 30
0.0
 11
105.4631105067255
 21
104.1737358808259
 31
0.0
  0
ELLIPSE
  5
AF
330
81
100
AcDbEntity
  8
MD_狭い可視
100
AcDbEllipse
 10
105.4584231266908
 20
104.1737458368588
 30
0.0
 11
-0.0000000000000017
 21
0.5000091749428599
 31
0.0
210
0.0
220
0.0
230
-1.0
 40
0.0093745880398446
 41
1.570816238495935
 42
3.074559350400721
  0
LINE
  5
B0
330
81
100
AcDbEntity
  8
MD_狭い可視
100
AcDbLine
 10
116.5541054874702
 20
103.6748596278685
 30
0.0
 11
105.4587371019988
 21
103.6748596278685
 31
0.0
  0
LINE
  5
B1
330
81
100
AcDbEntity
  8
MD_可視
100
AcDbLine
 10
112.9734212947351
 20
98.14873588082628
 30
0.0
 11
113.7564212947345
 21
99.49873588082665
 31
0.0
  0
LINE
  5
B2
330
81
100
AcDbEntity
  8
MD_可視
100
AcDbLine
 10
117.3814212947345
 20
103.598735880827
 30
0.0
 11
117.0064212947345
 21
103.598735880827
 31
0.0
  0
LINE
  5
B3
330
81
100
AcDbEntity
  8
MD_可視
100
AcDbLine
 10
117.0064212947673
 20
103.9983790575934
 30
0.0
 11
117.0064212947345
 21
103.598735880827
 31
0.0
  0
ELLIPSE
  5
B4
330
81
100
AcDbEntity
  8
MD_可視
100
AcDbEllipse
 10
116.6059820827577
 20
103.9996369035398
 30
0.0
 11
-0.2297069250690352
 21
0.3291016880485927
 31
0.0
210
0.0
220
0.0
230
-1.0
 40
0.9966630509731617
 41
2.181736080264273
 42
3.749394854551643
  0
LINE
  5
B5
330
81
100
AcDbEntity
  8
MD_可視
100
AcDbLine
 10
116.6072384638392
 20
103.598735880827
 30
0.0
 11
105.4056041256299
 21
103.598735880827
 31
0.0
  0
ELLIPSE
  5
B6
330
81
100
AcDbEntity
  8
MD_可視
100
AcDbEllipse
 10
105.4068605067113
 20
103.9996369035398
 30
0.0
 11
0.2297069250680591
 21
0.3291016880491809
 31
0.0
210
0.0
220
0.0
230
-1.0
 40
0.9966630509732771
 41
2.533790452633553
 42
4.101449226921085
  0
LINE
  5
B7
330
81
100
AcDbEntity
  8
MD_可視
100
AcDbLine
 10
105.0064212947018
 20
103.9983790575934
 30
0.0
 11
105.0064212947345
 21
103.598735880827
 31
0.0
  0
LINE
  5
B8
330
81
100
AcDbEntity
  8
MD_可視
100
AcDbLine
 10
105.0064212947345
 20
103.598735880827
 30
0.0
 11
104.6314212947345
 21
103.598735880827
 31
0.0
  0
LINE
  5
B9
330
81
100
AcDbEntity
  8
MD_可視
100
AcDbLine
 10
108.2564212947345
 20
99.49873588082665
 30
0.0
 11
109.039421294734
 21
98.14873588082628
 31
0.0
  0
LINE
  5
BA
330
81
100
AcDbEntity
  8
MD_可視
100
AcDbLine
 10
109.7564212947345
 20
99.49873588082665
 30
0.0
 11
108.2564212947345
 21
99.49873588082665
 31
0.0
  0
LINE
  5
BB
330
81
100
AcDbEntity
  8
MD_可視
100
AcDbLine
 10
109.7564212947345
 20
101.8987358808262
 30
0.0
 11
109.7564212947345
 21
99.49873588082665
 31
0.0
  0
LINE
  5
BC
330
81
100
AcDbEntity
  8
MD_可視
100
AcDbLine
 10
112.2564212947345
 20
101.8987358808262
 30
0.0
 11
109.7564212947345
 21
101.8987358808262
 31
0.0
  0
LINE
  5
BD
330
81
100
AcDbEntity
  8
MD_可視
100
AcDbLine
 10
112.2564212947345
 20
99.49873588082665
 30
0.0
 11
112.2564212947345
 21
101.8987358808262
 31
0.0
  0
LINE
  5
BE
330
81
100
AcDbEntity
  8
MD_可視
100
AcDbLine
 10
113.7564212947345
 20
99.49873588082665
 30
0.0
 11
112.2564212947345
 21
99.49873588082665
 31
0.0
  0
LINE
  5
BF
330
81
100
AcDbEntity
  8
MD_狭い可視
100
AcDbLine
 10
116.5541054874702
 20
104.6726121337833
 30
0.0
 11
105.4587371019988
 21
104.6726121337833
 31
0.0
  0
ELLIPSE
  5
C0
330
81
100
AcDbEntity
  8
MD_狭い可視
100
AcDbEllipse
 10
105.4584231266963
 20
104.1737259247948
 30
0.0
 11
0.0000000000000042
 21
0.500009174942861
 31
0.0
210
0.0
220
0.0
230
-1.0
 40
0.009374588039846
 41
0.0670333031880321
 42
1.570776415092816
  0
LINE
  5
C1
330
81
100
AcDbEntity
  8
MD_狭い可視
100
AcDbLine
 10
105.4323793435142
 20
104.7103749597481
 30
0.0
 11
105.4587371019988
 21
104.6726121337833
 31
0.0
  0
LINE
  5
C2
330
81
100
AcDbEntity
  8
MD_狭い可視
100
AcDbLine
 10
116.5541054874702
 20
104.6726121337833
 30
0.0
 11
116.5804632459549
 21
104.7103749597481
 31
0.0
  0
LINE
  5
C3
330
81
100
AcDbEntity
  8
MD_狭い可視
100
AcDbLine
 10
105.4587371019988
 20
103.6748596278685
 30
0.0
 11
105.4056041256299
 21
103.598735880827
 31
0.0
  0
LINE
  5
C4
330
81
100
AcDbEntity
  8
MD_狭い可視
100
AcDbLine
 10
116.6072384638392
 20
103.598735880827
 30
0.0
 11
116.5541054874702
 21
103.6748596278685
 31
0.0
  0
LINE
  5
C5
330
81
100
AcDbEntity
  8
MD_可視
100
AcDbLine
 10
105.0064212947345
 20
104.348735880827
 30
0.0
 11
105.0064212947018
 21
103.9983790575934
 31
0.0
  0
LINE
  5
C6
330
81
100
AcDbEntity
  8
MD_可視
100
AcDbLine
 10
117.0064212947345
 20
104.348735880827
 30
0.0
 11
117.0064212947673
 21
103.9983790575934
 31
0.0
  0
SPLINE
  5
C7
330
81
100
AcDbEntity
  8
MD_狭い可視
100
AcDbSpline
210
0.0
220
0.0
230
1.0
 70
    12
 71
     3
 72
    10
 73
     6
 74
     0
 42
0.000000001
 43
0.0000000001
 40
0.0
 40
0.0
 40
0.0
 40
0.0
 40
0.751869545310789
 40
0.751869545310789
 40
1.503739090621578
 40
1.503739090621578
 40
1.503739090621578
 40
1.503739090621578
 10
116.9492933524907
 20
104.1737358808259
 30
0.0
 41
1.0
 10
116.9492933527854
 20
104.1486144937826
 30
0.0
 41
1.0
 10
116.9497546615712
 20
104.1237408756242
 30
0.0
 41
1.0
 10
116.9513594193213
 20
104.0871297873309
 30
0.0
 41
1.0
 10
116.9524918377319
 20
104.0756439465694
 30
0.0
 41
1.0
 10
116.9536667572174
 20
104.0739606302359
 30
0.0
 41
1.0
  0
LINE
  5
C8
330
81
100
AcDbEntity
  8
MD_狭い可視
100
AcDbLine
 10
116.9536667572174
 20
104.0739606302359
 30
0.0
 11
117.0064212947673
 21
103.9983790575934
 31
0.0
  0
LINE
  5
C9
330
81
100
AcDbEntity
  8
MD_可視
100
AcDbLine
 10
117.0064212947345
 20
104.3490925416627
 30
0.0
 11
117.0064212947345
 21
104.348735880827
 31
0.0
  0
LINE
  5
CA
330
81
100
AcDbEntity
  8
MD_狭い可視
100
AcDbLine
 10
117.0064212151264
 20
104.3490925741243
 30
0.0
 11
116.9536667572174
 21
104.2735111314177
 31
0.0
  0
LINE
  5
CB
330
81
100
AcDbEntity
  8
MD_狭い可視
100
AcDbLine
 10
105.0064212947018
 20
103.9983790575934
 30
0.0
 11
105.0591758322516
 21
104.0739606302359
 31
0.0
  0
SPLINE
  5
CC
330
81
100
AcDbEntity
  8
MD_狭い可視
100
AcDbSpline
210
0.0
220
0.0
230
1.0
 70
    12
 71
     3
 72
    14
 73
    10
 74
     0
 42
0.000000001
 43
0.0000000001
 40
1.637853562968215
 40
1.637853562968215
 40
1.637853562968215
 40
1.637853562968215
 40
2.389723108279003
 40
2.389723108279003
 40
3.141592653589791
 40
3.141592653589791
 40
3.893462198900579
 40
3.893462198900579
 40
4.645331744211366
 40
4.645331744211366
 40
4.645331744211366
 40
4.645331744211366
 10
105.0591758322516
 20
104.0739606302359
 30
0.0
 41
1.0
 10
105.0603507517371
 20
104.0756439465694
 30
0.0
 41
1.0
 10
105.0614831701477
 20
104.0871297873309
 30
0.0
 41
1.0
 10
105.0630879278978
 20
104.1237408756242
 30
0.0
 41
1.0
 10
105.0635492369783
 20
104.1486739803531
 30
0.0
 41
1.0
 10
105.0635492369783
 20
104.1987977813005
 30
0.0
 41
1.0
 10
105.0630879278978
 20
104.2237308860276
 30
0.0
 41
1.0
 10
105.0614831701477
 20
104.2603419743227
 30
0.0
 41
1.0
 10
105.0603507517371
 20
104.2718278150841
 30
0.0
 41
1.0
 10
105.0591758322516
 20
104.2735111314177
 30
0.0
 41
1.0
  0
LINE
  5
CD
330
81
100
AcDbEntity
  8
MD_狭い可視
100
AcDbLine
 10
105.0591758322516
 20
104.2735111314177
 30
0.0
 11
105.0064213743426
 21
104.3490925741243
 31
0.0
  0
LINE
  5
CE
330
81
100
AcDbEntity
  8
MD_可視
100
AcDbLine
 10
105.0064212947345
 20
104.3490925416627
 30
0.0
 11
105.0064212947345
 21
104.348735880827
 31
0.0
  0
SPLINE
  5
CF
330
81
100
AcDbEntity
  8
MD_可視
100
AcDbSpline
210
0.0
220
0.0
230
1.0
 70
     8
 71
     3
 72
    22
 73
    18
 74
     0
 42
0.000000001
 43
0.0000000001
 40
-1.891892054137677
 40
-1.891892054137677
 40
-1.891892054137677
 40
-1.891892054137677
 40
-1.890229944620886
 40
-1.890229944620886
 40
-1.888653988051605
 40
-1.888653988051605
 40
-1.887438343873707
 40
-1.887438343873707
 40
-1.884475010986699
 40
-1.884475010986699
 40
-1.878205323582798
 40
-1.878205323582798
 40
-1.865913150172649
 40
-1.865913150172649
 40
-1.853620976762501
 40
-1.853620976762501
 40
-1.85147171817914
 40
-1.85147171817914
 40
-1.85147171817914
 40
-1.85147171817914
 10
105.2127950888516
 20
104.698694041308
 30
0.0
 10
105.2075375475669
 20
104.6958060874549
 30
0.0
 10
105.2024559706333
 20
104.6928707970946
 30
0.0
 10
105.193248112937
 20
104.6872396313247
 30
0.0
 10
105.1879406412336
 20
104.6838385504597
 30
0.0
 10
105.1802132330504
 20
104.6786545559971
 30
0.0
 10
105.1762196351446
 20
104.6758805209028
 30
0.0
 10
105.1649093574869
 20
104.6677492863673
 30
0.0
 10
105.1555658510879
 20
104.6604554932309
 30
0.0
 10
105.1320725444711
 20
104.6405740709742
 30
0.0
 10
105.1143468882819
 20
104.6228331167967
 30
0.0
 10
105.0744189444249
 20
104.5755689729794
 30
0.0
 10
105.0510319672776
 20
104.5375084997158
 30
0.0
 10
105.018492038298
 20
104.4557291876935
 30
0.0
 10
105.009338768783
 20
104.4120105148085
 30
0.0
 10
105.0066468315872
 20
104.3639570649975
 30
0.0
 10
105.0064397644473
 20
104.3565938245428
 30
0.0
 10
105.0064214537142
 20
104.3490925093483
 30
0.0
  0
ELLIPSE
  5
D0
330
81
100
AcDbEntity
  8
MD_狭い可視
100
AcDbEllipse
 10
105.4587371019988
 20
104.2735111314159
 30
0.0
 11
0.328003490280246
 21
0.2289404078881155
 31
0.0
210
0.0
220
0.0
230
1.0
 40
0.9966630509587306
 41
0.9629941162930602
 42
2.530652930280556
  0
ELLIPSE
  5
D1
330
81
100
AcDbEntity
  8
MD_狭い可視
100
AcDbEllipse
 10
105.4587371019952
 20
104.0739606302304
 30
0.0
 11
0.3280034902802496
 21
-0.2289404078881099
 31
0.0
210
0.0
220
0.0
230
-1.0
 40
0.9966630509587307
 41
0.9629941162931105
 42
2.530652930280606
  0
SPLINE
  5
D2
330
81
100
AcDbEntity
  8
MD_可視
100
AcDbSpline
210
0.0
220
0.0
230
1.0
 70
     8
 71
     3
 72
    22
 73
    18
 74
     0
 42
0.000000001
 43
0.0000000001
 40
-0.1050286456884622
 40
-0.1050286456884622
 40
-0.1050286456884622
 40
-0.1050286456884622
 40
-0.1028793871050974
 40
-0.1028793871050974
 40
-0.0905872136949512
 40
-0.0905872136949512
 40
-0.0782950402848049
 40
-0.0782950402848049
 40
-0.0720253528809049
 40
-0.0720253528809049
 40
-0.0690620199938976
 40
-0.0690620199938976
 40
-0.0678463758159991
 40
-0.0678463758159991
 40
-0.0662704192467191
 40
-0.0662704192467191
 40
-0.0646083097300372
 40
-0.0646083097300372
 40
-0.0646083097300372
 40
-0.0646083097300372
 10
117.0064211357548
 20
104.3490925093483
 30
0.0
 10
117.0064028250217
 20
104.3565938245428
 30
0.0
 10
117.0061957578818
 20
104.3639570649975
 30
0.0
 10
117.0035038206861
 20
104.4120105148085
 30
0.0
 10
116.994350551171
 20
104.4557291876935
 30
0.0
 10
116.9618106221915
 20
104.5375084997158
 30
0.0
 10
116.9384236450441
 20
104.5755689729794
 30
0.0
 10
116.8984957011871
 20
104.6228331167967
 30
0.0
 10
116.8807700449979
 20
104.6405740709742
 30
0.0
 10
116.8572767383812
 20
104.6604554932309
 30
0.0
 10
116.8479332319821
 20
104.6677492863673
 30
0.0
 10
116.8366229543244
 20
104.6758805209028
 30
0.0
 10
116.8326293564187
 20
104.6786545559971
 30
0.0
 10
116.8249019482355
 20
104.6838385504597
 30
0.0
 10
116.819594476532
 20
104.6872396313247
 30
0.0
 10
116.8103866188357
 20
104.6928707970946
 30
0.0
 10
116.8053050419039
 20
104.6958060874549
 30
0.0
 10
116.8000475006192
 20
104.6986940413062
 30
0.0
  0
ELLIPSE
  5
D3
330
81
100
AcDbEntity
  8
MD_狭い可視
100
AcDbEllipse
 10
116.5541054874684
 20
104.0739606302359
 30
0.0
 11
0.328003490280248
 21
0.2289404078881123
 31
0.0
210
0.0
220
0.0
230
-1.0
 40
0.9966630509587306
 41
0.6109397233092078
 42
2.178598537296704
  0
LINE
  5
D4
330
81
100
AcDbEntity
  8
MD_可視
100
AcDbLine
 10
113.0064212947345
 20
98.14873588082628
 30
0.0
 11
109.0064212947345
 21
98.14873588082628
 31
0.0
  0
LINE
  5
D5
330
81
100
AcDbEntity
  8
MD_可視
100
AcDbLine
 10
113.0064212947345
 20
98.14873588082628
 30
0.0
 11
117.3814212947345
 21
98.14873588082628
 31
0.0
  0
LINE
  5
D6
330
81
100
AcDbEntity
  8
MD_可視
100
AcDbLine
 10
104.6314212947345
 20
98.14873588082628
 30
0.0
 11
109.0064212947345
 21
98.14873588082628
 31
0.0
  0
LINE
  5
D7
330
81
100
AcDbEntity
  8
MD_狭い可視
100
AcDbLine
 10
117.3814212947345
 20
97.94873588082737
 30
0.0
 11
112.8922467830998
 21
97.94873588082737
 31
0.0
  0
LINE
  5
D8
330
81
100
AcDbEntity
  8
MD_可視
100
AcDbLine
 10
111.1801115090329
 20
94.9495809038599
 30
0.0
 11
112.8922467830998
 21
97.94873588082737
 31
0.0
  0
ARC
  5
D9
330
81
100
AcDbEntity
  8
MD_可視
100
AcDbCircle
 10
111.0064212947345
 20
95.04873588082592
 30
0.0
 40
0.2000000000000004
100
AcDbArc
 50
209.720860107467
 51
330.2791398920676
  0
LINE
  5
DA
330
81
100
AcDbEntity
  8
MD_可視
100
AcDbLine
 10
109.1205958063692
 20
97.94873588082737
 30
0.0
 11
110.8327310804361
 21
94.9495809038599
 31
0.0
  0
LINE
  5
DB
330
81
100
AcDbEntity
  8
MD_狭い可視
100
AcDbLine
 10
109.1205958063692
 20
97.94873588082737
 30
0.0
 11
104.6314212947345
 21
97.94873588082737
 31
0.0
  0
LINE
  5
DC
330
81
100
AcDbEntity
  8
MD_可視
100
AcDbLine
 10
113.0064212947345
 20
98.14873588082811
 30
0.0
 11
112.8922467830998
 21
97.94873588082737
 31
0.0
  0
LINE
  5
DD
330
81
100
AcDbEntity
  8
MD_可視
100
AcDbLine
 10
109.1205958063692
 20
97.94873588082737
 30
0.0
 11
109.0064212947345
 21
98.14873588082811
 31
0.0
  0
LINE
  5
DE
330
81
100
AcDbEntity
  8
MD_可視
100
AcDbLine
 10
93.50642129473454
 20
90.49873588082665
 30
0.0
 11
95.90642129473236
 21
90.49873588082665
 31
0.0
  0
LINE
  5
DF
330
81
100
AcDbEntity
  8
MD_可視
100
AcDbLine
 10
126.2164718010735
 20
109.2987358808259
 30
0.0
 11
126.0064212947345
 21
109.2987358808259
 31
0.0
  0
LINE
  5
E0
330
81
100
AcDbEntity
  8
MD_可視
100
AcDbLine
 10
117.9036496275639
 20
109.2987358808259
 30
0.0
 11
116.6935991212249
 21
109.2987358808259
 31
0.0
  0
LINE
  5
E1
330
81
100
AcDbEntity
  8
MD_可視
100
AcDbLine
 10
117.9036496275639
 20
109.2987358808259
 30
0.0
 11
126.0064212947345
 21
109.2987358808259
 31
0.0
  0
LINE
  5
E2
330
81
100
AcDbEntity
  8
MD_可視
100
AcDbLine
 10
96.00642129473454
 20
109.2987358808259
 30
0.0
 11
95.79637078839551
 21
109.2987358808259
 31
0.0
  0
LINE
  5
E3
330
81
100
AcDbEntity
  8
MD_可視
100
AcDbLine
 10
96.00642129473454
 20
109.2987358808259
 30
0.0
 11
104.1091929619051
 21
109.2987358808259
 31
0.0
  0
LINE
  5
E4
330
81
100
AcDbEntity
  8
MD_可視
100
AcDbLine
 10
105.3192434682441
 20
109.2987358808259
 30
0.0
 11
104.1091929619051
 21
109.2987358808259
 31
0.0
  0
LINE
  5
E5
330
81
100
AcDbEntity
  8
MD_可視
100
AcDbLine
 10
125.1064212947349
 20
104.6987358808273
 30
0.0
 11
119.0955229098726
 21
104.6987358808273
 31
0.0
  0
LINE
  5
E6
330
81
100
AcDbEntity
  8
MD_可視
100
AcDbLine
 10
117.0955229098726
 20
104.6987358808273
 30
0.0
 11
119.0955229098726
 21
104.6987358808273
 31
0.0
  0
LINE
  5
E7
330
81
100
AcDbEntity
  8
MD_可視
100
AcDbLine
 10
117.0955229098726
 20
104.6987358808273
 30
0.0
 11
116.6749991241031
 21
104.6987358808273
 31
0.0
  0
LINE
  5
E8
330
81
100
AcDbEntity
  8
MD_可視
100
AcDbLine
 10
105.3378434653659
 20
104.6987358808273
 30
0.0
 11
104.9173196795964
 21
104.6987358808273
 31
0.0
  0
LINE
  5
E9
330
81
100
AcDbEntity
  8
MD_可視
100
AcDbLine
 10
102.9173196795964
 20
104.6987358808273
 30
0.0
 11
104.9173196795964
 21
104.6987358808273
 31
0.0
  0
LINE
  5
EA
330
81
100
AcDbEntity
  8
MD_可視
100
AcDbLine
 10
102.9173196795964
 20
104.6987358808273
 30
0.0
 11
96.90642129473417
 21
104.6987358808273
 31
0.0
  0
LINE
  5
EB
330
81
100
AcDbEntity
  8
MD_狭い可視
100
AcDbLine
 10
126.0064212947345
 20
104.1346257751811
 30
0.0
 11
126.0064212947345
 21
107.0087863871649
 31
0.0
  0
LINE
  5
EC
330
81
100
AcDbEntity
  8
MD_狭い可視
100
AcDbLine
 10
126.0064212947345
 20
107.0087863871649
 30
0.0
 11
119.6469601942281
 21
107.0087863871649
 31
0.0
  0
LINE
  5
ED
330
81
100
AcDbEntity
  8
MD_可視
100
AcDbLine
 10
119.0955229098726
 20
104.6987358808273
 30
0.0
 11
119.6469601942281
 21
107.0087863871649
 31
0.0
  0
ARC
  5
EE
330
81
100
AcDbEntity
  8
MD_可視
100
AcDbCircle
 10
125.1064212947349
 20
103.6987358808273
 30
0.0
 40
1.000000000000001
100
AcDbArc
 50
25.84193276315984
 51
90.0
  0
LINE
  5
EF
330
81
100
AcDbEntity
  8
MD_可視
100
AcDbLine
 10
102.365882395241
 20
107.0087863871649
 30
0.0
 11
102.9173196795964
 21
104.6987358808273
 31
0.0
  0
LINE
  5
F0
330
81
100
AcDbEntity
  8
MD_狭い可視
100
AcDbLine
 10
102.365882395241
 20
107.0087863871649
 30
0.0
 11
96.00642129473454
 21
107.0087863871649
 31
0.0
  0
LINE
  5
F1
330
81
100
AcDbEntity
  8
MD_狭い可視
100
AcDbLine
 10
96.00642129473454
 20
107.0087863871649
 30
0.0
 11
96.00642129473454
 21
104.1346257751811
 31
0.0
  0
ARC
  5
F2
330
81
100
AcDbEntity
  8
MD_可視
100
AcDbCircle
 10
96.90642129473417
 20
103.6987358808273
 30
0.0
 40
1.000000000000001
100
AcDbArc
 50
90.0
 51
154.1580672368402
  0
LINE
  5
F3
330
81
100
AcDbEntity
  8
MD_可視
100
AcDbLine
 10
93.50642129473454
 20
90.49873588082665
 30
0.0
 11
93.50642129473454
 21
107.0087863871649
 31
0.0
  0
LINE
  5
F4
330
81
100
AcDbEntity
  8
MD_可視
100
AcDbLine
 10
128.5064212947345
 20
107.0087863871649
 30
0.0
 11
128.5064212947345
 21
90.49873588082665
 31
0.0
  0
LINE
  5
F5
330
81
100
AcDbEntity
  8
MD_狭い可視
100
AcDbLine
 10
93.50642129473454
 20
107.0087863871649
 30
0.0
 11
96.00642129473454
 21
107.0087863871649
 31
0.0
  0
LINE
  5
F6
330
81
100
AcDbEntity
  8
MD_可視
100
AcDbLine
 10
95.90642129473417
 20
90.49873588082665
 30
0.0
 11
95.90642129473417
 21
103.6987358808273
 31
0.0
  0
SPLINE
  5
F7
330
81
100
AcDbEntity
  8
MD_可視
100
AcDbSpline
210
0.0
220
0.0
230
1.0
 70
     8
 71
     3
 72
    10
 73
     6
 74
     0
 42
0.000000001
 43
0.0000000001
 40
-0.6405596012243866
 40
-0.6405596012243866
 40
-0.6405596012243866
 40
-0.6405596012243866
 40
-0.6027952639869301
 40
-0.6027952639869301
 40
-0.5973781012685709
 40
-0.5973781012685709
 40
-0.5973781012685709
 40
-0.5973781012685709
 10
95.90642129473417
 20
103.6987358808273
 30
0.0
 10
95.90642129473417
 20
103.8246170049515
 30
0.0
 10
95.93164283842634
 20
103.9588370498877
 30
0.0
 10
95.99021894541328
 20
104.0999097382919
 30
0.0
 10
95.9981025418183
 20
104.1173843124179
 30
0.0
 10
96.00642129473454
 20
104.1346257751811
 30
0.0
  0
LINE
  5
F8
330
81
100
AcDbEntity
  8
MD_狭い可視
100
AcDbLine
 10
126.0064212947345
 20
107.0087863871649
 30
0.0
 11
128.5064212947345
 21
107.0087863871649
 31
0.0
  0
SPLINE
  5
F9
330
81
100
AcDbEntity
  8
MD_可視
100
AcDbSpline
210
0.0
220
0.0
230
1.0
 70
     8
 71
     3
 72
    10
 73
     6
 74
     0
 42
0.000000001
 43
0.0000000001
 40
-0.3634613005680091
 40
-0.3634613005680091
 40
-0.3634613005680091
 40
-0.3634613005680091
 40
-0.3580441378496499
 40
-0.3580441378496499
 40
-0.3202798006121934
 40
-0.3202798006121934
 40
-0.3202798006121934
 40
-0.3202798006121934
 10
126.0064212947345
 20
104.1346257751811
 30
0.0
 10
126.0147400476508
 20
104.1173843124179
 30
0.0
 10
126.0226236440558
 20
104.0999097382919
 30
0.0
 10
126.0811997510427
 20
103.9588370498877
 30
0.0
 10
126.1064212947349
 20
103.8246170049515
 30
0.0
 10
126.1064212947349
 20
103.6987358808273
 30
0.0
  0
LINE
  5
FA
330
81
100
AcDbEntity
  8
MD_可視
100
AcDbLine
 10
126.1064212947349
 20
103.6987358808273
 30
0.0
 11
126.1064212947349
 21
90.49873588082665
 31
0.0
  0
LINE
  5
FB
330
81
100
AcDbEntity
  8
MD_可視
100
AcDbLine
 10
126.1064212947367
 20
90.49873588082665
 30
0.0
 11
128.5064212947345
 21
90.49873588082665
 31
0.0
  0
ELLIPSE
  5
FC
330
81
100
AcDbEntity
  8
MD_狭い可視
100
AcDbEllipse
 10
96.0064583806543
 20
101.3383317371081
 30
0.0
 11
0.100037085960049
 21
-0.0000191650365004
 31
0.0
210
0.0
220
0.0
230
1.0
 40
0.3884706700036809
 41
3.14158842206355
 42
4.712092681602286
  0
SPLINE
  5
FD
330
81
100
AcDbEntity
  8
MD_狭い可視
100
AcDbSpline
210
0.0
220
0.0
230
1.0
 70
     8
 71
     3
 72
    26
 73
    22
 74
     0
 42
0.000000001
 43
0.0000000001
 40
0.0
 40
0.0
 40
0.0
 40
0.0
 40
0.0000151426530186
 40
0.0000151426530186
 40
0.0000151426530186
 40
0.00003247091366
 40
0.00003247091366
 40
0.00003247091366
 40
0.0000454671091411
 40
0.0000454671091411
 40
0.0000454671091411
 40
0.0000684660269203
 40
0.0000684660269203
 40
0.0000684660269203
 40
0.0000821151001784
 40
0.0000821151001784
 40
0.0000821151001784
 40
0.0001259979208322
 40
0.0001259979208322
 40
0.0001259979208322
 40
0.0001648621793909
 40
0.0001648621793909
 40
0.0001648621793909
 40
0.0001648621793909
 10
126.0064212947345
 20
101.2994702706855
 30
0.0
 10
126.0114688457415
 20
101.2994702706855
 30
0.0
 10
126.0165326726983
 20
101.2996209713274
 30
0.0
 10
126.0214776589601
 20
101.2999142922981
 30
0.0
 10
126.0271363774645
 20
101.3002499496124
 30
0.0
 10
126.0327122342569
 20
101.3007802464708
 30
0.0
 10
126.0381150825578
 20
101.3014833765173
 30
0.0
 10
126.0421672187822
 20
101.3020107240518
 30
0.0
 10
126.0461217613792
 20
101.3026357290164
 30
0.0
 10
126.049925113155
 20
101.3033492939466
 30
0.0
 10
126.0566557732854
 20
101.3046120651306
 30
0.0
 10
126.062938328414
 20
101.3061628739633
 30
0.0
 10
126.0687094157474
 20
101.3079513592929
 30
0.0
 10
126.0721343592413
 20
101.3090127643354
 30
0.0
 10
126.075370170236
 20
101.3101528369334
 30
0.0
 10
126.0783691997348
 20
101.3113611955268
 30
0.0
 10
126.0880113103176
 20
101.3152461613772
 30
0.0
 10
126.0954068348037
 20
101.3198732056116
 30
0.0
 10
126.1001110119396
 20
101.3247723420172
 30
0.0
 10
126.1042772062228
 20
101.3291111994804
 30
0.0
 10
126.1064212947349
 20
101.3337639600268
 30
0.0
 10
126.1064212947349
 20
101.3383510665899
 30
0.0
  0
SPLINE
  5
FE
330
81
100
AcDbEntity
  8
MD_狭い可視
100
AcDbSpline
210
0.0
220
0.0
230
1.0
 70
     8
 71
     3
 72
     8
 73
     4
 74
     0
 42
0.000000001
 43
0.0000000001
 40
0.0
 40
0.0
 40
0.0
 40
0.0
 40
0.0000991794118899
 40
0.0000991794118899
 40
0.0000991794118899
 40
0.0000991794118899
 10
96.00642129473454
 20
100.3663999421878
 30
0.0
 10
95.972933291534
 20
100.3663999629225
 30
0.0
 10
95.93956407164478
 20
100.3664535951175
 30
0.0
 10
95.90640905767031
 20
100.3665597770268
 30
0.0
  0
SPLINE
  5
FF
330
81
100
AcDbEntity
  8
MD_狭い可視
100
AcDbSpline
210
0.0
220
0.0
230
1.0
 70
     8
 71
     3
 72
     8
 73
     4
 74
     0
 42
0.000000001
 43
0.0000000001
 40
0.0016187595023288
 40
0.0016187595023288
 40
0.0016187595023288
 40
0.0016187595023288
 40
0.0017175971973151
 40
0.0017175971973151
 40
0.0017175971973151
 40
0.0017175971973151
 10
126.106463192038
 20
100.3665639037808
 30
0.0
 10
126.0732841653771
 20
100.3664552207538
 30
0.0
 10
126.039899752086
 20
100.3663999515101
 30
0.0
 10
126.0064212947345
 20
100.3663999421878
 30
0.0
  0
LINE
  5
100
330
81
100
AcDbEntity
  8
MD_可視
100
AcDbLine
 10
95.90642129473417
 20
90.49873588082665
 30
0.0
 11
95.90642129473417
 21
89.99873588082664
 31
0.0
  0
LINE
  5
101
330
81
100
AcDbEntity
  8
MD_可視
100
AcDbLine
 10
126.1064212947349
 20
90.49873588082665
 30
0.0
 11
126.1064212947349
 21
89.99873588082664
 31
0.0
  0
LINE
  5
102
330
81
100
AcDbEntity
  8
MD_可視
100
AcDbLine
 10
117.0955229098726
 20
104.6987358808273
 30
0.0
 11
116.6935991212249
 21
109.2987358808259
 31
0.0
  0
LINE
  5
103
330
81
100
AcDbEntity
  8
MD_可視
100
AcDbLine
 10
116.6935991212249
 20
109.2987358808259
 30
0.0
 11
105.3192434682441
 21
109.2987358808259
 31
0.0
  0
LINE
  5
104
330
81
100
AcDbEntity
  8
MD_可視
100
AcDbLine
 10
104.9173196795964
 20
104.6987358808273
 30
0.0
 11
105.3192434682441
 21
109.2987358808259
 31
0.0
  0
LINE
  5
105
330
81
100
AcDbEntity
  8
MD_可視
100
AcDbLine
 10
94.00642129473453
 20
90.49873588082665
 30
0.0
 11
94.00642129473453
 21
89.99873588082664
 31
0.0
  0
LINE
  5
106
330
81
100
AcDbEntity
  8
MD_可視
100
AcDbLine
 10
128.0064212947345
 20
90.49873588082665
 30
0.0
 11
128.0064212947345
 21
89.99873588082664
 31
0.0
  0
LINE
  5
107
330
81
100
AcDbEntity
  8
MD_可視
100
AcDbLine
 10
103.6631602483849
 20
109.0937106276578
 30
0.0
 11
102.4527511278211
 21
107.5037611339958
 31
0.0
  0
ELLIPSE
  5
108
330
81
100
AcDbEntity
  8
MD_可視
100
AcDbEllipse
 10
103.0658823952399
 20
107.0087863871667
 30
0.0
 11
-0.5896812803295136
 21
0.5234846277760122
 31
0.0
210
0.0
220
0.0
230
1.0
 40
0.7880852220915065
 41
0.0593970640400481
 42
0.8447952274383784
  0
ELLIPSE
  5
109
330
81
100
AcDbEntity
  8
MD_可視
100
AcDbEllipse
 10
104.2762915158037
 20
108.5987358808324
 30
0.0
 11
-0.5896812803301255
 21
0.5234846277689894
 31
0.0
210
0.0
220
0.0
230
1.0
 40
0.7880852220933934
 41
-0.7260010993653481
 42
0.0593970640352257
  0
ELLIPSE
  5
10A
330
81
100
AcDbEntity
  8
MD_可視
100
AcDbEllipse
 10
118.9469601942219
 20
107.0087863871631
 30
0.0
 11
0.589681280338691
 21
0.523484627775941
 31
0.0
210
0.0
220
0.0
230
0.9999999999999998
 40
0.788085222088919
 41
5.438390079750598
 42
6.223788243145201
  0
LINE
  5
10B
330
81
100
AcDbEntity
  8
MD_可視
100
AcDbLine
 10
119.5600914616479
 20
107.5037611339958
 30
0.0
 11
118.3496823410842
 21
109.0937106276578
 31
0.0
  0
ELLIPSE
  5
10C
330
81
100
AcDbEntity
  8
MD_可視
100
AcDbEllipse
 10
117.7365510736654
 20
108.5987358808324
 30
0.0
 11
0.5896812803303458
 21
0.5234846277692444
 31
0.0
210
0.0
220
0.0
230
1.0
 40
0.7880852220931799
 41
-0.0593970640332231
 42
0.7260010993672102
  0
LINE
  5
10D
330
81
100
AcDbEntity
  8
MD_可視
100
AcDbLine
 10
98.25642129473454
 20
109.7987358808259
 30
0.0
 11
98.12244669851862
 21
109.7987358808259
 31
0.0
  0
LINE
  5
10E
330
81
100
AcDbEntity
  8
MD_可視
100
AcDbLine
 10
98.25642129473454
 20
109.7987358808259
 30
0.0
 11
123.7564212947345
 21
109.7987358808259
 31
0.0
  0
LINE
  5
10F
330
81
100
AcDbEntity
  8
MD_可視
100
AcDbLine
 10
123.8903958909504
 20
109.7987358808259
 30
0.0
 11
123.7564212947345
 21
109.7987358808259
 31
0.0
  0
ARC
  5
110
330
81
100
AcDbEntity
  8
MD_可視
100
AcDbCircle
 10
123.8903958909504
 20
108.7987358808259
 30
0.0
 40
1.000000000000001
100
AcDbArc
 50
30.00000000001032
 51
90.0
  0
LINE
  5
111
330
81
100
AcDbEntity
  8
MD_狭い可視
100
AcDbLine
 10
123.7564212947345
 20
109.7987358808259
 30
0.0
 11
123.7564212947345
 21
109.2987358808259
 31
0.0
  0
LINE
  5
112
330
81
100
AcDbEntity
  8
MD_狭い可視
100
AcDbLine
 10
98.25642129473454
 20
109.7987358808259
 30
0.0
 11
98.25642129473454
 21
109.2987358808259
 31
0.0
  0
ARC
  5
113
330
81
100
AcDbEntity
  8
MD_可視
100
AcDbCircle
 10
-98.12244669851862
 20
108.7987358808259
 30
0.0
 40
1.000000000000001
210
0.0
220
0.0
230
-1.0
100
AcDbArc
 50
30.00000000001032
 51
90.0
  0
LINE
  5
114
330
81
100
AcDbEntity
  8
MD_狭い可視
100
AcDbLine
 10
96.00642129473454
 20
107.5037611339958
 30
0.0
 11
96.00642129473454
 21
109.0937106276578
 31
0.0
  0
LINE
  5
115
330
81
100
AcDbEntity
  8
MD_狭い可視
100
AcDbLine
 10
96.00642129473454
 20
107.5037611339958
 30
0.0
 11
102.4527511278211
 21
107.5037611339958
 31
0.0
  0
LINE
  5
116
330
81
100
AcDbEntity
  8
MD_狭い可視
100
AcDbLine
 10
103.6631602483849
 20
109.0937106276578
 30
0.0
 11
96.00642129473454
 21
109.0937106276578
 31
0.0
  0
LINE
  5
117
330
81
100
AcDbEntity
  8
MD_可視
100
AcDbLine
 10
93.71144654790441
 20
107.5037611339958
 30
0.0
 11
95.30139604156465
 21
109.0937106276578
 31
0.0
  0
LINE
  5
118
330
81
100
AcDbEntity
  8
MD_狭い可視
100
AcDbLine
 10
96.00642129473454
 20
107.5037611339958
 30
0.0
 11
93.71144654790441
 21
107.5037611339958
 31
0.0
  0
LINE
  5
119
330
81
100
AcDbEntity
  8
MD_狭い可視
100
AcDbLine
 10
95.30139604156465
 20
109.0937106276578
 30
0.0
 11
96.00642129473454
 21
109.0937106276578
 31
0.0
  0
LINE
  5
11A
330
81
100
AcDbEntity
  8
MD_可視
100
AcDbLine
 10
128.3013960415646
 20
107.5037611339958
 30
0.0
 11
126.7114465479044
 21
109.0937106276578
 31
0.0
  0
LINE
  5
11B
330
81
100
AcDbEntity
  8
MD_狭い可視
100
AcDbLine
 10
126.0064212947345
 20
107.5037611339958
 30
0.0
 11
126.0064212947345
 21
109.0937106276578
 31
0.0
  0
LINE
  5
11C
330
81
100
AcDbEntity
  8
MD_狭い可視
100
AcDbLine
 10
128.3013960415646
 20
107.5037611339958
 30
0.0
 11
126.0064212947345
 21
107.5037611339958
 31
0.0
  0
LINE
  5
11D
330
81
100
AcDbEntity
  8
MD_狭い可視
100
AcDbLine
 10
126.0064212947345
 20
109.0937106276578
 30
0.0
 11
126.7114465479044
 21
109.0937106276578
 31
0.0
  0
LINE
  5
11E
330
81
100
AcDbEntity
  8
MD_狭い可視
100
AcDbLine
 10
119.5600914616479
 20
107.5037611339958
 30
0.0
 11
126.0064212947345
 21
107.5037611339958
 31
0.0
  0
LINE
  5
11F
330
81
100
AcDbEntity
  8
MD_狭い可視
100
AcDbLine
 10
126.0064212947345
 20
109.0937106276578
 30
0.0
 11
118.3496823410842
 21
109.0937106276578
 31
0.0
  0
LINE
  5
120
330
81
100
AcDbEntity
  8
MD_狭い可視
100
AcDbLine
 10
126.0064212947345
 20
107.0087863871649
 30
0.0
 11
126.0064212947345
 21
107.5037611339958
 31
0.0
  0
ARC
  5
121
330
81
100
AcDbEntity
  8
MD_可視
100
AcDbCircle
 10
-127.8064212947338
 20
107.0087863871649
 30
0.0
 40
0.6999999999999995
210
0.0
220
0.0
230
-1.0
100
AcDbArc
 50
135.0
 51
180.0
  0
LINE
  5
122
330
81
100
AcDbEntity
  8
MD_狭い可視
100
AcDbLine
 10
126.0064212947345
 20
109.0937106276578
 30
0.0
 11
126.0064212947345
 21
109.2987358808277
 31
0.0
  0
ARC
  5
123
330
81
100
AcDbEntity
  8
MD_可視
100
AcDbCircle
 10
-126.2164718010735
 20
108.598735880827
 30
0.0
 40
0.6999999999999995
210
0.0
220
0.0
230
-1.0
100
AcDbArc
 50
90.0
 51
135.0
  0
LINE
  5
124
330
81
100
AcDbEntity
  8
MD_狭い可視
100
AcDbLine
 10
96.00642129473454
 20
107.5037611339958
 30
0.0
 11
96.00642129473454
 21
107.0087863871649
 31
0.0
  0
ARC
  5
125
330
81
100
AcDbEntity
  8
MD_可視
100
AcDbCircle
 10
-94.20642129473526
 20
107.0087863871649
 30
0.0
 40
0.6999999999999995
210
0.0
220
0.0
230
-1.0
100
AcDbArc
 50
0.0
 51
45.0
  0
LINE
  5
126
330
81
100
AcDbEntity
  8
MD_狭い可視
100
AcDbLine
 10
96.00642129473454
 20
109.2987358808277
 30
0.0
 11
96.00642129473454
 21
109.0937106276578
 31
0.0
  0
ARC
  5
127
330
81
100
AcDbEntity
  8
MD_可視
100
AcDbCircle
 10
-95.79637078839551
 20
108.598735880827
 30
0.0
 40
0.7000000000000012
210
0.0
220
0.0
230
-1.0
100
AcDbArc
 50
45.0
 51
90.0
  0
LINE
  5
128
330
81
100
AcDbEntity
  8
MD_狭い可視
100
AcDbLine
 10
116.5804632459549
 20
104.7103749597481
 30
0.0
 11
105.4323793435142
 21
104.7103749597481
 31
0.0
  0
ELLIPSE
  5
129
330
81
100
AcDbEntity
  8
MD_狭い可視
100
AcDbEllipse
 10
116.5729417604452
 20
104.3004979064335
 30
0.0
 11
0.1375320010410601
 21
0.3875283843391184
 31
0.0
210
0.0
220
0.0
230
1.0
 40
0.9706477809150147
 41
6.376052158177711
 42
6.614932602548979
  0
ELLIPSE
  5
12A
330
81
100
AcDbEntity
  8
MD_狭い可視
100
AcDbEllipse
 10
105.4399008290238
 20
104.3004979064335
 30
0.0
 11
0.1375320010410611
 21
-0.387528384339118
 31
0.0
210
0.0
220
0.0
230
1.0
 40
0.970647780915015
 41
2.809845358220393
 42
3.048725802591646
  0
ENDBLK
  5
12B
330
81
100
AcDbEntity
  8
0
100
AcDbBlockEnd
  0
BLOCK
  5
12F
330
12E
100
AcDbEntity
  8
0
100
AcDbBlockBegin
  2
CustomObjectsInViewport6_0
 70
     0
 10
0.0
 20
0.0
 30
0.0
  3
CustomObjectsInViewport6_0
  1

  0
LINE
  5
130
330
12E
100
AcDbEntity
  8
MD_可視
100
AcDbLine
 10
108.1200825746218
 20
193.1752967692932
 30
0.0
 11
113.8927600148472
 21
193.1752967692932
 31
0.0
210
-0.0000000000000001
220
-1.0
230
-0.0000000000000004
  0
LINE
  5
131
330
12E
100
AcDbEntity
  8
MD_可視
100
AcDbLine
 10
117.3814212947345
 20
132.1752967692932
 30
0.0
 11
117.3814212947345
 21
132.8824035504797
 31
0.0
210
-0.0000000000000001
220
-1.0
230
-0.0000000000000004
  0
LINE
  5
132
330
12E
100
AcDbEntity
  8
MD_可視
100
AcDbLine
 10
117.3814212947345
 20
132.8893983844309
 30
0.0
 11
117.3814212947345
 21
132.8824035504797
 31
0.0
210
-0.0000000000000001
220
-1.0
230
-0.0000000000000004
  0
LINE
  5
133
330
12E
100
AcDbEntity
  8
MD_可視
100
AcDbLine
 10
104.6314212947345
 20
132.8893983844309
 30
0.0
 11
104.6314212947345
 21
132.8824035504797
 31
0.0
210
-0.0000000000000001
220
-1.0
230
-0.0000000000000004
  0
LINE
  5
134
330
12E
100
AcDbEntity
  8
MD_可視
100
AcDbLine
 10
104.6314212947345
 20
132.8824035504797
 30
0.0
 11
104.6314212947345
 21
132.1752967692932
 31
0.0
210
-0.0000000000000001
220
-1.0
230
-0.0000000000000004
  0
LINE
  5
135
330
12E
100
AcDbEntity
  8
MD_可視
100
AcDbLine
 10
104.6314212947345
 20
132.5752967692932
 30
0.0
 11
104.7064212947352
 21
132.5752967692932
 31
0.0
210
-0.0000000000000001
220
-1.0
230
-0.0000000000000004
  0
LINE
  5
136
330
12E
100
AcDbEntity
  8
MD_可視
100
AcDbLine
 10
117.3064212947338
 20
132.5752967692932
 30
0.0
 11
117.3814212947345
 21
132.5752967692932
 31
0.0
210
-0.0000000000000001
220
-1.0
230
-0.0000000000000004
  0
LINE
  5
137
330
12E
100
AcDbEntity
  8
MD_可視
100
AcDbLine
 10
104.6314212947345
 20
132.1752967692932
 30
0.0
 11
105.3239287581036
 21
132.1752967692932
 31
0.0
210
-0.0000000000000001
220
-1.0
230
-0.0000000000000004
  0
LINE
  5
138
330
12E
100
AcDbEntity
  8
MD_可視
100
AcDbLine
 10
116.6889261918149
 20
132.1752967692932
 30
0.0
 11
117.3814212947345
 21
132.1752967692932
 31
0.0
210
-0.0000000000000001
220
-1.0
230
-0.0000000000000004
  0
LINE
  5
139
330
12E
100
AcDbEntity
  8
MD_可視
100
AcDbLine
 10
103.6314212947345
 20
131.1752967692932
 30
0.0
 11
118.3814212947345
 21
131.1752967692932
 31
0.0
210
-0.0000000000000001
220
-1.0
230
-0.0000000000000004
  0
LINE
  5
13A
330
12E
100
AcDbEntity
  8
MD_可視
100
AcDbLine
 10
119.0885280759212
 20
131.1752967692932
 30
0.0
 11
119.0955229098726
 21
131.1752967692932
 31
0.0
210
-0.0000000000000001
220
-1.0
230
-0.0000000000000004
  0
LINE
  5
13B
330
12E
100
AcDbEntity
  8
MD_可視
100
AcDbLine
 10
119.0885280759212
 20
131.1752967692932
 30
0.0
 11
118.3814212947345
 21
131.1752967692932
 31
0.0
210
-0.0000000000000001
220
-1.0
230
-0.0000000000000004
  0
LINE
  5
13C
330
12E
100
AcDbEntity
  8
MD_可視
100
AcDbLine
 10
103.6314212947345
 20
131.1752967692932
 30
0.0
 11
102.9243145135478
 21
131.1752967692932
 31
0.0
210
-0.0000000000000001
220
-1.0
230
-0.0000000000000004
  0
LINE
  5
13D
330
12E
100
AcDbEntity
  8
MD_可視
100
AcDbLine
 10
102.9173196795964
 20
131.1752967692932
 30
0.0
 11
102.9243145135478
 21
131.1752967692932
 31
0.0
210
-0.0000000000000001
220
-1.0
230
-0.0000000000000004
  0
LINE
  5
13E
330
12E
100
AcDbEntity
  8
MD_可視
100
AcDbLine
 10
102.9243145135478
 20
131.1752967692932
 30
0.0
 11
104.6314212947345
 21
132.8824035504797
 31
0.0
210
-0.0000000000000001
220
-1.0
230
-0.0000000000000004
  0
LINE
  5
13F
330
12E
100
AcDbEntity
  8
MD_可視
100
AcDbLine
 10
117.3814212947345
 20
132.8824035504797
 30
0.0
 11
119.0885280759212
 21
131.1752967692932
 31
0.0
210
-0.0000000000000001
220
-1.0
230
-0.0000000000000004
  0
LINE
  5
140
330
12E
100
AcDbEntity
  8
MD_可視
100
AcDbLine
 10
118.3814212947345
 20
131.1752967692932
 30
0.0
 11
117.3814212947345
 21
132.1752967692932
 31
0.0
210
-0.0000000000000001
220
-1.0
230
-0.0000000000000004
  0
LINE
  5
141
330
12E
100
AcDbEntity
  8
MD_可視
100
AcDbLine
 10
104.6314212947345
 20
132.1752967692932
 30
0.0
 11
103.6314212947345
 21
131.1752967692932
 31
0.0
210
-0.0000000000000001
220
-1.0
230
-0.0000000000000004
  0
LINE
  5
142
330
12E
100
AcDbEntity
  8
MD_狭い可視
100
AcDbLine
 10
116.554105487472
 20
132.6167932734291
 30
0.0
 11
116.5497320827453
 21
132.1502967692932
 31
0.0
210
-0.0000000000000001
220
-1.0
230
-0.0000000000000004
  0
ARC
  5
143
330
12E
100
AcDbEntity
  8
MD_可視
100
AcDbCircle
 10
116.5497320827435
 20
132.5502967692932
 30
0.0
 40
0.4000000000000004
100
AcDbArc
 50
270.0
 51
357.316224840531
  0
SPLINE
  5
144
330
12E
100
AcDbEntity
  8
MD_可視
100
AcDbSpline
210
0.0
220
0.0
230
1.0
 70
    28
 71
     3
 72
    10
 73
     6
 74
     0
 42
0.000000001
 43
0.0000000001
 40
4.779446216558008
 40
4.779446216558008
 40
4.779446216558008
 40
4.779446216558008
 40
5.531315761868796
 40
5.531315761868796
 40
6.283185307179586
 40
6.283185307179586
 40
6.283185307179586
 40
6.283185307179586
 10
116.9536667572174
 20
132.6248666356009
 30
0.0
 41
1.0
 10
116.9524918377319
 20
132.599801686589
 30
0.0
 41
1.0
 10
116.9513594193213
 20
132.5756434271298
 30
0.0
 41
1.0
 10
116.9497546615712
 20
132.5414085951437
 30
0.0
 41
1.0
 10
116.9492933527854
 20
132.5315673410538
 30
0.0
 41
1.0
 10
116.9492933524907
 20
132.5315673347738
 30
0.0
 41
1.0
  0
ELLIPSE
  5
145
330
12E
100
AcDbEntity
  8
MD_狭い可視
100
AcDbEllipse
 10
116.5541054874684
 20
132.6435960701205
 30
0.0
 11
0.399561269747935
 21
-0.0187294345194348
 31
0.0
210
0.0
220
0.0
230
-0.9999999999999998
 40
0.0669338261899081
 41
0.0000000000012526
 42
1.567658813988748
  0
LINE
  5
146
330
12E
100
AcDbEntity
  8
MD_可視
100
AcDbLine
 10
116.5497320827435
 20
132.1502967692932
 30
0.0
 11
105.4631105067255
 21
132.1502967692932
 31
0.0
210
-0.0000000000000001
220
-1.0
230
-0.0000000000000004
  0
LINE
  5
147
330
12E
100
AcDbEntity
  8
MD_狭い可視
100
AcDbLine
 10
116.5541054874702
 20
132.6167932734291
 30
0.0
 11
105.4587371019988
 21
132.6167932734291
 31
0.0
210
-0.0000000000000001
220
-1.0
230
-0.0000000000000004
  0
LINE
  5
148
330
12E
100
AcDbEntity
  8
MD_狭い可視
100
AcDbLine
 10
105.4631105067255
 20
132.1502967692932
 30
0.0
 11
105.4587371019988
 21
132.6167932734291
 31
0.0
210
-0.0000000000000001
220
-1.0
230
-0.0000000000000004
  0
LINE
  5
149
330
12E
100
AcDbEntity
  8
MD_狭い可視
100
AcDbLine
 10
105.4323793435142
 20
133.1790921211153
 30
0.0
 11
105.4587371019988
 21
132.6167932734291
 31
0.0
210
-0.0000000000000001
220
-1.0
230
-0.0000000000000004
  0
LINE
  5
14A
330
12E
100
AcDbEntity
  8
MD_狭い可視
100
AcDbLine
 10
116.5541054874702
 20
132.6167932734291
 30
0.0
 11
116.5804632459549
 21
133.1790921211153
 31
0.0
210
-0.0000000000000001
220
-1.0
230
-0.0000000000000004
  0
LINE
  5
14B
330
12E
100
AcDbEntity
  8
MD_可視
100
AcDbLine
 10
116.9794681697349
 20
133.1752967692932
 30
0.0
 11
116.9536667572174
 21
132.6248666356009
 31
0.0
210
-0.0000000000000001
220
-1.0
230
-0.0000000000000004
  0
SPLINE
  5
14C
330
12E
100
AcDbEntity
  8
MD_可視
100
AcDbSpline
210
0.0
220
0.0
230
1.0
 70
    28
 71
     3
 72
    10
 73
     6
 74
     0
 42
0.000000001
 43
0.0000000001
 40
3.141592653589791
 40
3.141592653589791
 40
3.141592653594606
 40
3.141592653594606
 40
3.893462198900579
 40
3.893462198900579
 40
4.645331744211366
 40
4.645331744211366
 40
4.645331744211366
 40
4.645331744211366
 10
105.0635492369783
 20
132.5315673347738
 30
0.0
 41
1.0
 10
105.0635492369783
 20
132.5315673347739
 30
0.0
 41
1.0
 10
105.0630879278978
 20
132.5414085951438
 30
0.0
 41
1.0
 10
105.0614831701477
 20
132.5756434271298
 30
0.0
 41
1.0
 10
105.0603507517371
 20
132.599801686589
 30
0.0
 41
1.0
 10
105.0591758322516
 20
132.6248666356009
 30
0.0
 41
1.0
  0
LINE
  5
14D
330
12E
100
AcDbEntity
  8
MD_可視
100
AcDbLine
 10
105.0591758322516
 20
132.6248666356009
 30
0.0
 11
105.0333744197341
 21
133.1752967692932
 31
0.0
210
-0.0000000000000001
220
-1.0
230
-0.0000000000000004
  0
ELLIPSE
  5
14E
330
12E
100
AcDbEntity
  8
MD_狭い可視
100
AcDbEllipse
 10
105.458737101997
 20
132.6435960701204
 30
0.0
 11
-0.3995612697479355
 21
-0.0187294345194322
 31
0.0
210
0.0
220
0.0
230
-1.0
 40
0.066933826189908
 41
-1.567658813988835
 42
-0.0000000000013387
  0
SPLINE
  5
14F
330
12E
100
AcDbEntity
  8
MD_可視
100
AcDbSpline
210
0.0
220
0.0
230
1.0
 70
     8
 71
     3
 72
    18
 73
    14
 74
     0
 42
0.000000001
 43
0.0000000001
 40
0.0
 40
0.0
 40
0.0
 40
0.0
 40
0.012900178314112
 40
0.012900178314112
 40
0.0259060026863534
 40
0.0259060026863534
 40
0.0389080161233081
 40
0.0389080161233081
 40
0.0519101667562809
 40
0.0519101667562809
 40
0.0562896742212662
 40
0.0562896742212662
 40
0.060723343748291
 40
0.060723343748291
 40
0.060723343748291
 40
0.060723343748291
 10
105.4631105067255
 20
132.1502967692932
 30
0.0
 10
105.4201099123456
 20
132.1502967692932
 30
0.0
 10
105.3765613078449
 20
132.1574121968166
 30
0.0
 10
105.2946987333562
 20
132.1848970767071
 30
0.0
 10
105.2553712696081
 20
132.2057334658016
 30
0.0
 10
105.1863835123949
 20
132.2582342244658
 30
0.0
 10
105.155827484752
 20
132.2905747950807
 30
0.0
 10
105.1073296182967
 20
132.3624181953358
 30
0.0
 10
105.0887602407001
 20
132.4028509234722
 30
0.0
 10
105.0734579704167
 20
132.458732513107
 30
0.0
 10
105.0703697294357
 20
132.4730452714629
 30
0.0
 10
105.0657549752304
 20
132.502057807569
 30
0.0
 10
105.0642401744553
 20
132.5168273352582
 30
0.0
 10
105.0635492369783
 20
132.5315673347738
 30
0.0
  0
LINE
  5
150
330
12E
100
AcDbEntity
  8
MD_狭い可視
100
AcDbLine
 10
116.9689212947341
 20
132.9502967692932
 30
0.0
 11
117.320522909873
 21
132.9502967692932
 31
0.0
210
-0.0000000000000001
220
-1.0
230
-0.0000000000000004
  0
LINE
  5
151
330
12E
100
AcDbEntity
  8
MD_狭い可視
100
AcDbLine
 10
104.692319679596
 20
132.9502967692932
 30
0.0
 11
105.0439212947349
 21
132.9502967692932
 31
0.0
210
-0.0000000000000001
220
-1.0
230
-0.0000000000000004
  0
LINE
  5
152
330
12E
100
AcDbEntity
  8
MD_可視
100
AcDbLine
 10
117.3814212947345
 20
132.7502967692932
 30
0.0
 11
116.9595462947345
 21
132.7502967692932
 31
0.0
210
-0.0000000000000001
220
-1.0
230
-0.0000000000000004
  0
LINE
  5
153
330
12E
100
AcDbEntity
  8
MD_可視
100
AcDbLine
 10
105.0532962947345
 20
132.7502967692932
 30
0.0
 11
104.6314212947345
 21
132.7502967692932
 31
0.0
210
-0.0000000000000001
220
-1.0
230
-0.0000000000000004
  0
LINE
  5
154
330
12E
100
AcDbEntity
  8
MD_可視
100
AcDbLine
 10
104.7064212947352
 20
132.4002967692932
 30
0.0
 11
104.7064212947352
 21
132.6502967692932
 31
0.0
210
-0.0000000000000001
220
-1.0
230
-0.0000000000000004
  0
LINE
  5
155
330
12E
100
AcDbEntity
  8
MD_可視
100
AcDbLine
 10
117.3064212947338
 20
132.6502967692932
 30
0.0
 11
117.3064212947338
 21
132.4002967692932
 31
0.0
210
-0.0000000000000001
220
-1.0
230
-0.0000000000000004
  0
LINE
  5
156
330
12E
100
AcDbEntity
  8
MD_可視
100
AcDbLine
 10
104.7064212947352
 20
132.4002967692932
 30
0.0
 11
105.0923328865119
 21
132.4002967692932
 31
0.0
210
-0.0000000000000001
220
-1.0
230
-0.0000000000000004
  0
LINE
  5
157
330
12E
100
AcDbEntity
  8
MD_可視
100
AcDbLine
 10
116.9205420070975
 20
132.4002967692932
 30
0.0
 11
117.3064212947338
 21
132.4002967692932
 31
0.0
210
-0.0000000000000001
220
-1.0
230
-0.0000000000000004
  0
LINE
  5
158
330
12E
100
AcDbEntity
  8
MD_可視
100
AcDbLine
 10
104.7064212947352
 20
132.6502967692932
 30
0.0
 11
105.0579837947352
 21
132.6502967692932
 31
0.0
210
-0.0000000000000001
220
-1.0
230
-0.0000000000000004
  0
LINE
  5
159
330
12E
100
AcDbEntity
  8
MD_可視
100
AcDbLine
 10
116.9548587947338
 20
132.6502967692932
 30
0.0
 11
117.3064212947338
 21
132.6502967692932
 31
0.0
210
-0.0000000000000001
220
-1.0
230
-0.0000000000000004
  0
LINE
  5
15A
330
12E
100
AcDbEntity
  8
MD_可視
100
AcDbLine
 10
104.6314212947345
 20
132.6502967692932
 30
0.0
 11
104.7064212947352
 21
132.6502967692932
 31
0.0
210
-0.0000000000000001
220
-1.0
230
-0.0000000000000004
  0
LINE
  5
15B
330
12E
100
AcDbEntity
  8
MD_可視
100
AcDbLine
 10
117.3064212947338
 20
132.6502967692932
 30
0.0
 11
117.3814212947345
 21
132.6502967692932
 31
0.0
210
-0.0000000000000001
220
-1.0
230
-0.0000000000000004
  0
LINE
  5
15C
330
12E
100
AcDbEntity
  8
MD_可視
100
AcDbLine
 10
126.0063683353874
 20
193.1752967692932
 30
0.0
 11
113.8927600148472
 21
193.1752967692932
 31
0.0
210
-0.0000000000000001
220
-1.0
230
-0.0000000000000004
  0
LINE
  5
15D
330
12E
100
AcDbEntity
  8
MD_狭い可視
100
AcDbLine
 10
124.7564212947345
 20
155.6691639374482
 30
0.0
 11
126.2164718010735
 21
155.6691639374482
 31
0.0
210
-0.0000000000000001
220
-1.0
230
-0.0000000000000004
  0
LINE
  5
15E
330
12E
100
AcDbEntity
  8
MD_狭い可視
100
AcDbLine
 10
126.2164718010735
 20
190.6752967692917
 30
0.0
 11
126.2164718010735
 21
155.6691639374482
 31
0.0
210
-0.0000000000000001
220
-1.0
230
-0.0000000000000004
  0
LINE
  5
15F
330
12E
100
AcDbEntity
  8
MD_狭い可視
100
AcDbLine
 10
126.2164718010735
 20
190.6752967692932
 30
0.0
 11
95.79637078839551
 21
190.6752967692932
 31
0.0
210
-0.0000000000000001
220
-1.0
230
-0.0000000000000004
  0
LINE
  5
160
330
12E
100
AcDbEntity
  8
MD_狭い可視
100
AcDbLine
 10
95.79637078839551
 20
155.6691639374482
 30
0.0
 11
95.79637078839551
 21
190.6752967692918
 31
0.0
210
-0.0000000000000001
220
-1.0
230
-0.0000000000000004
  0
LINE
  5
161
330
12E
100
AcDbEntity
  8
MD_狭い可視
100
AcDbLine
 10
95.79637078839551
 20
155.6691639374482
 30
0.0
 11
97.25642129473454
 21
155.6691639374482
 31
0.0
210
-0.0000000000000001
220
-1.0
230
-0.0000000000000004
  0
LINE
  5
162
330
12E
100
AcDbEntity
  8
MD_可視
100
AcDbLine
 10
97.25642129473454
 20
155.6691639374482
 30
0.0
 11
97.25642129473454
 21
189.8858667692827
 31
0.0
210
-0.0000000000000001
220
-1.0
230
-0.0000000000000004
  0
LINE
  5
163
330
12E
100
AcDbEntity
  8
MD_可視
100
AcDbLine
 10
124.7564212947345
 20
189.8858667692932
 30
0.0
 11
97.25642129473454
 21
189.8858667692932
 31
0.0
210
-0.0000000000000001
220
-1.0
230
-0.0000000000000004
  0
LINE
  5
164
330
12E
100
AcDbEntity
  8
MD_可視
100
AcDbLine
 10
124.7564212947345
 20
155.6691639374482
 30
0.0
 11
124.7564212947345
 21
189.8858667692827
 31
0.0
210
-0.0000000000000001
220
-1.0
230
-0.0000000000000004
  0
ARC
  5
165
330
12E
100
AcDbEntity
  8
MD_狭い可視
100
AcDbCircle
 10
126.0064212947345
 20
133.6752967692932
 30
0.0
 40
0.2100505063388214
100
AcDbArc
 50
270.0
 51
0.0
  0
LINE
  5
166
330
12E
100
AcDbEntity
  8
MD_狭い可視
100
AcDbLine
 10
126.2164718010735
 20
133.6752967692932
 30
0.0
 11
126.2164718010735
 21
155.6691639374482
 31
0.0
210
-0.0000000000000001
220
-1.0
230
-0.0000000000000004
  0
LINE
  5
167
330
12E
100
AcDbEntity
  8
MD_可視
100
AcDbLine
 10
124.7564212947345
 20
135.6752967692932
 30
0.0
 11
124.7564212947345
 21
155.6691639374482
 31
0.0
210
-0.0000000000000001
220
-1.0
230
-0.0000000000000004
  0
ARC
  5
168
330
12E
100
AcDbEntity
  8
MD_可視
100
AcDbCircle
 10
123.7564212947345
 20
135.6752967692932
 30
0.0
 40
1.000000000000001
100
AcDbArc
 50
270.0
 51
0.0
  0
LINE
  5
169
330
12E
100
AcDbEntity
  8
MD_可視
100
AcDbLine
 10
116.6935991212249
 20
134.6752967692932
 30
0.0
 11
123.7564212947345
 21
134.6752967692932
 31
0.0
210
-0.0000000000000001
220
-1.0
230
-0.0000000000000004
  0
LINE
  5
16A
330
12E
100
AcDbEntity
  8
MD_可視
100
AcDbLine
 10
117.9036496275639
 20
133.4652462629543
 30
0.0
 11
116.6935991212249
 21
134.6752967692932
 31
0.0
210
-0.0000000000000001
220
-1.0
230
-0.0000000000000004
  0
LINE
  5
16B
330
12E
100
AcDbEntity
  8
MD_狭い可視
100
AcDbLine
 10
117.9036496275639
 20
133.4652462629543
 30
0.0
 11
126.0064212947345
 21
133.4652462629543
 31
0.0
210
-0.0000000000000001
220
-1.0
230
-0.0000000000000004
  0
LINE
  5
16C
330
12E
100
AcDbEntity
  8
MD_狭い可視
100
AcDbLine
 10
95.79637078839551
 20
155.6691639374482
 30
0.0
 11
95.79637078839551
 21
133.6752967692932
 31
0.0
210
-0.0000000000000001
220
-1.0
230
-0.0000000000000004
  0
ARC
  5
16D
330
12E
100
AcDbEntity
  8
MD_狭い可視
100
AcDbCircle
 10
96.00642129473454
 20
133.6752967692932
 30
0.0
 40
0.2100505063388249
100
AcDbArc
 50
180.0
 51
270.0
  0
LINE
  5
16E
330
12E
100
AcDbEntity
  8
MD_狭い可視
100
AcDbLine
 10
96.00642129473454
 20
133.4652462629543
 30
0.0
 11
104.1091929619051
 21
133.4652462629543
 31
0.0
210
-0.0000000000000001
220
-1.0
230
-0.0000000000000004
  0
LINE
  5
16F
330
12E
100
AcDbEntity
  8
MD_可視
100
AcDbLine
 10
105.3192434682441
 20
134.6752967692932
 30
0.0
 11
104.1091929619051
 21
133.4652462629543
 31
0.0
210
-0.0000000000000001
220
-1.0
230
-0.0000000000000004
  0
LINE
  5
170
330
12E
100
AcDbEntity
  8
MD_可視
100
AcDbLine
 10
98.25642129473454
 20
134.6752967692932
 30
0.0
 11
105.3192434682441
 21
134.6752967692932
 31
0.0
210
-0.0000000000000001
220
-1.0
230
-0.0000000000000004
  0
ARC
  5
171
330
12E
100
AcDbEntity
  8
MD_可視
100
AcDbCircle
 10
98.25642129473454
 20
135.6752967692932
 30
0.0
 40
1.000000000000001
100
AcDbArc
 50
180.0
 51
270.0
  0
LINE
  5
172
330
12E
100
AcDbEntity
  8
MD_可視
100
AcDbLine
 10
97.25642129473454
 20
155.6691639374482
 30
0.0
 11
97.25642129473454
 21
135.6752967692932
 31
0.0
210
-0.0000000000000001
220
-1.0
230
-0.0000000000000004
  0
LINE
  5
173
330
12E
100
AcDbEntity
  8
MD_可視
100
AcDbLine
 10
117.0955229098726
 20
133.1752967692932
 30
0.0
 11
119.0955229098726
 21
131.1752967692932
 31
0.0
210
-0.0000000000000001
220
-1.0
230
-0.0000000000000004
  0
LINE
  5
174
330
12E
100
AcDbEntity
  8
MD_可視
100
AcDbLine
 10
117.0955229098726
 20
133.1752967692932
 30
0.0
 11
116.6749991241031
 21
133.1752967692932
 31
0.0
210
-0.0000000000000001
220
-1.0
230
-0.0000000000000004
  0
LINE
  5
175
330
12E
100
AcDbEntity
  8
MD_可視
100
AcDbLine
 10
105.3378434653659
 20
133.1752967692932
 30
0.0
 11
104.9173196795964
 21
133.1752967692932
 31
0.0
210
-0.0000000000000001
220
-1.0
230
-0.0000000000000004
  0
LINE
  5
176
330
12E
100
AcDbEntity
  8
MD_可視
100
AcDbLine
 10
102.9173196795964
 20
131.1752967692932
 30
0.0
 11
104.9173196795964
 21
133.1752967692932
 31
0.0
210
-0.0000000000000001
220
-1.0
230
-0.0000000000000004
  0
LINE
  5
177
330
12E
100
AcDbEntity
  8
MD_可視
100
AcDbLine
 10
126.0064212947345
 20
131.1752967692932
 30
0.0
 11
119.6469601942281
 21
131.1752967692932
 31
0.0
210
-0.0000000000000001
220
-1.0
230
-0.0000000000000004
  0
LINE
  5
178
330
12E
100
AcDbEntity
  8
MD_可視
100
AcDbLine
 10
119.0955229098726
 20
131.1752967692932
 30
0.0
 11
119.6469601942281
 21
131.1752967692932
 31
0.0
210
-0.0000000000000001
220
-1.0
230
-0.0000000000000004
  0
LINE
  5
179
330
12E
100
AcDbEntity
  8
MD_可視
100
AcDbLine
 10
102.365882395241
 20
131.1752967692932
 30
0.0
 11
102.9173196795964
 21
131.1752967692932
 31
0.0
210
-0.0000000000000001
220
-1.0
230
-0.0000000000000004
  0
LINE
  5
17A
330
12E
100
AcDbEntity
  8
MD_可視
100
AcDbLine
 10
102.365882395241
 20
131.1752967692932
 30
0.0
 11
96.00642129473454
 21
131.1752967692932
 31
0.0
210
-0.0000000000000001
220
-1.0
230
-0.0000000000000004
  0
LINE
  5
17B
330
12E
100
AcDbEntity
  8
MD_可視
100
AcDbLine
 10
93.50642129473454
 20
190.1666291267757
 30
0.0
 11
93.50642129473454
 21
189.87367400776
 31
0.0
210
-0.0000000000000001
220
-1.0
230
-0.0000000000000004
  0
SPLINE
  5
17C
330
12E
100
AcDbEntity
  8
MD_可視
100
AcDbSpline
210
0.0
220
0.0
230
1.0
 70
    24
 71
     3
 72
     8
 73
     4
 74
     0
 42
0.000000001
 43
0.0000000001
 40
0.0
 40
0.0
 40
0.0
 40
0.0
 40
0.0005940482232868
 40
0.0005940482232868
 40
0.0005940482232868
 40
0.0005940482232868
 10
93.50642129473454
 20
190.1666291267762
 30
0.0
 10
93.50642129473454
 20
190.3335666480412
 30
0.0
 10
93.50642129473454
 20
190.5032717796845
 30
0.0
 10
93.50642129473454
 20
190.6752967692932
 30
0.0
  0
LINE
  5
17D
330
12E
100
AcDbEntity
  8
MD_可視
100
AcDbLine
 10
93.50642129473454
 20
133.6752967692932
 30
0.0
 11
93.50642129473454
 21
155.6691639374482
 31
0.0
210
-0.0000000000000001
220
-1.0
230
-0.0000000000000004
  0
LINE
  5
17E
330
12E
100
AcDbEntity
  8
MD_可視
100
AcDbLine
 10
93.50642129473454
 20
189.8736740077585
 30
0.0
 11
93.50642129473454
 21
155.6691639374482
 31
0.0
210
-0.0000000000000001
220
-1.0
230
-0.0000000000000004
  0
SPLINE
  5
17F
330
12E
100
AcDbEntity
  8
MD_可視
100
AcDbSpline
210
0.0
220
0.0
230
1.0
 70
    24
 71
     3
 72
     8
 73
     4
 74
     0
 42
0.000000001
 43
0.0000000001
 40
0.0
 40
0.0
 40
0.0
 40
0.0
 40
0.0005940562142556
 40
0.0005940562142556
 40
0.0005940562142556
 40
0.0005940562142556
 10
128.5064212947345
 20
190.6752967692932
 30
0.0
 10
128.5064212947345
 20
190.503269493069
 30
0.0
 10
128.5064212947345
 20
190.3335615261138
 30
0.0
 10
128.5064212947345
 20
190.1666211182483
 30
0.0
  0
LINE
  5
180
330
12E
100
AcDbEntity
  8
MD_可視
100
AcDbLine
 10
128.5064212947345
 20
189.87367400776
 30
0.0
 11
128.5064212947345
 21
190.1666211182486
 31
0.0
210
-0.0000000000000001
220
-1.0
230
-0.0000000000000004
  0
LINE
  5
181
330
12E
100
AcDbEntity
  8
MD_可視
100
AcDbLine
 10
128.5064212947345
 20
155.6691639374482
 30
0.0
 11
128.5064212947345
 21
189.8736740077587
 31
0.0
210
-0.0000000000000001
220
-1.0
230
-0.0000000000000004
  0
LINE
  5
182
330
12E
100
AcDbEntity
  8
MD_可視
100
AcDbLine
 10
128.5064212947345
 20
155.6691639374482
 30
0.0
 11
128.5064212947345
 21
133.6752967692932
 31
0.0
210
-0.0000000000000001
220
-1.0
230
-0.0000000000000004
  0
LINE
  5
183
330
12E
100
AcDbEntity
  8
MD_可視
100
AcDbLine
 10
108.1200825746218
 20
193.1752967692932
 30
0.0
 11
96.00642528576281
 21
193.1752967692932
 31
0.0
210
-0.0000000000000001
220
-1.0
230
-0.0000000000000004
  0
SPLINE
  5
184
330
12E
100
AcDbEntity
  8
MD_可視
100
AcDbSpline
210
0.0
220
0.0
230
1.0
 70
     8
 71
     3
 72
     8
 73
     4
 74
     0
 42
0.000000001
 43
0.0000000001
 40
0.0
 40
0.0
 40
0.0
 40
0.0
 40
0.0006890972402269
 40
0.0006890972402269
 40
0.0006890972402269
 40
0.0006890972402269
 10
93.50642129473454
 20
190.6752967692932
 30
0.0
 10
93.50642129473454
 20
190.890438204373
 30
0.0
 10
93.53375887043331
 20
191.108964422585
 30
0.0
 10
93.59348842906729
 20
191.3293265742555
 30
0.0
  0
SPLINE
  5
185
330
12E
100
AcDbEntity
  8
MD_可視
100
AcDbSpline
210
0.0
220
0.0
230
1.0
 70
     8
 71
     3
 72
    26
 73
    22
 74
     0
 42
0.000000001
 43
0.0000000001
 40
0.0
 40
0.0
 40
0.0
 40
0.0
 40
0.0004209116115806
 40
0.0004209116115806
 40
0.0004209116115806
 40
0.0008418232231611
 40
0.0008418232231611
 40
0.0008418232231611
 40
0.0012627348347417
 40
0.0012627348347417
 40
0.0012627348347417
 40
0.0016836464463223
 40
0.0016836464463223
 40
0.0016836464463223
 40
0.0021045580579029
 40
0.0021045580579029
 40
0.0021045580579029
 40
0.0025254696694834
 40
0.0025254696694834
 40
0.0025254696694834
 40
0.0033672812010627
 40
0.0033672812010627
 40
0.0033672812010627
 40
0.0033672812010627
 10
93.59348842906729
 20
191.3293265742555
 30
0.0
 10
93.6297096599319
 20
191.4629587080279
 30
0.0
 10
93.67688781569269
 20
191.5920839794772
 30
0.0
 10
93.73413875554616
 20
191.716968594489
 30
0.0
 10
93.79138969539964
 20
191.8418532095008
 30
0.0
 10
93.85892825447445
 20
191.9624222193202
 30
0.0
 10
93.93495784060542
 20
192.0749534894665
 30
0.0
 10
94.01098742673458
 20
192.1874847596129
 30
0.0
 10
94.0956323265309
 20
192.2931099693847
 30
0.0
 10
94.1888378130352
 20
192.3918020518529
 30
0.0
 10
94.2820432995377
 20
192.4904941343212
 30
0.0
 10
94.38442407030015
 20
192.5825628859527
 30
0.0
 10
94.49283863886012
 20
192.6650372713943
 30
0.0
 10
94.60125320742008
 20
192.7475116568358
 30
0.0
 10
94.71707672597768
 20
192.8213414106388
 30
0.0
 10
94.83669925832145
 20
192.8846719624252
 30
0.0
 10
94.95632179066523
 20
192.9480025142116
 30
0.0
 10
95.07980755330027
 20
193.0011256658328
 30
0.0
 10
95.20729348638633
 20
193.0441350140159
 30
0.0
 10
95.46226181140809
 20
193.1301525157196
 30
0.0
 10
95.73460546406385
 20
193.1752987288432
 30
0.0
 10
96.00642474593588
 20
193.1752967693136
 30
0.0
  0
SPLINE
  5
186
330
12E
100
AcDbEntity
  8
MD_可視
100
AcDbSpline
210
0.0
220
0.0
230
1.0
 70
     8
 71
     3
 72
     8
 73
     4
 74
     0
 42
0.000000001
 43
0.0000000001
 40
-0.0000311382305624
 40
-0.0000311382305624
 40
-0.0000311382305624
 40
-0.0000311382305624
 40
0.0001004278018608
 40
0.0001004278018608
 40
0.0001004278018608
 40
0.0001004278018608
 10
126.0064213579426
 20
193.1752967692368
 30
0.0
 10
126.04916195441
 20
193.175294953101
 30
0.0
 10
126.0914125953422
 20
193.1742175645162
 30
0.0
 10
126.1298842291617
 20
193.1621887240728
 30
0.0
  0
SPLINE
  5
187
330
12E
100
AcDbEntity
  8
MD_可視
100
AcDbSpline
210
0.0
220
0.0
230
1.0
 70
     8
 71
     3
 72
    12
 73
     8
 74
     0
 42
0.000000001
 43
0.0000000001
 40
0.000103754908594
 40
0.000103754908594
 40
0.000103754908594
 40
0.000103754908594
 40
0.000180521468589
 40
0.000180521468589
 40
0.0003922921064887
 40
0.0003922921064887
 40
0.0004818496449925
 40
0.0004818496449925
 40
0.0004818496449925
 40
0.0004818496449925
 10
126.1298842291617
 20
193.1621887240728
 30
0.0
 10
126.1612987181397
 20
193.1706212862862
 30
0.0
 10
126.1858293666028
 20
193.1689728606764
 30
0.0
 10
126.2781769909707
 20
193.1614129180258
 30
0.0
 10
126.3457480405741
 20
193.1530952088557
 30
0.0
 10
126.4412565217353
 20
193.1373580941293
 30
0.0
 10
126.4695605156994
 20
193.1321864517239
 30
0.0
 10
126.4977534811132
 20
193.126531092751
 30
0.0
  0
SPLINE
  5
188
330
12E
100
AcDbEntity
  8
MD_可視
100
AcDbSpline
210
0.0
220
0.0
230
1.0
 70
     8
 71
     3
 72
    12
 73
     8
 74
     0
 42
0.000000001
 43
0.0000000001
 40
0.0016098254601746
 40
0.0016098254601746
 40
0.0016098254601746
 40
0.0016098254601746
 40
0.0016629159338871
 40
0.0016629159338871
 40
0.0020864572096865
 40
0.0020864572096865
 40
0.0025055641148219
 40
0.0025055641148219
 40
0.0025055641148219
 40
0.0025055641148219
 10
127.4799636677398
 20
192.694862532956
 30
0.0
 10
127.4937916853796
 20
192.6847769713835
 30
0.0
 10
127.507513240178
 20
192.6745505173694
 30
0.0
 10
127.6296813654844
 20
192.5815096649303
 30
0.0
 10
127.7320640072175
 20
192.4892766811693
 30
0.0
 10
127.9170678186856
 20
192.2931389102318
 30
0.0
 10
128.0005663998035
 20
192.1889887296092
 30
0.0
 10
128.0755904088037
 20
192.078343200506
 30
0.0
  0
SPLINE
  5
189
330
12E
100
AcDbEntity
  8
MD_可視
100
AcDbSpline
210
0.0
220
0.0
230
1.0
 70
     8
 71
     3
 72
     8
 73
     4
 74
     0
 42
0.000000001
 43
0.0000000001
 40
0.0
 40
0.0
 40
0.0
 40
0.0
 40
0.0006897410031473
 40
0.0006897410031473
 40
0.0006897410031473
 40
0.0006897410031473
 10
128.4191871860257
 20
191.3299422869789
 30
0.0
 10
128.4790321675973
 20
191.1093772232901
 30
0.0
 10
128.5064212947345
 20
190.8906441809994
 30
0.0
 10
128.5064212947345
 20
190.6752967692932
 30
0.0
  0
ARC
  5
18A
330
12E
100
AcDbEntity
  8
MD_可視
100
AcDbCircle
 10
-96.00642129473454
 20
133.6752967692932
 30
0.0
 40
2.499999999999999
210
0.0
220
0.0
230
-1.0
100
AcDbArc
 50
270.0
 51
0.0
  0
ARC
  5
18B
330
12E
100
AcDbEntity
  8
MD_可視
100
AcDbCircle
 10
-126.0064212947345
 20
133.6752967692932
 30
0.0
 40
2.499999999999999
210
0.0
220
0.0
230
-1.0
100
AcDbArc
 50
180.0
 51
270.0
  0
LINE
  5
18C
330
12E
100
AcDbEntity
  8
MD_可視
100
AcDbLine
 10
117.0955229098726
 20
133.1752967692932
 30
0.0
 11
116.6935991212249
 21
134.6752967692932
 31
0.0
210
-0.0000000000000001
220
-1.0
230
-0.0000000000000004
  0
LINE
  5
18D
330
12E
100
AcDbEntity
  8
MD_可視
100
AcDbLine
 10
116.6935991212249
 20
134.6752967692932
 30
0.0
 11
105.3192434682441
 21
134.6752967692932
 31
0.0
210
-0.0000000000000001
220
-1.0
230
-0.0000000000000004
  0
LINE
  5
18E
330
12E
100
AcDbEntity
  8
MD_可視
100
AcDbLine
 10
104.9173196795964
 20
133.1752967692932
 30
0.0
 11
105.3192434682441
 21
134.6752967692932
 31
0.0
210
-0.0000000000000001
220
-1.0
230
-0.0000000000000004
  0
LINE
  5
18F
330
12E
100
AcDbEntity
  8
MD_可視
100
AcDbLine
 10
103.6631602483849
 20
132.9702715161237
 30
0.0
 11
102.4527511278211
 21
131.3803220224626
 31
0.0
210
-0.0000000000000001
220
-1.0
230
-0.0000000000000004
  0
ELLIPSE
  5
190
330
12E
100
AcDbEntity
  8
MD_可視
100
AcDbEllipse
 10
103.0658823952399
 20
131.8752967692917
 30
0.0
 11
0.7150082810236381
 21
0.694926591300801
 31
0.0
210
-0.0000000000000002
220
0.0000000000000002
230
1.0
 40
0.117656121928103
 41
2.476664391789651
 42
3.262062555187982
  0
ELLIPSE
  5
191
330
12E
100
AcDbEntity
  8
MD_可視
100
AcDbEllipse
 10
104.2762915158037
 20
133.4652462629521
 30
0.0
 11
0.7150082810215622
 21
0.6949265912991898
 31
0.0
210
-0.0000000000000002
220
0.0000000000000002
230
1.0
 40
0.1176561219278319
 41
1.69126622838784
 42
2.476664391788414
  0
ELLIPSE
  5
192
330
12E
100
AcDbEntity
  8
MD_可視
100
AcDbEllipse
 10
118.9469601942219
 20
131.8752967692978
 30
0.0
 11
0.7150082810303628
 21
-0.6949265913068582
 31
0.0
210
0.0000000000000002
220
0.0000000000000002
230
1.0
 40
0.1176561219276255
 41
6.162715405585137
 42
6.94811356897974
  0
LINE
  5
193
330
12E
100
AcDbEntity
  8
MD_可視
100
AcDbLine
 10
119.5600914616479
 20
131.3803220224626
 30
0.0
 11
118.3496823410842
 21
132.9702715161237
 31
0.0
210
-0.0000000000000001
220
-1.0
230
-0.0000000000000004
  0
ELLIPSE
  5
194
330
12E
100
AcDbEntity
  8
MD_可視
100
AcDbEllipse
 10
117.7365510736654
 20
133.4652462629523
 30
0.0
 11
0.7150082810218095
 21
-0.6949265912994019
 31
0.0
210
0.0000000000000002
220
0.0000000000000002
230
1.0
 40
0.1176561219277857
 41
0.6649282617997655
 42
1.450326425200198
  0
LINE
  5
195
330
12E
100
AcDbEntity
  8
MD_狭い可視
100
AcDbLine
 10
123.8903958909504
 20
155.6691639374482
 30
0.0
 11
98.12244669851862
 21
155.6691639374482
 31
0.0
210
-0.0000000000000001
220
-1.0
230
-0.0000000000000004
  0
LINE
  5
196
330
12E
100
AcDbEntity
  8
MD_狭い可視
100
AcDbLine
 10
98.12244669851862
 20
155.6691639374482
 30
0.0
 11
98.12244669851862
 21
135.6752967692932
 31
0.0
210
-0.0000000000000001
220
-1.0
230
-0.0000000000000004
  0
ARC
  5
197
330
12E
100
AcDbEntity
  8
MD_狭い可視
100
AcDbCircle
 10
98.25642129473454
 20
135.6752967692932
 30
0.0
 40
0.1339745962155616
100
AcDbArc
 50
180.0
 51
270.0
  0
LINE
  5
198
330
12E
100
AcDbEntity
  8
MD_狭い可視
100
AcDbLine
 10
98.25642129473454
 20
135.5413221730776
 30
0.0
 11
123.7564212947345
 21
135.5413221730776
 31
0.0
210
-0.0000000000000001
220
-1.0
230
-0.0000000000000004
  0
ARC
  5
199
330
12E
100
AcDbEntity
  8
MD_狭い可視
100
AcDbCircle
 10
123.7564212947345
 20
135.6752967692932
 30
0.0
 40
0.1339745962155616
100
AcDbArc
 50
270.0
 51
0.0
  0
LINE
  5
19A
330
12E
100
AcDbEntity
  8
MD_狭い可視
100
AcDbLine
 10
123.8903958909504
 20
135.6752967692932
 30
0.0
 11
123.8903958909504
 21
155.6691639374482
 31
0.0
210
-0.0000000000000001
220
-1.0
230
-0.0000000000000004
  0
LINE
  5
19B
330
12E
100
AcDbEntity
  8
MD_可視
100
AcDbLine
 10
107.9064212947342
 20
140.3752967692932
 30
0.0
 11
114.1064212947349
 21
140.3752967692932
 31
0.0
210
-0.0000000000000001
220
-1.0
230
-0.0000000000000004
  0
LINE
  5
19C
330
12E
100
AcDbEntity
  8
MD_可視
100
AcDbLine
 10
107.9064212947342
 20
142.1752967692932
 30
0.0
 11
107.9064212947342
 21
140.3752967692932
 31
0.0
210
-0.0000000000000001
220
-1.0
230
-0.0000000000000004
  0
LINE
  5
19D
330
12E
100
AcDbEntity
  8
MD_可視
100
AcDbLine
 10
114.1064212947349
 20
142.1752967692932
 30
0.0
 11
107.9064212947342
 21
142.1752967692932
 31
0.0
210
-0.0000000000000001
220
-1.0
230
-0.0000000000000004
  0
LINE
  5
19E
330
12E
100
AcDbEntity
  8
MD_可視
100
AcDbLine
 10
114.1064212947349
 20
140.3752967692932
 30
0.0
 11
114.1064212947349
 21
142.1752967692932
 31
0.0
210
-0.0000000000000001
220
-1.0
230
-0.0000000000000004
  0
LINE
  5
19F
330
12E
100
AcDbEntity
  8
MD_狭い可視
100
AcDbLine
 10
123.8903958909504
 20
180.5261272017281
 30
0.0
 11
98.12244669851862
 21
180.5261272017281
 31
0.0
210
-0.0000000000000001
220
-1.0
230
-0.0000000000000004
  0
LINE
  5
1A0
330
12E
100
AcDbEntity
  8
MD_狭い可視
100
AcDbLine
 10
98.12244669851862
 20
155.6691639374482
 30
0.0
 11
98.12244669851862
 21
180.5261272017176
 31
0.0
210
-0.0000000000000001
220
-1.0
230
-0.0000000000000004
  0
LINE
  5
1A1
330
12E
100
AcDbEntity
  8
MD_狭い可視
100
AcDbLine
 10
123.8903958909504
 20
180.5261272017175
 30
0.0
 11
123.8903958909504
 21
155.6691639374482
 31
0.0
210
-0.0000000000000001
220
-1.0
230
-0.0000000000000004
  0
SPLINE
  5
1A2
330
12E
100
AcDbEntity
  8
MD_可視
100
AcDbSpline
210
0.0
220
0.0
230
1.0
 70
     8
 71
     3
 72
    16
 73
    12
 74
     0
 42
0.000000001
 43
0.0000000001
 40
0.0434901601600919
 40
0.0434901601600919
 40
0.0434901601600919
 40
0.0434901601600919
 40
0.043946518827578
 40
0.043946518827578
 40
0.0506430378369389
 40
0.0506430378369389
 40
0.0584088452098871
 40
0.0584088452098871
 40
0.0659938507670588
 40
0.0659938507670588
 40
0.0713565177615817
 40
0.0713565177615817
 40
0.0713565177615817
 40
0.0713565177615817
 10
101.0064212947345
 20
172.4300701248232
 30
0.0
 10
101.0064205226899
 20
172.4322095843097
 30
0.0
 10
101.0064477060732
 20
172.4343574967251
 30
0.0
 10
101.0073143047884
 20
172.4682835574632
 30
0.0
 10
101.0139859733081
 20
172.4935845510531
 30
0.0
 10
101.0333470611022
 20
172.5393919046677
 30
0.0
 10
101.0484383375933
 20
172.5614919027068
 30
0.0
 10
101.0859646710432
 20
172.5980329491688
 30
0.0
 10
101.1077899756383
 20
172.6122112101158
 30
0.0
 10
101.1484875664955
 20
172.6286434336588
 30
0.0
 10
101.1661092506565
 20
172.6330767764816
 30
0.0
 10
101.1839910810577
 20
172.6350949607064
 30
0.0
  0
SPLINE
  5
1A3
330
12E
100
AcDbEntity
  8
MD_可視
100
AcDbSpline
210
0.0
220
0.0
230
1.0
 70
     8
 71
     3
 72
    16
 73
    12
 74
     0
 42
0.000000001
 43
0.0000000001
 40
0.0758286330738984
 40
0.0758286330738984
 40
0.0758286330738984
 40
0.0758286330738984
 40
0.0812970685664333
 40
0.0812970685664333
 40
0.0891084643500626
 40
0.0891084643500626
 40
0.0970936055041054
 40
0.0970936055041054
 40
0.1033615729063236
 40
0.1033615729063236
 40
0.1041183470285279
 40
0.1041183470285279
 40
0.1041183470285279
 40
0.1041183470285279
 10
120.8288515084114
 20
172.6350949607064
 30
0.0
 10
120.8469656637771
 20
172.6330507203956
 30
0.0
 10
120.8646690470541
 20
172.6285435002952
 30
0.0
 10
120.9054618030841
 20
172.6120071283034
 30
0.0
 10
120.9271235837932
 20
172.5977852049582
 30
0.0
 10
120.9640547746949
 20
172.5618409067191
 30
0.0
 10
120.9787543735965
 20
172.5403827139734
 30
0.0
 10
120.997059726842
 20
172.4983777877206
 30
0.0
 10
121.0046625986197
 20
172.4737462421058
 30
0.0
 10
121.0063377053702
 20
172.4377114895687
 30
0.0
 10
121.0064233118628
 20
172.4338817618028
 30
0.0
 10
121.0064212947345
 20
172.4300701248232
 30
0.0
  0
SPLINE
  5
1A4
330
12E
100
AcDbEntity
  8
MD_可視
100
AcDbSpline
210
0.0
220
0.0
230
1.0
 70
     8
 71
     3
 72
    16
 73
    12
 74
     0
 42
0.000000001
 43
0.0000000001
 40
0.1167361150870196
 40
0.1167361150870196
 40
0.1167361150870196
 40
0.1167361150870196
 40
0.1171984123334346
 40
0.1171984123334346
 40
0.1239406394231325
 40
0.1239406394231325
 40
0.1318495024716308
 40
0.1318495024716308
 40
0.1395774553700113
 40
0.1395774553700113
 40
0.1472199508110091
 40
0.1472199508110091
 40
0.1472199508110091
 40
0.1472199508110091
 10
121.0064212947345
 20
172.3075903613611
 30
0.0
 10
121.0064220960012
 20
172.3054010026362
 30
0.0
 10
121.0063936507213
 20
172.3032030286481
 30
0.0
 10
121.0054911030911
 20
172.2686803756769
 30
0.0
 10
120.9985871656699
 20
172.2432564404205
 30
0.0
 10
120.9792100288905
 20
172.1977455916548
 30
0.0
 10
120.9640644292703
 20
172.1756833950946
 30
0.0
 10
120.9264508841624
 20
172.1392265821006
 30
0.0
 10
120.9045892639278
 20
172.1250954725908
 30
0.0
 10
120.8571231460082
 20
172.1060592154612
 30
0.0
 10
120.8318962795383
 20
172.1011884671063
 30
0.0
 10
120.8064212947338
 20
172.1011884671063
 30
0.0
  0
LINE
  5
1A5
330
12E
100
AcDbEntity
  8
MD_可視
100
AcDbLine
 10
101.2064212947352
 20
172.1011884671035
 30
0.0
 11
120.8064212947338
 21
172.1011884671035
 31
0.0
210
-0.0000000000000001
220
-1.0
230
-0.0000000000000004
  0
SPLINE
  5
1A6
330
12E
100
AcDbEntity
  8
MD_可視
100
AcDbSpline
210
0.0
220
0.0
230
1.0
 70
     8
 71
     3
 72
    16
 73
    12
 74
     0
 42
0.000000001
 43
0.0000000001
 40
0.0
 40
0.0
 40
0.0
 40
0.0
 40
0.0077503361896198
 40
0.0077503361896198
 40
0.0156208656818071
 40
0.0156208656818071
 40
0.0236663209529169
 40
0.0236663209529169
 40
0.0299845106351066
 40
0.0299845106351066
 40
0.0307582840034251
 40
0.0307582840034251
 40
0.0307582840034251
 40
0.0307582840034251
 10
101.2064212947352
 20
172.1011884671063
 30
0.0
 10
101.1805868407682
 20
172.1011884671063
 30
0.0
 10
101.1551628233683
 20
172.1061955650793
 30
0.0
 10
101.107523996272
 20
172.1254784175347
 30
0.0
 10
101.0858505869055
 20
172.1396942752508
 30
0.0
 10
101.0488902739216
 20
172.1756334987396
 30
0.0
 10
101.0341730851996
 20
172.1970929257436
 30
0.0
 10
101.0158302553627
 20
172.2391111973712
 30
0.0
 10
101.0082086840866
 20
172.2637541141086
 30
0.0
 10
101.0065072259349
 20
172.2998409536213
 30
0.0
 10
101.0064192395311
 20
172.3037247241177
 30
0.0
 10
101.0064212947345
 20
172.3075903613612
 30
0.0
  0
SPLINE
  5
1A7
330
12E
100
AcDbEntity
  8
MD_可視
100
AcDbSpline
210
0.0
220
0.0
230
1.0
 70
     8
 71
     3
 72
    19
 73
    15
 74
     0
 42
0.000000001
 43
0.0000000001
 40
-0.3102935744040446
 40
-0.3102935744040446
 40
-0.3102935744040446
 40
-0.3102935744040446
 40
-0.3032476229420489
 40
-0.3032476229420489
 40
-0.2021650819613659
 40
-0.2021650819613659
 40
0.0
 40
0.0
 40
0.0
 40
0.2021650819613661
 40
0.2021650819613661
 40
0.3032476229420489
 40
0.3032476229420489
 40
0.3102935744040449
 40
0.3102935744040449
 40
0.3102935744040449
 40
0.3102935744040449
 10
113.8927600148472
 20
193.1752967692932
 30
0.0
 10
113.8752210126513
 20
193.1752954215234
 30
0.0
 10
113.8575363396739
 20
193.1751940906867
 30
0.0
 10
113.5838743634958
 20
193.1721226083876
 30
0.0
 10
113.2976394979759
 20
193.1491706890852
 30
0.0
 10
112.3784557860272
 20
193.0674514665992
 30
0.0
 10
111.6803049012724
 20
193.0054304217071
 30
0.0
 10
111.0064212947345
 20
193.0054304217071
 30
0.0
 10
110.3325376881967
 20
193.0054304217071
 30
0.0
 10
109.6343868034419
 20
193.0674514665992
 30
0.0
 10
108.7152030914931
 20
193.1491706890852
 30
0.0
 10
108.4289682259732
 20
193.1721226083877
 30
0.0
 10
108.1553062497951
 20
193.1751940906867
 30
0.0
 10
108.1376215768177
 20
193.1752954215234
 30
0.0
 10
108.1200825746218
 20
193.1752967692932
 30
0.0
  0
SPLINE
  5
1A8
330
12E
100
AcDbEntity
  8
MD_狭い可視
100
AcDbSpline
210
0.0
220
0.0
230
1.0
 70
     8
 71
     3
 72
    14
 73
    10
 74
     0
 42
0.000000001
 43
0.0000000001
 40
-0.0000275924464093
 40
-0.0000275924464093
 40
-0.0000275924464093
 40
-0.0000275924464093
 40
0.0006674607097243
 40
0.0006674607097243
 40
0.0013625147352859
 40
0.0013625147352859
 40
0.0020575687608474
 40
0.0020575687608474
 40
0.002752622786409
 40
0.002752622786409
 40
0.002752622786409
 40
0.002752622786409
 10
96.00642117059761
 20
193.1752967692951
 30
0.0
 10
95.97334106820744
 20
193.1752972421666
 30
0.0
 10
95.93991152941635
 20
193.154680989879
 30
0.0
 10
95.8785832301619
 20
193.0733040631601
 30
0.0
 10
95.85055323325468
 20
193.0129175019669
 30
0.0
 10
95.80462978324431
 20
192.851818551349
 30
0.0
 10
95.78707915520499
 20
192.7524354357901
 30
0.0
 10
95.77011864623818
 20
192.5180217747509
 30
0.0
 10
95.77038143282335
 20
192.3816236651933
 30
0.0
 10
95.78688894708831
 20
192.2296685704538
 30
0.0
  0
ELLIPSE
  5
1A9
330
12E
100
AcDbEntity
  8
MD_狭い可視
100
AcDbEllipse
 10
93.87012013246931
 20
190.7217906438604
 30
0.0
 11
-1.579444521602862
 21
-2.175848712372686
 31
0.0
210
0.0
220
0.0
230
-1.0
 40
0.5067594070571203
 41
3.651789039538293
 42
3.751336354350256
  0
LINE
  5
1AA
330
12E
100
AcDbEntity
  8
MD_狭い可視
100
AcDbLine
 10
95.79637078839551
 20
190.6752967692932
 30
0.0
 11
95.79637078839551
 21
192.047186117587
 31
0.0
210
-0.0000000000000001
220
-1.0
230
-0.0000000000000004
  0
LINE
  5
1AB
330
12E
100
AcDbEntity
  8
MD_狭い可視
100
AcDbLine
 10
126.2164718010735
 20
192.0471692750546
 30
0.0
 11
126.2164718010735
 21
190.6752967692931
 31
0.0
210
-0.0000000000000001
220
-1.0
230
-0.0000000000000004
  0
ELLIPSE
  5
1AC
330
12E
100
AcDbEntity
  8
MD_狭い可視
100
AcDbEllipse
 10
128.1427608238937
 20
190.7208421549098
 30
0.0
 11
1.579279799806408
 21
-2.1771328960833
 31
0.0
210
0.0
220
0.0
230
-1.0
 40
0.5065996282329356
 41
2.531684230674301
 42
2.631322678398518
  0
SPLINE
  5
1AD
330
12E
100
AcDbEntity
  8
MD_狭い可視
100
AcDbSpline
210
0.0
220
0.0
230
1.0
 70
     8
 71
     3
 72
    20
 73
    16
 74
     0
 42
0.000000001
 43
0.0000000001
 40
0.0
 40
0.0
 40
0.0
 40
0.0
 40
0.0006968641393447
 40
0.0006968641393447
 40
0.0006968641393447
 40
0.0013937282786893
 40
0.0013937282786893
 40
0.0013937282786893
 40
0.002090592418034
 40
0.002090592418034
 40
0.002090592418034
 40
0.0024390244877063
 40
0.0024390244877063
 40
0.0024390244877063
 40
0.0027873781863438
 40
0.0027873781863438
 40
0.0027873781863438
 40
0.0027873781863438
 10
126.225973758972
 20
192.2298750926794
 30
0.0
 10
126.2425188098768
 20
192.3820736393722
 30
0.0
 10
126.2427299264818
 20
192.5178954814813
 30
0.0
 10
126.2342629940885
 20
192.634875137403
 30
0.0
 10
126.2257960616935
 20
192.7518547933248
 30
0.0
 10
126.2083549581602
 20
192.8512977672904
 30
0.0
 10
126.185354822679
 20
192.9320075135215
 30
0.0
 10
126.162354687196
 20
193.0127172597526
 30
0.0
 10
126.1342666263262
 20
193.0731548018495
 30
0.0
 10
126.1036826742329
 20
193.1138742557448
 30
0.0
 10
126.0883906981871
 20
193.1342339826925
 30
0.0
 10
126.0726471648304
 20
193.1496500439375
 30
0.0
 10
126.0563470659635
 20
193.159908510333
 30
0.0
 10
126.0400506333935
 20
193.1701646693443
 30
0.0
 10
126.0216532227732
 20
193.1752977683226
 30
0.0
 10
126.0064213579426
 20
193.1752967692368
 30
0.0
  0
LINE
  5
1AE
330
12E
100
AcDbEntity
  8
MD_可視
100
AcDbLine
 10
121.0064212947345
 20
172.3766344427847
 30
0.0
 11
121.0064212947345
 21
172.4300701248191
 31
0.0
210
-0.0000000000000001
220
-1.0
230
-0.0000000000000004
  0
LINE
  5
1AF
330
12E
100
AcDbEntity
  8
MD_可視
100
AcDbLine
 10
121.0064212947345
 20
172.3075903613645
 30
0.0
 11
121.0064212947345
 21
172.3766344427847
 31
0.0
210
-0.0000000000000001
220
-1.0
230
-0.0000000000000004
  0
LINE
  5
1B0
330
12E
100
AcDbEntity
  8
MD_可視
100
AcDbLine
 10
101.0064212947345
 20
172.3766344427847
 30
0.0
 11
101.0064212947345
 21
172.3075903613645
 31
0.0
210
-0.0000000000000001
220
-1.0
230
-0.0000000000000004
  0
LINE
  5
1B1
330
12E
100
AcDbEntity
  8
MD_可視
100
AcDbLine
 10
101.0064212947345
 20
172.4300701248192
 30
0.0
 11
101.0064212947345
 21
172.3766344427847
 31
0.0
210
-0.0000000000000001
220
-1.0
230
-0.0000000000000004
  0
LINE
  5
1B2
330
12E
100
AcDbEntity
  8
MD_可視
100
AcDbLine
 10
101.2064212947352
 20
172.6363567270561
 30
0.0
 11
120.8064212947338
 21
172.6363567270561
 31
0.0
210
-0.0000000000000001
220
-1.0
230
-0.0000000000000004
  0
LINE
  5
1B3
330
12E
100
AcDbEntity
  8
MD_可視
100
AcDbLine
 10
101.2064212947352
 20
172.4102077702509
 30
0.0
 11
120.8064212947338
 21
172.4102077702509
 31
0.0
210
-0.0000000000000001
220
-1.0
230
-0.0000000000000004
  0
LINE
  5
1B4
330
12E
100
AcDbEntity
  8
MD_狭い可視
100
AcDbLine
 10
101.2064212947352
 20
172.1011884671062
 30
0.0
 11
101.2064212947352
 21
172.4102077702509
 31
0.0
210
-0.0000000000000001
220
-1.0
230
-0.0000000000000004
  0
LINE
  5
1B5
330
12E
100
AcDbEntity
  8
MD_狭い可視
100
AcDbLine
 10
120.8064212947338
 20
172.4102077702509
 30
0.0
 11
120.8064212947338
 21
172.1011884671062
 31
0.0
210
-0.0000000000000001
220
-1.0
230
-0.0000000000000004
  0
LINE
  5
1B6
330
12E
100
AcDbEntity
  8
MD_狭い可視
100
AcDbLine
 10
120.8064212947338
 20
172.6363567270561
 30
0.0
 11
120.8064212947338
 21
172.4102077702509
 31
0.0
210
-0.0000000000000001
220
-1.0
230
-0.0000000000000004
  0
LINE
  5
1B7
330
12E
100
AcDbEntity
  8
MD_狭い可視
100
AcDbLine
 10
101.2064212947352
 20
172.4102077702509
 30
0.0
 11
101.2064212947352
 21
172.6363567270561
 31
0.0
210
-0.0000000000000001
220
-1.0
230
-0.0000000000000004
  0
SPLINE
  5
1B8
330
12E
100
AcDbEntity
  8
MD_可視
100
AcDbSpline
210
0.0
220
0.0
230
1.0
 70
     8
 71
     3
 72
    16
 73
    12
 74
     0
 42
0.000000001
 43
0.0000000001
 40
-0.0314913390136421
 40
-0.0314913390136421
 40
-0.0314913390136421
 40
-0.0314913390136421
 40
-0.0236674331420197
 40
-0.0236674331420197
 40
-0.015835876731482
 40
-0.015835876731482
 40
-0.0079842236326122
 40
-0.0079842236326122
 40
0.0
 40
0.0
 40
0.0003516105763756
 40
0.0003516105763756
 40
0.0003516105763756
 40
0.0003516105763756
 10
120.8064212947338
 20
172.4102077702509
 30
0.0
 10
120.832381434895
 20
172.4102077702509
 30
0.0
 10
120.8580913042569
 20
172.4093650928994
 30
0.0
 10
120.9061488985135
 20
172.4060881450481
 30
0.0
 10
120.9280271346069
 20
172.4036842037767
 30
0.0
 10
120.9650729242621
 20
172.3976104415127
 30
0.0
 10
120.9798526308132
 20
172.3939987079557
 30
0.0
 10
121.0004950102757
 20
172.3859650893331
 30
0.0
 10
121.0059510502906
 20
172.3816404043004
 30
0.0
 10
121.0064116110552
 20
172.3770239349088
 30
0.0
 10
121.0064212947345
 20
172.3768291950374
 30
0.0
 10
121.0064212947345
 20
172.3766344427847
 30
0.0
  0
ARC
  5
1B9
330
12E
100
AcDbEntity
  8
MD_可視
100
AcDbCircle
 10
-120.8064212947338
 20
172.4363567270561
 30
0.0
 40
0.2000000000000006
210
0.0
220
0.0
230
-1.0
100
AcDbArc
 50
90.0
 51
96.43933014023129
  0
SPLINE
  5
1BA
330
12E
100
AcDbEntity
  8
MD_可視
100
AcDbSpline
210
0.0
220
0.0
230
1.0
 70
     8
 71
     3
 72
    16
 73
    12
 74
     0
 42
0.000000001
 43
0.0000000001
 40
-0.0633342886036606
 40
-0.0633342886036606
 40
-0.0633342886036606
 40
-0.0633342886036606
 40
-0.062982678027285
 40
-0.062982678027285
 40
-0.0549984543946733
 40
-0.0549984543946733
 40
-0.0471468012958027
 40
-0.0471468012958027
 40
-0.0393152448852646
 40
-0.0393152448852646
 40
-0.0314913390136421
 40
-0.0314913390136421
 40
-0.0314913390136421
 40
-0.0314913390136421
 10
101.0064212947345
 20
172.3766344427847
 30
0.0
 10
101.0064212947345
 20
172.3768291950374
 30
0.0
 10
101.0064309784138
 20
172.3770239349089
 30
0.0
 10
101.0068915391785
 20
172.3816404043004
 30
0.0
 10
101.0123475791933
 20
172.3859650893331
 30
0.0
 10
101.0329899586559
 20
172.3939987079557
 30
0.0
 10
101.0477696652069
 20
172.3976104415127
 30
0.0
 10
101.0848154548621
 20
172.4036842037767
 30
0.0
 10
101.1066936909555
 20
172.4060881450481
 30
0.0
 10
101.1547512852121
 20
172.4093650928994
 30
0.0
 10
101.180461154574
 20
172.4102077702509
 30
0.0
 10
101.2064212947352
 20
172.4102077702509
 30
0.0
  0
ARC
  5
1BB
330
12E
100
AcDbEntity
  8
MD_可視
100
AcDbCircle
 10
-101.2064212947352
 20
172.4363567270561
 30
0.0
 40
0.2000000000000006
210
0.0
220
0.0
230
-1.0
100
AcDbArc
 50
83.56066985987354
 51
90.00000000010421
  0
SPLINE
  5
1BC
330
12E
100
AcDbEntity
  8
MD_可視
100
AcDbSpline
210
0.0
220
0.0
230
1.0
 70
     8
 71
     3
 72
    10
 73
     6
 74
     0
 42
0.000000001
 43
0.0000000001
 40
-1.114850228307972
 40
-1.114850228307972
 40
-1.114850228307972
 40
-1.114850228307972
 40
0.0
 40
0.0
 40
0.0044614862365669
 40
0.0044614862365669
 40
0.0044614862365669
 40
0.0044614862365669
 10
97.25642129473454
 20
189.8858667692932
 30
0.0
 10
97.43536190777195
 20
187.2657311165463
 30
0.0
 10
97.74731713859546
 20
184.1510725721084
 30
0.0
 10
98.11947985549522
 20
180.55480098199
 30
0.0
 10
98.12096327699691
 20
180.5404649043121
 30
0.0
 10
98.12244669851862
 20
180.5261272017281
 30
0.0
  0
SPLINE
  5
1BD
330
12E
100
AcDbEntity
  8
MD_可視
100
AcDbSpline
210
0.0
220
0.0
230
1.0
 70
     8
 71
     3
 72
    10
 73
     6
 74
     0
 42
0.000000001
 43
0.0000000001
 40
-6.766543446019648
 40
-6.766543446019648
 40
-6.766543446019648
 40
-6.766543446019648
 40
-6.761013722756164
 40
-6.761013722756164
 40
-5.437133277584497
 40
-5.437133277584497
 40
-5.437133277584497
 40
-5.437133277584497
 10
123.8903958909504
 20
180.5261272017281
 30
0.0
 10
123.8918793124721
 20
180.5404649043014
 30
0.0
 10
123.8933627339756
 20
180.5548009819784
 30
0.0
 10
124.2499919923011
 20
184.0009701230701
 30
0.0
 10
124.5783884892498
 20
187.108636992119
 30
0.0
 10
124.7564212947345
 20
189.8858667692932
 30
0.0
  0
LINE
  5
1BE
330
12E
100
AcDbEntity
  8
MD_狭い可視
100
AcDbLine
 10
123.8903958909504
 20
155.6691639374482
 30
0.0
 11
124.7564212947345
 21
155.6691639374482
 31
0.0
210
-0.0000000000000001
220
-1.0
230
-0.0000000000000004
  0
LINE
  5
1BF
330
12E
100
AcDbEntity
  8
MD_狭い可視
100
AcDbLine
 10
123.8903958909504
 20
135.6752967692932
 30
0.0
 11
124.7564212947345
 21
135.6752967692932
 31
0.0
210
-0.0000000000000001
220
-1.0
230
-0.0000000000000004
  0
LINE
  5
1C0
330
12E
100
AcDbEntity
  8
MD_狭い可視
100
AcDbLine
 10
123.7564212947345
 20
135.5413221730776
 30
0.0
 11
123.7564212947345
 21
134.6752967692932
 31
0.0
210
-0.0000000000000001
220
-1.0
230
-0.0000000000000004
  0
LINE
  5
1C1
330
12E
100
AcDbEntity
  8
MD_狭い可視
100
AcDbLine
 10
98.25642129473454
 20
135.5413221730776
 30
0.0
 11
98.25642129473454
 21
134.6752967692932
 31
0.0
210
-0.0000000000000001
220
-1.0
230
-0.0000000000000004
  0
LINE
  5
1C2
330
12E
100
AcDbEntity
  8
MD_狭い可視
100
AcDbLine
 10
98.12244669851862
 20
135.6752967692932
 30
0.0
 11
97.25642129473454
 21
135.6752967692932
 31
0.0
210
-0.0000000000000001
220
-1.0
230
-0.0000000000000004
  0
LINE
  5
1C3
330
12E
100
AcDbEntity
  8
MD_狭い可視
100
AcDbLine
 10
98.12244669851862
 20
155.6691639374482
 30
0.0
 11
97.25642129473454
 21
155.6691639374482
 31
0.0
210
-0.0000000000000001
220
-1.0
230
-0.0000000000000004
  0
LINE
  5
1C4
330
12E
100
AcDbEntity
  8
MD_狭い可視
100
AcDbLine
 10
96.00642129473454
 20
131.3803220224626
 30
0.0
 11
96.00642129473454
 21
132.9702715161237
 31
0.0
210
-0.0000000000000001
220
-1.0
230
-0.0000000000000004
  0
LINE
  5
1C5
330
12E
100
AcDbEntity
  8
MD_狭い可視
100
AcDbLine
 10
96.00642129473454
 20
131.3803220224626
 30
0.0
 11
102.4527511278211
 21
131.3803220224626
 31
0.0
210
-0.0000000000000001
220
-1.0
230
-0.0000000000000004
  0
LINE
  5
1C6
330
12E
100
AcDbEntity
  8
MD_狭い可視
100
AcDbLine
 10
103.6631602483849
 20
132.9702715161237
 30
0.0
 11
96.00642129473454
 21
132.9702715161237
 31
0.0
210
-0.0000000000000001
220
-1.0
230
-0.0000000000000004
  0
LINE
  5
1C7
330
12E
100
AcDbEntity
  8
MD_狭い可視
100
AcDbLine
 10
93.71144654790441
 20
133.6752967692932
 30
0.0
 11
95.30139604156465
 21
133.6752967692932
 31
0.0
210
-0.0000000000000001
220
-1.0
230
-0.0000000000000004
  0
ARC
  5
1C8
330
12E
100
AcDbEntity
  8
MD_狭い可視
100
AcDbCircle
 10
96.00642129473454
 20
133.6752967692932
 30
0.0
 40
2.294974746830582
100
AcDbArc
 50
180.0
 51
270.0
  0
ARC
  5
1C9
330
12E
100
AcDbEntity
  8
MD_狭い可視
100
AcDbCircle
 10
-96.00642129473454
 20
133.6752967692932
 30
0.0
 40
0.7050252531694073
210
0.0
220
0.0
230
-1.0
100
AcDbArc
 50
270.0
 51
0.0
  0
LINE
  5
1CA
330
12E
100
AcDbEntity
  8
MD_狭い可視
100
AcDbLine
 10
93.71144654790441
 20
155.6691639374482
 30
0.0
 11
95.30139604156465
 21
155.6691639374482
 31
0.0
210
-0.0000000000000001
220
-1.0
230
-0.0000000000000004
  0
LINE
  5
1CB
330
12E
100
AcDbEntity
  8
MD_狭い可視
100
AcDbLine
 10
93.71144654790441
 20
155.6691639374482
 30
0.0
 11
93.71144654790441
 21
133.6752967692932
 31
0.0
210
-0.0000000000000001
220
-1.0
230
-0.0000000000000004
  0
LINE
  5
1CC
330
12E
100
AcDbEntity
  8
MD_狭い可視
100
AcDbLine
 10
95.30139604156465
 20
133.6752967692932
 30
0.0
 11
95.30139604156465
 21
155.6691639374482
 31
0.0
210
-0.0000000000000001
220
-1.0
230
-0.0000000000000004
  0
LINE
  5
1CD
330
12E
100
AcDbEntity
  8
MD_狭い可視
100
AcDbLine
 10
93.71144654790441
 20
190.0469455251196
 30
0.0
 11
95.30139604156465
 21
190.6035253568299
 31
0.0
210
-0.0000000000000001
220
-1.0
230
-0.0000000000000004
  0
LINE
  5
1CE
330
12E
100
AcDbEntity
  8
MD_狭い可視
100
AcDbLine
 10
93.71144654790441
 20
155.6691639374482
 30
0.0
 11
93.71144654790441
 21
190.0469455251183
 31
0.0
210
-0.0000000000000001
220
-1.0
230
-0.0000000000000004
  0
LINE
  5
1CF
330
12E
100
AcDbEntity
  8
MD_狭い可視
100
AcDbLine
 10
95.30139604156465
 20
190.6035253568284
 30
0.0
 11
95.30139604156465
 21
155.6691639374482
 31
0.0
210
-0.0000000000000001
220
-1.0
230
-0.0000000000000004
  0
SPLINE
  5
1D0
330
12E
100
AcDbEntity
  8
MD_狭い可視
100
AcDbSpline
210
0.0
220
0.0
230
1.0
 70
     8
 71
     3
 72
    20
 73
    16
 74
     0
 42
0.000000001
 43
0.0000000001
 40
0.0003015930655153
 40
0.0003015930655153
 40
0.0003015930655153
 40
0.0003015930655153
 40
0.0004283574328934
 40
0.0004283574328934
 40
0.0004283574328934
 40
0.0007408477773918
 40
0.0007408477773918
 40
0.0007408477773918
 40
0.0013795746312629
 40
0.0013795746312629
 40
0.0013795746312629
 40
0.0014694795453539
 40
0.0014694795453539
 40
0.0014694795453539
 40
0.0026373660251924
 40
0.0026373660251924
 40
0.0026373660251924
 40
0.0026373660251924
 10
95.30139491044611
 20
191.9022916946512
 30
0.0
 10
95.2734356807341
 20
191.8720890779768
 30
0.0
 10
95.24530618902099
 20
191.8421167117978
 30
0.0
 10
95.21708791320088
 20
191.8123674443355
 30
0.0
 10
95.14752626180598
 20
191.7390317031478
 30
0.0
 10
95.07731558832892
 20
191.6670098328966
 30
0.0
 10
95.00705792865483
 20
191.5964436290716
 30
0.0
 10
94.86345203901874
 20
191.4522070785594
 30
0.0
 10
94.71947122958045
 20
191.3137860547792
 30
0.0
 10
94.57444473400574
 20
191.1791743009339
 30
0.0
 10
94.55403132168795
 20
191.1602268305218
 30
0.0
 10
94.53359707572781
 20
191.1413561710711
 30
0.0
 10
94.51313776022107
 20
191.1225578253398
 30
0.0
 10
94.24736632592795
 20
190.8783627883393
 30
0.0
 10
93.97975778219551
 20
190.6481983889909
 30
0.0
 10
93.71144653302872
 20
190.4330578115438
 30
0.0
  0
LINE
  5
1D1
330
12E
100
AcDbEntity
  8
MD_狭い可視
100
AcDbLine
 10
93.71144654790441
 20
190.0469455251196
 30
0.0
 11
93.71144654790441
 21
190.4330578035366
 31
0.0
210
-0.0000000000000001
220
-1.0
230
-0.0000000000000004
  0
LINE
  5
1D2
330
12E
100
AcDbEntity
  8
MD_狭い可視
100
AcDbLine
 10
95.30139604156465
 20
191.9022908952836
 30
0.0
 11
95.30139604156465
 21
190.6035253568298
 31
0.0
210
-0.0000000000000001
220
-1.0
230
-0.0000000000000004
  0
SPLINE
  5
1D3
330
12E
100
AcDbEntity
  8
MD_狭い可視
100
AcDbSpline
210
0.0
220
0.0
230
1.0
 70
     8
 71
     3
 72
    23
 73
    19
 74
     0
 42
0.000000001
 43
0.0000000001
 40
0.0
 40
0.0
 40
0.0
 40
0.0
 40
0.000717180618605
 40
0.000717180618605
 40
0.000717180618605
 40
0.0007384265425952
 40
0.0007384265425952
 40
0.0007384265425952
 40
0.0014343612372101
 40
0.0014343612372101
 40
0.0014343612372101
 40
0.0014572942735724
 40
0.0014572942735724
 40
0.0014572942735724
 40
0.0021515418558151
 40
0.0021515418558151
 40
0.0021515418558151
 40
0.0028687147349582
 40
0.0028687147349582
 40
0.0028687147349582
 40
0.0028687147349582
 10
95.30251924625373
 20
192.0538033132091
 30
0.0
 10
95.31199066904264
 20
192.2316716587683
 30
0.0
 10
95.34266156039121
 20
192.3924496764347
 30
0.0
 10
95.38583492500766
 20
192.5307846556918
 30
0.0
 10
95.38711390271419
 20
192.5348827230101
 30
0.0
 10
95.38840377468478
 20
192.5389618687235
 30
0.0
 10
95.38970429621803
 20
192.5430220458346
 30
0.0
 10
95.43230437593775
 20
192.67601782042
 30
0.0
 10
95.48698764761139
 20
192.7898407492034
 30
0.0
 10
95.55026177163382
 20
192.8833848751833
 30
0.0
 10
95.55234683478557
 20
192.886467421375
 30
0.0
 10
95.55444021610311
 20
192.889526457513
 30
0.0
 10
95.55654178274016
 20
192.8925620527297
 30
0.0
 10
95.62016212214439
 20
192.9844580671325
 30
0.0
 10
95.69061121135019
 20
193.0540854397224
 30
0.0
 10
95.76565118663712
 20
193.101592305465
 30
0.0
 10
95.84316911612404
 20
193.1506679328855
 30
0.0
 10
95.92469496831837
 20
193.1752914342427
 30
0.0
 10
96.00642928786875
 20
193.175296769124
 30
0.0
  0
SPLINE
  5
1D4
330
12E
100
AcDbEntity
  8
MD_狭い可視
100
AcDbSpline
210
0.0
220
0.0
230
1.0
 70
     8
 71
     3
 72
    29
 73
    25
 74
     0
 42
0.000000001
 43
0.0000000001
 40
-0.0000307491371207
 40
-0.0000307491371207
 40
-0.0000307491371207
 40
-0.0000307491371207
 40
0.0007954908162367
 40
0.0007954908162367
 40
0.0007954908162367
 40
0.0008090170599336
 40
0.0008090170599336
 40
0.0008090170599336
 40
0.0012086182192611
 40
0.0012086182192611
 40
0.0012086182192611
 40
0.0016217456222854
 40
0.0016217456222854
 40
0.0016217456222854
 40
0.0016426835780029
 40
0.0016426835780029
 40
0.0016426835780029
 40
0.0020569751856311
 40
0.0020569751856311
 40
0.0020569751856311
 40
0.0024688036041862
 40
0.0024688036041862
 40
0.0024688036041862
 40
0.0032742552343831
 40
0.0032742552343831
 40
0.0032742552343831
 40
0.0032742552343831
 10
96.00642277173211
 20
193.1752967686969
 30
0.0
 10
95.75980525957493
 20
193.1752865485682
 30
0.0
 10
95.51284537238462
 20
193.1317249901342
 30
0.0
 10
95.2817295802979
 20
193.0491733430129
 30
0.0
 10
95.27794602019094
 20
193.0478219030444
 30
0.0
 10
95.27416763192922
 20
193.0464602868912
 30
0.0
 10
95.27039444234288
 20
193.045088509934
 30
0.0
 10
95.1589244017723
 20
193.0045625757033
 30
0.0
 10
95.05061153882161
 20
192.9548035071189
 30
0.0
 10
94.94578263943912
 20
192.8960118056678
 30
0.0
 10
94.83740534884963
 20
192.83523004272
 30
0.0
 10
94.73239092054972
 20
192.7643865484448
 30
0.0
 10
94.6341078515743
 20
192.685257415927
 30
0.0
 10
94.62912670887817
 20
192.6812470252812
 30
0.0
 10
94.62416193852186
 20
192.677214968101
 30
0.0
 10
94.6192137125654
 20
192.6731613330349
 30
0.0
 10
94.52130499053964
 20
192.5929535510081
 30
0.0
 10
94.42939380332063
 20
192.5039226796856
 30
0.0
 10
94.34584662157249
 20
192.4086196808985
 30
0.0
 10
94.26279617328873
 20
192.3138833103049
 30
0.0
 10
94.18749964900234
 20
192.2125977762332
 30
0.0
 10
94.11995492893948
 20
192.1046963709765
 30
0.0
 10
93.98785135756407
 20
191.8936634289821
 30
0.0
 10
93.8851240518834
 20
191.6527493891504
 30
0.0
 10
93.82374616799642
 20
191.4020383121398
 30
0.0
  0
SPLINE
  5
1D5
330
12E
100
AcDbEntity
  8
MD_狭い可視
100
AcDbSpline
210
0.0
220
0.0
230
1.0
 70
     8
 71
     3
 72
    10
 73
     6
 74
     0
 42
0.000000001
 43
0.0000000001
 40
0.000312969988993
 40
0.000312969988993
 40
0.000312969988993
 40
0.000312969988993
 40
0.0013047485237843
 40
0.0013047485237843
 40
0.0022965270585755
 40
0.0022965270585755
 40
0.0022965270585755
 40
0.0022965270585755
 10
93.82374616798733
 20
191.4020383121017
 30
0.0
 10
94.07818821604996
 20
191.5216178721346
 30
0.0
 10
94.33116699938
 20
191.6356319247329
 30
0.0
 10
94.82739110104375
 20
191.8540149376397
 30
0.0
 10
95.07152200311793
 20
191.9596593142497
 30
0.0
 10
95.30251924624645
 20
192.0538033130459
 30
0.0
  0
SPLINE
  5
1D6
330
12E
100
AcDbEntity
  8
MD_狭い可視
100
AcDbSpline
210
0.0
220
0.0
230
1.0
 70
     8
 71
     3
 72
    26
 73
    22
 74
     0
 42
0.000000001
 43
0.0000000001
 40
0.0002394597771238
 40
0.0002394597771238
 40
0.0002394597771238
 40
0.0002394597771238
 40
0.0002704214584149
 40
0.0002704214584149
 40
0.0002704214584149
 40
0.0003004155871657
 40
0.0003004155871657
 40
0.0003004155871657
 40
0.0006680868095844
 40
0.0006680868095844
 40
0.0006680868095844
 40
0.0010672985896812
 40
0.0010672985896812
 40
0.0010672985896812
 40
0.0012302335784389
 40
0.0012302335784389
 40
0.0012302335784389
 40
0.0018098389444666
 40
0.0018098389444666
 40
0.0018098389444666
 40
0.002221007379754
 40
0.002221007379754
 40
0.002221007379754
 40
0.002221007379754
 10
126.7103122182925
 20
192.0540063240378
 30
0.0
 10
126.7175230389293
 20
192.0510620599927
 30
0.0
 10
126.7247465725213
 20
192.0481061413234
 30
0.0
 10
126.7319827777828
 20
192.0451390016119
 30
0.0
 10
126.7389928516295
 20
192.0422645850165
 30
0.0
 10
126.7460148337431
 20
192.0393796470096
 30
0.0
 10
126.7530479443448
 20
192.0364842952809
 30
0.0
 10
126.8392605625995
 20
192.0009927656461
 30
0.0
 10
126.9263825531397
 20
191.9640499343134
 30
0.0
 10
127.0154579541249
 20
191.9259793137692
 30
0.0
 10
127.1121746597619
 20
191.8846428172742
 30
0.0
 10
127.2112158150503
 20
191.841807806567
 30
0.0
 10
127.3109116772484
 20
191.7982821065464
 30
0.0
 10
127.351601719467
 20
191.7805174518015
 30
0.0
 10
127.3924264237739
 20
191.7626282938409
 30
0.0
 10
127.4332302572766
 20
191.7446749171023
 30
0.0
 10
127.57838091542
 20
191.6808097302854
 30
0.0
 10
127.7248936711767
 20
191.6154659240096
 30
0.0
 10
127.8728159365855
 20
191.5482630236923
 30
0.0
 10
127.9777510700005
 20
191.5005897049313
 30
0.0
 10
128.0832694085966
 20
191.4519856831035
 30
0.0
 10
128.1889487971621
 20
191.4024970383538
 30
0.0
  0
SPLINE
  5
1D7
330
12E
100
AcDbEntity
  8
MD_可視
100
AcDbSpline
210
0.0
220
0.0
230
1.0
 70
     8
 71
     3
 72
    14
 73
    10
 74
     0
 42
0.000000001
 43
0.0000000001
 40
0.0
 40
0.0
 40
0.0
 40
0.0
 40
0.0008268278946839
 40
0.0008268278946839
 40
0.0008268278946839
 40
0.0012402418420258
 40
0.0012402418420258
 40
0.0012402418420258
 40
0.0016362842666917
 40
0.0016362842666917
 40
0.0016362842666917
 40
0.0016362842666917
 10
128.1889487971621
 20
191.4024970383538
 30
0.0
 10
128.0893466101952
 20
191.6420533404012
 30
0.0
 10
127.9871391416109
 20
191.8832101526107
 30
0.0
 10
127.8635807900827
 20
192.1015855248548
 30
0.0
 10
127.8018016143178
 20
192.2107732109768
 30
0.0
 10
127.7308193115604
 20
192.3163578916999
 30
0.0
 10
127.650447556025
 20
192.4151867240953
 30
0.0
 10
127.5734529961119
 20
192.5098628003632
 30
0.0
 10
127.4869412151492
 20
192.5984967412599
 30
0.0
 10
127.3946398309526
 20
192.6729797003826
 30
0.0
  0
SPLINE
  5
1D8
330
12E
100
AcDbEntity
  8
MD_可視
100
AcDbSpline
210
0.0
220
0.0
230
1.0
 70
     8
 71
     3
 72
    20
 73
    16
 74
     0
 42
0.000000001
 43
0.0000000001
 40
0.0016362842666917
 40
0.0016362842666917
 40
0.0016362842666917
 40
0.0016362842666917
 40
0.0016536557893677
 40
0.0016536557893677
 40
0.0016536557893677
 40
0.0024804836840516
 40
0.0024804836840516
 40
0.0024804836840516
 40
0.0028938976313935
 40
0.0028938976313935
 40
0.0028938976313935
 40
0.0031006046050645
 40
0.0031006046050645
 40
0.0031006046050645
 40
0.0031261809963036
 40
0.0031261809963036
 40
0.0031261809963036
 40
0.0031261809963036
 10
127.3946398309526
 20
192.6729797003826
 30
0.0
 10
127.3905912354257
 20
192.6762467302077
 30
0.0
 10
127.3865318820262
 20
192.6794873077852
 30
0.0
 10
127.3824626066398
 20
192.6827014948407
 30
0.0
 10
127.1887783532074
 20
192.8356863290274
 30
0.0
 10
126.956731983455
 20
192.9344232532525
 30
0.0
 10
126.7250516641015
 20
193.0061182795667
 30
0.0
 10
126.6092115044248
 20
193.0419657927239
 30
0.0
 10
126.4896733722144
 20
193.0721853894345
 30
0.0
 10
126.3692661654313
 20
193.0994849528581
 30
0.0
 10
126.3090625620407
 20
193.1131347345699
 30
0.0
 10
126.248580682819
 20
193.1260752023904
 30
0.0
 10
126.1882142881186
 20
193.1386120074613
 30
0.0
 10
126.1807449971656
 20
193.1401632189452
 30
0.0
 10
126.1732708341405
 20
193.1417080903023
 30
0.0
 10
126.1660800533791
 20
193.1436562580156
 30
0.0
  0
SPLINE
  5
1D9
330
12E
100
AcDbEntity
  8
MD_狭い可視
100
AcDbSpline
210
0.0
220
0.0
230
1.0
 70
     8
 71
     3
 72
    44
 73
    40
 74
     0
 42
0.000000001
 43
0.0000000001
 40
-0.0000251724387993
 40
-0.0000251724387993
 40
-0.0000251724387993
 40
-0.0000251724387993
 40
0.0003336263763139
 40
0.0003336263763139
 40
0.0003336263763139
 40
0.000671596538463
 40
0.000671596538463
 40
0.000671596538463
 40
0.0006924254458784
 40
0.0006924254458784
 40
0.0006924254458784
 40
0.0010256764983267
 40
0.0010256764983267
 40
0.0010256764983267
 40
0.0013888439766058
 40
0.0013888439766058
 40
0.0013888439766058
 40
0.0014100235850073
 40
0.0014100235850073
 40
0.0014100235850073
 40
0.0015735073931108
 40
0.0015735073931108
 40
0.0015735073931108
 40
0.0017594832007193
 40
0.0017594832007193
 40
0.0017594832007193
 40
0.0021276217241363
 40
0.0021276217241363
 40
0.0021276217241363
 40
0.0021405949229115
 40
0.0021405949229115
 40
0.0021405949229115
 40
0.0023371932906562
 40
0.0023371932906562
 40
0.0023371932906562
 40
0.0025363874915422
 40
0.0025363874915422
 40
0.0025363874915422
 40
0.0028452198632653
 40
0.0028452198632653
 40
0.0028452198632653
 40
0.0028452198632653
 10
126.0064213579426
 20
193.1752967692368
 30
0.0
 10
126.0361311356555
 20
193.1752702538272
 30
0.0
 10
126.0789906167847
 20
193.1695762148702
 30
0.0
 10
126.1231098041771
 20
193.157095534557
 30
0.0
 10
126.1646678258003
 20
193.1453393710151
 30
0.0
 10
126.2042705063249
 20
193.1278585514636
 30
0.0
 10
126.2408281949556
 20
193.1053657217196
 30
0.0
 10
126.2430812243565
 20
193.1039795015123
 30
0.0
 10
126.2453286023719
 20
193.1025737049011
 30
0.0
 10
126.2475723279913
 20
193.101148155132
 30
0.0
 10
126.2834707027305
 20
193.0783401435847
 30
0.0
 10
126.3183245845848
 20
193.0504567514402
 30
0.0
 10
126.3518778001962
 20
193.0175716090707
 30
0.0
 10
126.3884431361875
 20
192.9817343202176
 30
0.0
 10
126.423448159072
 20
192.9400073637242
 30
0.0
 10
126.4565622595037
 20
192.8921788275173
 30
0.0
 10
126.4584934447612
 20
192.8893895092884
 30
0.0
 10
126.460417660046
 20
192.886579840953
 30
0.0
 10
126.4623345914642
 20
192.8837502164535
 30
0.0
 10
126.4771312412449
 20
192.8619085572542
 30
0.0
 10
126.4915832415263
 20
192.8387444950896
 30
0.0
 10
126.505512340349
 20
192.8144488764341
 30
0.0
 10
126.5213577958275
 20
192.7868106818433
 30
0.0
 10
126.5365884916264
 20
192.7576210355055
 30
0.0
 10
126.5510625212209
 20
192.7270095123147
 30
0.0
 10
126.5797138170601
 20
192.6664140989009
 30
0.0
 10
126.6054795456439
 20
192.600099496692
 30
0.0
 10
126.6275453051366
 20
192.5290447792098
 30
0.0
 10
126.6283229023338
 20
192.5265408115043
 30
0.0
 10
126.6290962607218
 20
192.5240301327667
 30
0.0
 10
126.6298653691374
 20
192.5215127150976
 30
0.0
 10
126.6415205871071
 20
192.4833632800005
 30
0.0
 10
126.6522171219057
 20
192.443503205674
 30
0.0
 10
126.6617611071051
 20
192.402234734968
 30
0.0
 10
126.6714311085743
 20
192.3604213662287
 30
0.0
 10
126.6799083278874
 20
192.3172835711275
 30
0.0
 10
126.687067415678
 20
192.2727103078541
 30
0.0
 10
126.6981669258621
 20
192.2036035439477
 30
0.0
 10
126.7062168576685
 20
192.1309308587079
 30
0.0
 10
126.7103139724222
 20
192.0540075982921
 30
0.0
  0
LINE
  5
1DA
330
12E
100
AcDbEntity
  8
MD_狭い可視
100
AcDbLine
 10
128.3013960415646
 20
190.0469455251196
 30
0.0
 11
126.7114465479044
 21
190.6035253568299
 31
0.0
210
-0.0000000000000001
220
-1.0
230
-0.0000000000000004
  0
LINE
  5
1DB
330
12E
100
AcDbEntity
  8
MD_狭い可視
100
AcDbLine
 10
128.3013960415646
 20
190.4330472483684
 30
0.0
 11
128.3013960415646
 21
190.0469455251196
 31
0.0
210
-0.0000000000000001
220
-1.0
230
-0.0000000000000004
  0
SPLINE
  5
1DC
330
12E
100
AcDbEntity
  8
MD_狭い可視
100
AcDbSpline
210
0.0
220
0.0
230
1.0
 70
     8
 71
     3
 72
    20
 73
    16
 74
     0
 42
0.000000001
 43
0.0000000001
 40
0.0002967369497231
 40
0.0002967369497231
 40
0.0002967369497231
 40
0.0002967369497231
 40
0.0014633833002429
 40
0.0014633833002429
 40
0.0014633833002429
 40
0.0015535835936155
 40
0.0015535835936155
 40
0.0015535835936155
 40
0.0021918563833183
 40
0.0021918563833183
 40
0.0021918563833183
 40
0.0025039967503663
 40
0.0025039967503663
 40
0.0025039967503663
 40
0.0026300296507626
 40
0.0026300296507626
 40
0.0026300296507626
 40
0.0026300296507626
 10
128.3013960571188
 20
190.4330472567392
 30
0.0
 10
128.0329815960576
 20
190.6482718383373
 30
0.0
 10
127.7654461180882
 20
190.8783969634224
 30
0.0
 10
127.4996990119252
 20
191.1225771990203
 30
0.0
 10
127.479152539614
 20
191.1414562096793
 30
0.0
 10
127.4586322986397
 20
191.1604071668807
 30
0.0
 10
127.4381335722701
 20
191.1794349575852
 30
0.0
 10
127.2930810588441
 20
191.3140788772528
 30
0.0
 10
127.1491109233539
 20
191.4524881739602
 30
0.0
 10
127.0054479933769
 20
191.5967743455365
 30
0.0
 10
126.9351911997037
 20
191.6673359287378
 30
0.0
 10
126.8649696710126
 20
191.7393658433351
 30
0.0
 10
126.7953933295848
 20
191.8127290123709
 30
0.0
 10
126.7673004936841
 20
191.8423508554644
 30
0.0
 10
126.7392899415117
 20
191.8721973491516
 30
0.0
 10
126.7114477483537
 20
191.902275798839
 30
0.0
  0
LINE
  5
1DD
330
12E
100
AcDbEntity
  8
MD_狭い可視
100
AcDbLine
 10
126.7114465479044
 20
190.6035253568298
 30
0.0
 11
126.7114465479044
 21
191.9022749504831
 31
0.0
210
-0.0000000000000001
220
-1.0
230
-0.0000000000000004
  0
LINE
  5
1DE
330
12E
100
AcDbEntity
  8
MD_狭い可視
100
AcDbLine
 10
128.3013960415646
 20
155.6691639374482
 30
0.0
 11
126.7114465479044
 21
155.6691639374482
 31
0.0
210
-0.0000000000000001
220
-1.0
230
-0.0000000000000004
  0
LINE
  5
1DF
330
12E
100
AcDbEntity
  8
MD_狭い可視
100
AcDbLine
 10
128.3013960415646
 20
190.0469455251181
 30
0.0
 11
128.3013960415646
 21
155.6691639374482
 31
0.0
210
-0.0000000000000001
220
-1.0
230
-0.0000000000000004
  0
LINE
  5
1E0
330
12E
100
AcDbEntity
  8
MD_狭い可視
100
AcDbLine
 10
126.7114465479044
 20
155.6691639374482
 30
0.0
 11
126.7114465479044
 21
190.6035253568285
 31
0.0
210
-0.0000000000000001
220
-1.0
230
-0.0000000000000004
  0
LINE
  5
1E1
330
12E
100
AcDbEntity
  8
MD_狭い可視
100
AcDbLine
 10
128.3013960415646
 20
133.6752967692932
 30
0.0
 11
126.7114465479044
 21
133.6752967692932
 31
0.0
210
-0.0000000000000001
220
-1.0
230
-0.0000000000000004
  0
LINE
  5
1E2
330
12E
100
AcDbEntity
  8
MD_狭い可視
100
AcDbLine
 10
128.3013960415646
 20
133.6752967692932
 30
0.0
 11
128.3013960415646
 21
155.6691639374482
 31
0.0
210
-0.0000000000000001
220
-1.0
230
-0.0000000000000004
  0
LINE
  5
1E3
330
12E
100
AcDbEntity
  8
MD_狭い可視
100
AcDbLine
 10
126.7114465479044
 20
155.6691639374482
 30
0.0
 11
126.7114465479044
 21
133.6752967692932
 31
0.0
210
-0.0000000000000001
220
-1.0
230
-0.0000000000000004
  0
LINE
  5
1E4
330
12E
100
AcDbEntity
  8
MD_狭い可視
100
AcDbLine
 10
126.0064212947345
 20
131.3803220224626
 30
0.0
 11
126.0064212947345
 21
132.9702715161237
 31
0.0
210
-0.0000000000000001
220
-1.0
230
-0.0000000000000004
  0
ARC
  5
1E5
330
12E
100
AcDbEntity
  8
MD_狭い可視
100
AcDbCircle
 10
126.0064212947345
 20
133.6752967692932
 30
0.0
 40
2.294974746830582
100
AcDbArc
 50
270.0
 51
0.0
  0
ARC
  5
1E6
330
12E
100
AcDbEntity
  8
MD_狭い可視
100
AcDbCircle
 10
-126.0064212947345
 20
133.6752967692932
 30
0.0
 40
0.7050252531694073
210
0.0
220
0.0
230
-1.0
100
AcDbArc
 50
180.0
 51
270.0
  0
LINE
  5
1E7
330
12E
100
AcDbEntity
  8
MD_狭い可視
100
AcDbLine
 10
119.5600914616479
 20
131.3803220224626
 30
0.0
 11
126.0064212947345
 21
131.3803220224626
 31
0.0
210
-0.0000000000000001
220
-1.0
230
-0.0000000000000004
  0
LINE
  5
1E8
330
12E
100
AcDbEntity
  8
MD_狭い可視
100
AcDbLine
 10
126.0064212947345
 20
132.9702715161237
 30
0.0
 11
118.3496823410842
 21
132.9702715161237
 31
0.0
210
-0.0000000000000001
220
-1.0
230
-0.0000000000000004
  0
SPLINE
  5
1E9
330
12E
100
AcDbEntity
  8
MD_狭い可視
100
AcDbSpline
210
0.0
220
0.0
230
1.0
 70
     8
 71
     3
 72
     8
 73
     4
 74
     0
 42
0.000000001
 43
0.0000000001
 40
0.0000000000000001
 40
0.0000000000000001
 40
0.0000000000000001
 40
0.0000000000000001
 40
0.0005078118318466
 40
0.0005078118318466
 40
0.0005078118318466
 40
0.0005078118318466
 10
93.82374616798733
 20
191.4020383121017
 30
0.0
 10
93.77360316262274
 20
191.2424342122497
 30
0.0
 10
93.74603943501098
 20
191.0855872751593
 30
0.0
 10
93.73782728719744
 20
190.9330740517584
 30
0.0
  0
SPLINE
  5
1EA
330
12E
100
AcDbEntity
  8
MD_狭い可視
100
AcDbSpline
210
0.0
220
0.0
230
1.0
 70
     8
 71
     3
 72
     8
 73
     4
 74
     0
 42
0.000000001
 43
0.0000000001
 40
0.0
 40
0.0
 40
0.0
 40
0.0
 40
0.0005699933948332
 40
0.0005699933948332
 40
0.0005699933948332
 40
0.0005699933948332
 10
93.73782728719744
 20
190.9330740517584
 30
0.0
 10
93.72873962731864
 20
190.7643011152629
 30
0.0
 10
93.71999805086852
 20
190.597509763289
 30
0.0
 10
93.71144654790441
 20
190.4330578035371
 30
0.0
  0
SPLINE
  5
1EB
330
12E
100
AcDbEntity
  8
MD_狭い可視
100
AcDbSpline
210
0.0
220
0.0
230
1.0
 70
     8
 71
     3
 72
     8
 73
     4
 74
     0
 42
0.000000001
 43
0.0000000001
 40
0.0000000000000104
 40
0.0000000000000104
 40
0.0000000000000104
 40
0.0000000000000104
 40
0.000211446674051
 40
0.000211446674051
 40
0.000211446674051
 40
0.000211446674051
 10
95.30139491044611
 20
191.9022916946512
 30
0.0
 10
95.30461901347553
 20
191.9543966383522
 30
0.0
 10
95.30495540947413
 20
192.0048367838638
 30
0.0
 10
95.30252097608899
 20
192.0538020569235
 30
0.0
  0
SPLINE
  5
1EC
330
12E
100
AcDbEntity
  8
MD_狭い可視
100
AcDbSpline
210
0.0
220
0.0
230
1.0
 70
     8
 71
     3
 72
     8
 73
     4
 74
     0
 42
0.000000001
 43
0.0000000001
 40
0.0
 40
0.0
 40
0.0
 40
0.0
 40
0.0005700046782617
 40
0.0005700046782617
 40
0.0005700046782617
 40
0.0005700046782617
 10
128.3013960415646
 20
190.4330472483677
 30
0.0
 10
128.2928441780368
 20
190.5975031288467
 30
0.0
 10
128.2841021553267
 20
190.7642984009573
 30
0.0
 10
128.2750131320335
 20
190.9330750725193
 30
0.0
  0
SPLINE
  5
1ED
330
12E
100
AcDbEntity
  8
MD_狭い可視
100
AcDbSpline
210
0.0
220
0.0
230
1.0
 70
     8
 71
     3
 72
     8
 73
     4
 74
     0
 42
0.000000001
 43
0.0000000001
 40
0.0
 40
0.0
 40
0.0
 40
0.0
 40
0.0005082853397476
 40
0.0005082853397476
 40
0.0005082853397476
 40
0.0005082853397476
 10
128.2750131320335
 20
190.9330750725193
 30
0.0
 10
128.2667920433978
 20
191.0857348173263
 30
0.0
 10
128.2391815212322
 20
191.2427317331467
 30
0.0
 10
128.1889487971621
 20
191.4024970383538
 30
0.0
  0
SPLINE
  5
1EE
330
12E
100
AcDbEntity
  8
MD_狭い可視
100
AcDbSpline
210
0.0
220
0.0
230
1.0
 70
     8
 71
     3
 72
     8
 73
     4
 74
     0
 42
0.000000001
 43
0.0000000001
 40
0.0
 40
0.0
 40
0.0
 40
0.0
 40
0.0002117474412517
 40
0.0002117474412517
 40
0.0002117474412517
 40
0.0002117474412517
 10
126.7103122182925
 20
192.0540063240378
 30
0.0
 10
126.7078881212965
 20
192.0049636233914
 30
0.0
 10
126.7082185586059
 20
191.9544553195167
 30
0.0
 10
126.7114477483537
 20
191.902275798839
 30
0.0
  0
LINE
  5
1EF
330
12E
100
AcDbEntity
  8
MD_狭い可視
100
AcDbLine
 10
126.0064212947345
 20
131.1752967692932
 30
0.0
 11
126.0064212947345
 21
131.3803220224626
 31
0.0
210
-0.0000000000000001
220
-1.0
230
-0.0000000000000004
  0
LINE
  5
1F0
330
12E
100
AcDbEntity
  8
MD_狭い可視
100
AcDbLine
 10
128.5064212947345
 20
133.6752967692932
 30
0.0
 11
128.3013960415646
 21
133.6752967692932
 31
0.0
210
-0.0000000000000001
220
-1.0
230
-0.0000000000000004
  0
LINE
  5
1F1
330
12E
100
AcDbEntity
  8
MD_狭い可視
100
AcDbLine
 10
128.5064212947345
 20
155.6691639374482
 30
0.0
 11
128.3013960415646
 21
155.6691639374482
 31
0.0
210
-0.0000000000000001
220
-1.0
230
-0.0000000000000004
  0
ELLIPSE
  5
1F2
330
12E
100
AcDbEntity
  8
MD_狭い可視
100
AcDbEllipse
 10
127.8064212947338
 20
189.8736740077601
 30
0.0
 11
0.7000000000000001
 21
-0.0000000000000001
 31
0.0
210
0.0
220
0.0
230
-1.0
 40
0.350061328318449
 41
5.497787143782757
 42
6.283185307179631
  0
ELLIPSE
  5
1F3
330
12E
100
AcDbEntity
  8
MD_狭い可視
100
AcDbEllipse
 10
127.8064212947338
 20
190.1666211182486
 30
0.0
 11
0.7000000000000004
 21
-0.0000000000000001
 31
0.0
210
0.0
220
0.0
230
-1.0
 40
0.5382620665509724
 41
5.497787143782496
 42
6.283185307179407
  0
ELLIPSE
  5
1F4
330
12E
100
AcDbEntity
  8
MD_狭い可視
100
AcDbEllipse
 10
127.8064212947338
 20
190.6752967692941
 30
0.0
 11
0.7000000000000016
 21
-0.0000000000000001
 31
0.0
210
0.0
220
0.0
230
-1.0
 40
0.4957076251179202
 41
5.445812593254428
 42
6.283185307179238
  0
ELLIPSE
  5
1F5
330
12E
100
AcDbEntity
  8
MD_可視
100
AcDbEllipse
 10
127.7436127364599
 20
191.1466415420276
 30
0.0
 11
-0.6755744495612789
 21
-0.1833007449520416
 31
0.0
210
0.0
220
0.0
230
-0.9999999999999998
 40
0.2642468312474173
 41
2.359877787947814
 42
3.141592653586415
  0
LINE
  5
1F6
330
12E
100
AcDbEntity
  8
MD_狭い可視
100
AcDbLine
 10
126.0064212947345
 20
132.9702715161238
 30
0.0
 11
126.0064212947345
 21
133.4652462629543
 31
0.0
210
-0.0000000000000001
220
-1.0
230
-0.0000000000000004
  0
LINE
  5
1F7
330
12E
100
AcDbEntity
  8
MD_狭い可視
100
AcDbLine
 10
126.7114465479044
 20
133.6752967692932
 30
0.0
 11
126.2164718010735
 21
133.6752967692932
 31
0.0
210
-0.0000000000000001
220
-1.0
230
-0.0000000000000004
  0
LINE
  5
1F8
330
12E
100
AcDbEntity
  8
MD_狭い可視
100
AcDbLine
 10
126.7114465479044
 20
155.6691639374482
 30
0.0
 11
126.2164718010735
 21
155.6691639374482
 31
0.0
210
-0.0000000000000001
220
-1.0
230
-0.0000000000000004
  0
ELLIPSE
  5
1F9
330
12E
100
AcDbEntity
  8
MD_狭い可視
100
AcDbEllipse
 10
126.2164718010735
 20
190.4302538394708
 30
0.0
 11
0.7000000000000002
 21
-0.0000000000000001
 31
0.0
210
0.0
220
0.0
230
-1.0
 40
0.3500613283184511
 41
4.712388980384542
 42
5.497787143782563
  0
ELLIPSE
  5
1FA
330
12E
100
AcDbEntity
  8
MD_狭い可視
100
AcDbEllipse
 10
126.2164718010754
 20
191.5524691068807
 30
0.0
 11
0.7000000000000006
 21
-0.0000000000000001
 31
0.0
210
0.0
220
0.0
230
-1.0
 40
0.7067145259630506
 41
4.712388980384682
 42
5.497787143815239
  0
ELLIPSE
  5
1FB
330
12E
100
AcDbEntity
  8
MD_狭い可視
100
AcDbEllipse
 10
126.225973758972
 20
191.7019256031084
 30
0.0
 11
-0.6938996855134072
 21
0.0922129407642659
 31
0.0
210
0.0
220
0.0
230
1.0
 40
0.7513584418080283
 41
4.044122172248653
 42
4.811907814324053
  0
LINE
  5
1FC
330
12E
100
AcDbEntity
  8
MD_狭い可視
100
AcDbLine
 10
96.00642129473454
 20
131.3803220224626
 30
0.0
 11
96.00642129473454
 21
131.1752967692932
 31
0.0
210
-0.0000000000000001
220
-1.0
230
-0.0000000000000004
  0
LINE
  5
1FD
330
12E
100
AcDbEntity
  8
MD_狭い可視
100
AcDbLine
 10
93.71144654790441
 20
133.6752967692932
 30
0.0
 11
93.50642129473454
 21
133.6752967692932
 31
0.0
210
-0.0000000000000001
220
-1.0
230
-0.0000000000000004
  0
LINE
  5
1FE
330
12E
100
AcDbEntity
  8
MD_狭い可視
100
AcDbLine
 10
93.71144654790441
 20
155.6691639374482
 30
0.0
 11
93.50642129473454
 21
155.6691639374482
 31
0.0
210
-0.0000000000000001
220
-1.0
230
-0.0000000000000004
  0
ELLIPSE
  5
1FF
330
12E
100
AcDbEntity
  8
MD_狭い可視
100
AcDbEllipse
 10
94.20642129473526
 20
189.8736740077601
 30
0.0
 11
0.7000000000000002
 21
-0.0000000000000001
 31
0.0
210
0.0
220
0.0
230
-1.0
 40
0.3500613283184499
 41
3.141592653589793
 42
3.926990816986667
  0
ELLIPSE
  5
200
330
12E
100
AcDbEntity
  8
MD_狭い可視
100
AcDbEllipse
 10
94.20642129473526
 20
190.1666291267751
 30
0.0
 11
0.7000000000000011
 21
-0.0000000000000001
 31
0.0
210
0.0
220
0.0
230
-1.0
 40
0.5382672115445323
 41
3.141592653589793
 42
3.926990816987543
  0
ELLIPSE
  5
201
330
12E
100
AcDbEntity
  8
MD_狭い可視
100
AcDbEllipse
 10
94.20642129473526
 20
190.6752967692932
 30
0.0
 11
0.6999999999999998
 21
-0.0000000000000001
 31
0.0
210
0.0
220
0.0
230
-1.0
 40
0.4957075263755632
 41
3.141592653589793
 42
3.978961194159803
  0
ELLIPSE
  5
202
330
12E
100
AcDbEntity
  8
MD_狭い可視
100
AcDbEllipse
 10
94.26910963145202
 20
191.1461982288657
 30
0.0
 11
0.6756212023870479
 21
-0.1831283453894581
 31
0.0
210
0.0
220
0.0
230
-1.0
 40
0.2644533241277124
 41
3.141592653590497
 42
3.923329527637873
  0
LINE
  5
203
330
12E
100
AcDbEntity
  8
MD_狭い可視
100
AcDbLine
 10
96.00642129473454
 20
133.4652462629543
 30
0.0
 11
96.00642129473454
 21
132.9702715161238
 31
0.0
210
-0.0000000000000001
220
-1.0
230
-0.0000000000000004
  0
LINE
  5
204
330
12E
100
AcDbEntity
  8
MD_狭い可視
100
AcDbLine
 10
95.79637078839551
 20
133.6752967692932
 30
0.0
 11
95.30139604156465
 21
133.6752967692932
 31
0.0
210
-0.0000000000000001
220
-1.0
230
-0.0000000000000004
  0
LINE
  5
205
330
12E
100
AcDbEntity
  8
MD_狭い可視
100
AcDbLine
 10
95.79637078839551
 20
155.6691639374482
 30
0.0
 11
95.30139604156465
 21
155.6691639374482
 31
0.0
210
-0.0000000000000001
220
-1.0
230
-0.0000000000000004
  0
ELLIPSE
  5
206
330
12E
100
AcDbEntity
  8
MD_狭い可視
100
AcDbEllipse
 10
95.79637078839551
 20
190.4302538394699
 30
0.0
 11
0.7000000000000002
 21
-0.0000000000000001
 31
0.0
210
0.0
220
0.0
230
-1.0
 40
0.3500613283184494
 41
3.926990816986601
 42
4.712388980384623
  0
ELLIPSE
  5
207
330
12E
100
AcDbEntity
  8
MD_狭い可視
100
AcDbEllipse
 10
95.79637078839551
 20
191.5524828843621
 30
0.0
 11
0.7000000000000004
 21
-0.0000000000000001
 31
0.0
210
0.0
220
0.0
230
-1.0
 40
0.7067189046084818
 41
3.926990816955717
 42
4.712388980384682
  0
ELLIPSE
  5
208
330
12E
100
AcDbEntity
  8
MD_狭い可視
100
AcDbEllipse
 10
95.78688894708648
 20
191.7017566643848
 30
0.0
 11
0.6939077539242725
 21
0.0921522058540864
 31
0.0
210
0.0
220
0.0
230
-1.0
 40
0.7513082259488236
 41
4.043994733541766
 42
4.811834947175285
  0
SPLINE
  5
209
330
12E
100
AcDbEntity
  8
MD_可視
100
AcDbSpline
210
0.0
220
0.0
230
1.0
 70
     8
 71
     3
 72
     8
 73
     4
 74
     0
 42
0.000000001
 43
0.0000000001
 40
0.0494679956884866
 40
0.0494679956884866
 40
0.0494679956884866
 40
0.0494679956884866
 40
0.1101607783520913
 40
0.1101607783520913
 40
0.1101607783520913
 40
0.1101607783520913
 10
126.9534674609094
 20
192.9563307568203
 30
0.0
 10
127.1402769620545
 20
192.8922953956768
 30
0.0
 10
127.319896829933
 20
192.8096616684024
 30
0.0
 10
127.4799158200931
 20
192.6947962579258
 30
0.0
  0
SPLINE
  5
20A
330
12E
100
AcDbEntity
  8
MD_可視
100
AcDbSpline
210
0.0
220
0.0
230
1.0
 70
     8
 71
     3
 72
     8
 73
     4
 74
     0
 42
0.000000001
 43
0.0000000001
 40
0.0
 40
0.0
 40
0.0
 40
0.0
 40
0.0835184177612762
 40
0.0835184177612762
 40
0.0835184177612762
 40
0.0835184177612762
 10
128.0391709455398
 20
192.0536052993668
 30
0.0
 10
128.1801259034982
 20
191.823403288846
 30
0.0
 10
128.297803676096
 20
191.58003766895
 30
0.0
 10
128.4158557209357
 20
191.3387715190348
 30
0.0
  0
LINE
  5
20B
330
12E
100
AcDbEntity
  8
MD_狭い可視
100
AcDbLine
 10
116.5804632459549
 20
133.1790921211153
 30
0.0
 11
105.4323793435142
 21
133.1790921211153
 31
0.0
210
-0.0000000000000001
220
-1.0
230
-0.0000000000000004
  0
ELLIPSE
  5
20C
330
12E
100
AcDbEntity
  8
MD_狭い可視
100
AcDbEllipse
 10
116.5729417604452
 20
133.045436560252
 30
0.0
 11
-0.4005067648869544
 21
-0.0028244493173739
 31
0.0
210
0.0
220
0.0
230
1.0
 40
0.3336415903343066
 41
4.452374663525601
 42
4.691255107896869
  0
ELLIPSE
  5
20D
330
12E
100
AcDbEntity
  8
MD_狭い可視
100
AcDbEllipse
 10
105.4399008290238
 20
133.045436560252
 30
0.0
 11
0.4005067648869546
 21
-0.0028244493173747
 31
0.0
210
0.0
220
0.0
230
1.0
 40
0.3336415903343064
 41
1.591930199282713
 42
1.830810643653966
  0
ENDBLK
  5
20E
330
12E
100
AcDbEntity
  8
0
100
AcDbBlockEnd
  0
BLOCK
  5
212
330
211
100
AcDbEntity
  8
0
100
AcDbBlockBegin
  2
CustomObjectsInViewport8_0
 70
     0
 10
0.0
 20
0.0
 30
0.0
  3
CustomObjectsInViewport8_0
  1

  0
LINE
  5
213
330
211
100
AcDbEntity
  8
MD_可視
100
AcDbLine
 10
176.3410014859297
 20
89.998735880823
 30
0.0
 11
176.3410014859297
 21
87.998735880823
 31
0.0
210
-1.0
220
-0.0000000000000002
230
-0.0000000000000004
  0
LINE
  5
214
330
211
100
AcDbEntity
  8
MD_可視
100
AcDbLine
 10
182.8410014859297
 20
87.998735880823
 30
0.0
 11
182.8410014859297
 21
89.998735880823
 31
0.0
210
-1.0
220
-0.0000000000000002
230
-0.0000000000000004
  0
LINE
  5
215
330
211
100
AcDbEntity
  8
MD_可視
100
AcDbLine
 10
182.8410014859297
 20
89.46873588082235
 30
0.0
 11
176.3410014859297
 21
89.46873588082235
 31
0.0
210
-1.0
220
-0.0000000000000002
230
-0.0000000000000004
  0
LINE
  5
216
330
211
100
AcDbEntity
  8
MD_可視
100
AcDbLine
 10
214.6910014859297
 20
89.998735880823
 30
0.0
 11
182.8410014859297
 21
89.998735880823
 31
0.0
210
-1.0
220
-0.0000000000000002
230
-0.0000000000000004
  0
LINE
  5
217
330
211
100
AcDbEntity
  8
MD_可視
100
AcDbLine
 10
217.1910014859297
 20
89.998735880823
 30
0.0
 11
214.6910014859297
 21
89.998735880823
 31
0.0
210
-1.0
220
-0.0000000000000002
230
-0.0000000000000004
  0
LINE
  5
218
330
211
100
AcDbEntity
  8
MD_可視
100
AcDbLine
 10
157.6910014859297
 20
89.998735880823
 30
0.0
 11
155.1910014859297
 21
89.998735880823
 31
0.0
210
-1.0
220
-0.0000000000000002
230
-0.0000000000000004
  0
LINE
  5
219
330
211
100
AcDbEntity
  8
MD_可視
100
AcDbLine
 10
176.3410014859297
 20
89.998735880823
 30
0.0
 11
157.6910014859297
 21
89.998735880823
 31
0.0
210
-1.0
220
-0.0000000000000002
230
-0.0000000000000004
  0
LINE
  5
21A
330
211
100
AcDbEntity
  8
MD_可視
100
AcDbLine
 10
155.1910014859297
 20
89.998735880823
 30
0.0
 11
155.1910014859297
 21
104.5987358808234
 31
0.0
210
-1.0
220
-0.0000000000000002
230
-0.0000000000000004
  0
LINE
  5
21B
330
211
100
AcDbEntity
  8
MD_可視
100
AcDbLine
 10
214.6910014859297
 20
82.998735880823
 30
0.0
 11
217.1910014859297
 21
82.998735880823
 31
0.0
210
-1.0
220
-0.0000000000000002
230
-0.0000000000000004
  0
LINE
  5
21C
330
211
100
AcDbEntity
  8
MD_可視
100
AcDbLine
 10
157.6910014859297
 20
82.998735880823
 30
0.0
 11
214.6910014859297
 21
82.998735880823
 31
0.0
210
-1.0
220
-0.0000000000000002
230
-0.0000000000000004
  0
LINE
  5
21D
330
211
100
AcDbEntity
  8
MD_可視
100
AcDbLine
 10
155.1910014859297
 20
82.998735880823
 30
0.0
 11
157.6910014859297
 21
82.998735880823
 31
0.0
210
-1.0
220
-0.0000000000000002
230
-0.0000000000000004
  0
LINE
  5
21E
330
211
100
AcDbEntity
  8
MD_可視
100
AcDbLine
 10
176.3410014859297
 20
87.998735880823
 30
0.0
 11
182.8410014859297
 21
87.998735880823
 31
0.0
210
-1.0
220
-0.0000000000000002
230
-0.0000000000000004
  0
LINE
  5
21F
330
211
100
AcDbEntity
  8
MD_狭い可視
100
AcDbLine
 10
157.6910014859297
 20
89.998735880823
 30
0.0
 11
157.6910014859297
 21
82.998735880823
 31
0.0
210
-1.0
220
-0.0000000000000002
230
-0.0000000000000004
  0
LINE
  5
220
330
211
100
AcDbEntity
  8
MD_狭い可視
100
AcDbLine
 10
214.6910014859297
 20
82.998735880823
 30
0.0
 11
214.6910014859297
 21
89.998735880823
 31
0.0
210
-1.0
220
-0.0000000000000002
230
-0.0000000000000004
  0
LINE
  5
221
330
211
100
AcDbEntity
  8
MD_可視
100
AcDbLine
 10
217.1910014859297
 20
89.998735880823
 30
0.0
 11
217.1910014859297
 21
82.998735880823
 31
0.0
210
-1.0
220
-0.0000000000000002
230
-0.0000000000000004
  0
LINE
  5
222
330
211
100
AcDbEntity
  8
MD_可視
100
AcDbLine
 10
155.1910014859297
 20
82.998735880823
 30
0.0
 11
155.1910014859297
 21
89.998735880823
 31
0.0
210
-1.0
220
-0.0000000000000002
230
-0.0000000000000004
  0
LINE
  5
223
330
211
100
AcDbEntity
  8
MD_可視
100
AcDbLine
 10
217.1910014859297
 20
99.36829241977831
 30
0.0
 11
217.1910014859297
 21
90.498735880823
 31
0.0
210
-1.0
220
-0.0000000000000002
230
-0.0000000000000004
  0
ARC
  5
224
330
211
100
AcDbEntity
  8
MD_可視
100
AcDbCircle
 10
-179.6848686540847
 20
9.298735880822277
 30
-0.0000000000000021
 40
100.0
210
0.0
220
-0.0000000000000002
230
-1.0
100
AcDbArc
 50
90.0
 51
110.4910662734284
  0
LINE
  5
225
330
211
100
AcDbEntity
  8
MD_可視
100
AcDbLine
 10
157.6910014859297
 20
109.2987358808223
 30
0.0
 11
157.4809509795909
 21
109.2987358808223
 31
0.0
210
-1.0
220
-0.0000000000000002
230
-0.0000000000000004
  0
LINE
  5
226
330
211
100
AcDbEntity
  8
MD_可視
100
AcDbLine
 10
157.6910014859297
 20
109.2987358808223
 30
0.0
 11
179.6848686540847
 21
109.2987358808223
 31
0.0
210
-1.0
220
-0.0000000000000002
230
-0.0000000000000004
  0
LINE
  5
227
330
211
100
AcDbEntity
  8
MD_可視
100
AcDbLine
 10
155.1910014859297
 20
104.1346257751775
 30
0.0
 11
155.1910014859297
 21
107.0087863871613
 31
0.0
210
-1.0
220
-0.0000000000000002
230
-0.0000000000000004
  0
LINE
  5
228
330
211
100
AcDbEntity
  8
MD_狭い可視
100
AcDbLine
 10
214.6910014859297
 20
90.498735880823
 30
0.0
 11
214.6910014859297
 21
100.3732770680635
 31
0.0
210
-1.0
220
-0.0000000000000002
230
-0.0000000000000004
  0
SPLINE
  5
229
330
211
100
AcDbEntity
  8
MD_狭い可視
100
AcDbSpline
210
0.0
220
0.0
230
1.0
 70
     8
 71
     3
 72
     8
 73
     4
 74
     0
 42
0.000000001
 43
0.0000000001
 40
0.0
 40
0.0
 40
0.0
 40
0.0
 40
0.0005940562142556
 40
0.0005940562142556
 40
0.0005940562142556
 40
0.0005940562142556
 10
214.6910014859297
 20
100.3732770680635
 30
0.0
 10
214.5189742097056
 20
100.4714650553815
 30
0.0
 10
214.3492662427504
 20
100.5734979434655
 30
0.0
 10
214.1823258348849
 20
100.680118831402
 30
0.0
  0
ARC
  5
22A
330
211
100
AcDbEntity
  8
MD_狭い可視
100
AcDbCircle
 10
213.3444847160753
 20
99.36827892312614
 30
0.0
 40
1.556567276193244
100
AcDbArc
 50
57.43459162369488
 51
69.50893372656094
  0
ARC
  5
22B
330
211
100
AcDbEntity
  8
MD_狭い可視
100
AcDbCircle
 10
179.6848686540847
 20
9.298735880822277
 30
0.0
 40
97.71005050633888
100
AcDbArc
 50
69.50893372657161
 51
90.0
  0
LINE
  5
22C
330
211
100
AcDbEntity
  8
MD_狭い可視
100
AcDbLine
 10
179.6848686540847
 20
107.0087863871613
 30
0.0
 11
157.6910014859297
 21
107.0087863871613
 31
0.0
210
-1.0
220
-0.0000000000000002
230
-0.0000000000000004
  0
LINE
  5
22D
330
211
100
AcDbEntity
  8
MD_狭い可視
100
AcDbLine
 10
157.6910014859297
 20
107.0087863871613
 30
0.0
 11
157.6910014859297
 21
90.498735880823
 31
0.0
210
-1.0
220
-0.0000000000000002
230
-0.0000000000000004
  0
LINE
  5
22E
330
211
100
AcDbEntity
  8
MD_可視
100
AcDbLine
 10
214.6910014859297
 20
90.498735880823
 30
0.0
 11
157.6910014859297
 21
90.498735880823
 31
0.0
210
-1.0
220
-0.0000000000000002
230
-0.0000000000000004
  0
SPLINE
  5
22F
330
211
100
AcDbEntity
  8
MD_可視
100
AcDbSpline
210
0.0
220
0.0
230
1.0
 70
     8
 71
     3
 72
     8
 73
     4
 74
     0
 42
0.000000001
 43
0.0000000001
 40
-0.0000311382305624
 40
-0.0000311382305624
 40
-0.0000311382305624
 40
-0.0000311382305624
 40
0.0001004278018608
 40
0.0001004278018608
 40
0.0001004278018608
 40
0.0001004278018608
 10
217.1910014858733
 20
99.36827917617121
 30
0.0
 10
217.1909996697375
 20
99.37834526915139
 30
0.0
 10
217.1899222811528
 20
99.39021198016053
 30
0.0
 10
217.1778934407093
 20
99.41325186860559
 30
0.0
  0
SPLINE
  5
230
330
211
100
AcDbEntity
  8
MD_可視
100
AcDbSpline
210
0.0
220
0.0
230
1.0
 70
     8
 71
     3
 72
    22
 73
    18
 74
     0
 42
0.000000001
 43
0.0000000001
 40
0.000103754908594
 40
0.000103754908594
 40
0.000103754908594
 40
0.000103754908594
 40
0.000180521468589
 40
0.000180521468589
 40
0.0003922921064887
 40
0.0003922921064887
 40
0.0008158333822882
 40
0.0008158333822882
 40
0.0012393746580876
 40
0.0012393746580876
 40
0.0016629159338871
 40
0.0016629159338871
 40
0.0020864572096865
 40
0.0020864572096865
 40
0.002509998485486
 40
0.002509998485486
 40
0.0033570810370849
 40
0.0033570810370849
 40
0.0033570810370849
 40
0.0033570810370849
 10
217.1778934407093
 20
99.41325186860559
 30
0.0
 10
217.1863260029228
 20
99.41024556086086
 30
0.0
 10
217.184677577313
 20
99.41734854470633
 30
0.0
 10
217.1771176346624
 20
99.44304163644666
 30
0.0
 10
217.1687999254923
 20
99.46166559460289
 30
0.0
 10
217.1356202322014
 20
99.51707024543793
 30
0.0
 10
217.1024421461655
 20
99.55338307388593
 30
0.0
 10
217.016234843794
 20
99.62531326999851
 30
0.0
 10
216.9630985505894
 20
99.66097924688256
 30
0.0
 10
216.8365228983301
 20
99.73167736748473
 30
0.0
 10
216.762569045346
 20
99.76706198531429
 30
0.0
 10
216.5972143815669
 20
99.83606076676734
 30
0.0
 10
216.5049813978059
 20
99.87014891476793
 30
0.0
 10
216.3078114670688
 20
99.93576323416528
 30
0.0
 10
216.202488780717
 20
99.96751005246734
 30
0.0
 10
215.8666234570395
 20
100.0603258612827
 30
0.0
 10
215.6130900720649
 20
100.1196837815332
 30
0.0
 10
215.3456470036155
 20
100.1743496745894
 30
0.0
  0
SPLINE
  5
231
330
211
100
AcDbEntity
  8
MD_狭い可視
100
AcDbSpline
210
0.0
220
0.0
230
1.0
 70
     8
 71
     3
 72
     8
 73
     4
 74
     0
 42
0.000000001
 43
0.0000000001
 40
0.0
 40
0.0
 40
0.0
 40
0.0
 40
0.0006897410031473
 40
0.0006897410031473
 40
0.0006897410031473
 40
0.0006897410031473
 10
215.3456470036155
 20
100.1743496745894
 30
0.0
 10
215.1250819399267
 20
100.2194336105967
 30
0.0
 10
214.906348897636
 20
100.2847791207405
 30
0.0
 10
214.6910014859297
 20
100.3732770680635
 30
0.0
  0
LINE
  5
232
330
211
100
AcDbEntity
  8
MD_可視
100
AcDbLine
 10
214.6910014859297
 20
90.498735880823
 30
0.0
 11
217.1910014859297
 21
90.498735880823
 31
0.0
210
-1.0
220
-0.0000000000000002
230
-0.0000000000000004
  0
LINE
  5
233
330
211
100
AcDbEntity
  8
MD_狭い可視
100
AcDbLine
 10
155.1910014859297
 20
107.0087863871613
 30
0.0
 11
157.6910014859297
 21
107.0087863871613
 31
0.0
210
-1.0
220
-0.0000000000000002
230
-0.0000000000000004
  0
SPLINE
  5
234
330
211
100
AcDbEntity
  8
MD_可視
100
AcDbSpline
210
0.0
220
0.0
230
1.0
 70
     8
 71
     3
 72
    10
 73
     6
 74
     0
 42
0.000000001
 43
0.0000000001
 40
-0.3634613005680091
 40
-0.3634613005680091
 40
-0.3634613005680091
 40
-0.3634613005680091
 40
-0.3580441378496499
 40
-0.3580441378496499
 40
-0.3202798006121934
 40
-0.3202798006121934
 40
-0.3202798006121934
 40
-0.3202798006121934
 10
155.1910014859297
 20
104.1346257751775
 30
0.0
 10
155.191004038486
 20
104.1173843124143
 30
0.0
 10
155.1910431887209
 20
104.0999097382882
 30
0.0
 10
155.1915950179018
 20
103.9588370498841
 30
0.0
 10
155.1930022865703
 20
103.8246170049478
 30
0.0
 10
155.1930022865703
 20
103.6987358808237
 30
0.0
  0
LINE
  5
235
330
211
100
AcDbEntity
  8
MD_可視
100
AcDbLine
 10
155.1930022865703
 20
103.6987358808237
 30
0.0
 11
155.1930022865703
 21
90.498735880823
 31
0.0
210
-1.0
220
-0.0000000000000002
230
-0.0000000000000004
  0
LINE
  5
236
330
211
100
AcDbEntity
  8
MD_可視
100
AcDbLine
 10
155.1930022865704
 20
90.498735880823
 30
0.0
 11
157.6910014859297
 21
90.498735880823
 31
0.0
210
-1.0
220
-0.0000000000000002
230
-0.0000000000000004
  0
LINE
  5
237
330
211
100
AcDbEntity
  8
MD_可視
100
AcDbLine
 10
176.3410014859297
 20
89.998735880823
 30
0.0
 11
182.8410014859297
 21
89.998735880823
 31
0.0
210
-1.0
220
-0.0000000000000002
230
-0.0000000000000004
  0
LINE
  5
238
330
211
100
AcDbEntity
  8
MD_可視
100
AcDbLine
 10
155.6935030503859
 20
90.498735880823
 30
0.0
 11
155.6935030503859
 21
89.998735880823
 31
0.0
210
-1.0
220
-0.0000000000000002
230
-0.0000000000000004
  0
LINE
  5
239
330
211
100
AcDbEntity
  8
MD_可視
100
AcDbLine
 10
216.6910014859297
 20
90.498735880823
 30
0.0
 11
216.6910014859297
 21
89.998735880823
 31
0.0
210
-1.0
220
-0.0000000000000002
230
-0.0000000000000004
  0
LINE
  5
23A
330
211
100
AcDbEntity
  8
MD_狭い可視
100
AcDbLine
 10
214.6910014859297
 20
90.498735880823
 30
0.0
 11
214.6910014859297
 21
89.998735880823
 31
0.0
210
-1.0
220
-0.0000000000000002
230
-0.0000000000000004
  0
LINE
  5
23B
330
211
100
AcDbEntity
  8
MD_狭い可視
100
AcDbLine
 10
157.6910014859297
 20
90.498735880823
 30
0.0
 11
157.6910014859297
 21
89.998735880823
 31
0.0
210
-1.0
220
-0.0000000000000002
230
-0.0000000000000004
  0
LINE
  5
23C
330
211
100
AcDbEntity
  8
MD_可視
100
AcDbLine
 10
159.6910014859297
 20
109.7987358808222
 30
0.0
 11
159.5570268897141
 21
109.7987358808222
 31
0.0
210
-1.0
220
-0.0000000000000002
230
-0.0000000000000004
  0
LINE
  5
23D
330
211
100
AcDbEntity
  8
MD_可視
100
AcDbLine
 10
159.6910014859297
 20
109.7987358808222
 30
0.0
 11
179.6848686540847
 21
109.7987358808222
 31
0.0
210
-1.0
220
-0.0000000000000002
230
-0.0000000000000004
  0
ARC
  5
23E
330
211
100
AcDbEntity
  8
MD_可視
100
AcDbCircle
 10
-179.6848686540847
 20
9.298735880822277
 30
-0.0000000000000021
 40
100.5
210
0.0
220
-0.0000000000000002
230
-1.0
100
AcDbArc
 50
90.0
 51
104.3197469008431
  0
ARC
  5
23F
330
211
100
AcDbEntity
  8
MD_可視
100
AcDbCircle
 10
-213.3444847160753
 20
99.36827892312614
 30
-0.0000000000000221
 40
3.84651676985443
210
0.0
220
-0.0000000000000002
230
-1.0
100
AcDbArc
 50
110.4910662734284
 51
134.9682249692257
  0
ELLIPSE
  5
240
330
211
100
AcDbEntity
  8
MD_可視
100
AcDbEllipse
 10
214.7365468715454
 20
100.7614157057614
 30
0.0
 11
-1.902496412531367
 21
1.901194291383682
 31
-0.0000000000000004
210
0.0
220
-0.0000000000000002
230
-1.0
 40
0.6979002941020644
 41
1.570524638506402
 42
1.670163086230619
  0
SPLINE
  5
241
330
211
100
AcDbEntity
  8
MD_可視
100
AcDbSpline
210
0.0
220
0.0
230
1.0
 70
     8
 71
     3
 72
    20
 73
    16
 74
     0
 42
0.000000001
 43
0.0000000001
 40
0.0
 40
0.0
 40
0.0
 40
0.0
 40
0.0006968641393447
 40
0.0006968641393447
 40
0.0006968641393447
 40
0.0013937282786893
 40
0.0013937282786893
 40
0.0013937282786893
 40
0.002090592418034
 40
0.002090592418034
 40
0.002090592418034
 40
0.0024390244877063
 40
0.0024390244877063
 40
0.0024390244877063
 40
0.0027873647995518
 40
0.0027873647995518
 40
0.0027873647995518
 40
0.0027873647995518
 10
216.245579809316
 20
101.8940141667226
 30
0.0
 10
216.3977783560087
 20
101.7191967712224
 30
0.0
 10
216.5336001981179
 20
101.5310574367886
 30
0.0
 10
216.6505798540396
 20
101.3343476385453
 30
0.0
 10
216.7675595099614
 20
101.1376378403038
 30
0.0
 10
216.8670024839269
 20
100.9305656396864
 30
0.0
 10
216.947712230158
 20
100.7145488647165
 30
0.0
 10
217.0284219763892
 20
100.4985320897467
 30
0.0
 10
217.0888595184861
 20
100.2780561370564
 30
0.0
 10
217.1295789723814
 20
100.0529341387082
 30
0.0
 10
217.149938699329
 20
99.94037313953596
 30
0.0
 10
217.165354760574
 20
99.82634030569897
 30
0.0
 10
217.1756132269695
 20
99.71200204645539
 30
0.0
 10
217.1858689918496
 20
99.59769389761277
 30
0.0
 10
217.1910020904345
 20
99.48328963577479
 30
0.0
 10
217.1910014859657
 20
99.36829243427382
 30
0.0
  0
ARC
  5
242
330
211
100
AcDbEntity
  8
MD_狭い可視
100
AcDbCircle
 10
196.3520614436926
 20
108.3563311702
 30
0.0
 40
0.0999999999999995
100
AcDbArc
 50
20.42431525799553
 51
66.24809281535222
  0
ARC
  5
243
330
211
100
AcDbEntity
  8
MD_狭い可視
100
AcDbCircle
 10
196.4003972723857
 20
108.3481861721338
 30
0.0
 40
0.0999999999999995
100
AcDbArc
 50
94.62196985745556
 51
140.4457474148256
  0
LINE
  5
244
330
211
100
AcDbEntity
  8
MD_可視
100
AcDbLine
 10
196.6520614436926
 20
108.3563311702
 30
0.0
 11
196.6520614436926
 21
108.3561150549176
 31
0.0
210
-1.0
220
-0.0000000000000002
230
-0.0000000000000004
  0
ARC
  5
245
330
211
100
AcDbEntity
  8
MD_可視
100
AcDbCircle
 10
-196.4003972723857
 20
108.3481861721338
 30
-0.0000000000000241
 40
0.3
210
0.0
220
-0.0000000000000002
230
-1.0
100
AcDbArc
 50
19.0886648910041
 51
94.87894118613404
  0
ARC
  5
246
330
211
100
AcDbEntity
  8
MD_可視
100
AcDbCircle
 10
-196.3520614436926
 20
108.3563311702
 30
-0.0000000000000241
 40
0.3000000000000001
210
0.0
220
-0.0000000000000002
230
-1.0
100
AcDbArc
 50
104.2509961409981
 51
180.0
  0
SPLINE
  5
247
330
211
100
AcDbEntity
  8
MD_可視
100
AcDbSpline
210
0.0
220
0.0
230
1.0
 70
    24
 71
     3
 72
    16
 73
    12
 74
     0
 42
0.000000001
 43
0.0000000001
 40
-0.0314913390136421
 40
-0.0314913390136421
 40
-0.0314913390136421
 40
-0.0314913390136421
 40
-0.0236674331420197
 40
-0.0236674331420197
 40
-0.015835876731482
 40
-0.015835876731482
 40
-0.0079842236326122
 40
-0.0079842236326122
 40
0.0
 40
0.0
 40
0.0003516105763756
 40
0.0003516105763756
 40
0.0003516105763756
 40
0.0003516105763756
 10
196.4259124868875
 20
108.6470991591868
 30
0.0
 10
196.4259124868875
 20
108.6470991591868
 30
0.0
 10
196.4250698095359
 20
108.6420983589669
 30
0.0
 10
196.4217928616847
 20
108.6226515784183
 30
0.0
 10
196.4193889204133
 20
108.6083855844281
 30
0.0
 10
196.4133151581492
 20
108.5723413361775
 30
0.0
 10
196.4097034245922
 20
108.5509077970837
 30
0.0
 10
196.4016698059696
 20
108.503232940644
 30
0.0
 10
196.3973451209369
 20
108.4775684490359
 30
0.0
 10
196.3927286515454
 20
108.4501723867815
 30
0.0
 10
196.3925339116739
 20
108.4490167188596
 30
0.0
 10
196.3923391594213
 20
108.4478609774523
 30
0.0
  0
LINE
  5
248
330
211
100
AcDbEntity
  8
MD_狭い可視
100
AcDbLine
 10
196.6507996773429
 20
108.3563311702
 30
0.0
 11
196.6520614436926
 21
108.3563311702
 31
0.0
210
-1.0
220
-0.0000000000000002
230
-0.0000000000000004
  0
SPLINE
  5
249
330
211
100
AcDbEntity
  8
MD_可視
100
AcDbSpline
210
0.0
220
0.0
230
1.0
 70
     8
 71
     3
 72
    10
 73
     6
 74
     0
 42
0.000000001
 43
0.0000000001
 40
-6.766543446019648
 40
-6.766543446019648
 40
-6.766543446019648
 40
-6.766543446019648
 40
-6.761013722756164
 40
-6.761013722756164
 40
-5.437133277584497
 40
-5.437133277584497
 40
-5.437133277584497
 40
-5.437133277584497
 10
204.5418319183647
 20
106.6762557572201
 30
0.0
 10
204.556169620938
 20
106.6725958596726
 30
0.0
 10
204.570505698615
 20
106.6689295973283
 30
0.0
 10
208.0166748397067
 20
105.7859873232901
 30
0.0
 10
211.1243417087556
 20
104.6026505496575
 30
0.0
 10
213.9015714859297
 20
103.262650482744
 30
0.0
  0
LINE
  5
24A
330
211
100
AcDbEntity
  8
MD_狭い可視
100
AcDbLine
 10
214.8684244482085
 20
100.8666433018479
 30
0.0
 11
214.8684284000331
 21
100.866653586776
 31
0.0
210
-1.0
220
-0.0000000000000002
230
-0.0000000000000004
  0
LINE
  5
24B
330
211
100
AcDbEntity
  8
MD_狭い可視
100
AcDbLine
 10
179.6848686540847
 20
109.7987358808222
 30
0.0
 11
179.6848686540847
 21
109.2987358808223
 31
0.0
210
-1.0
220
-0.0000000000000002
230
-0.0000000000000004
  0
LINE
  5
24C
330
211
100
AcDbEntity
  8
MD_狭い可視
100
AcDbLine
 10
159.6910014859297
 20
109.7987358808222
 30
0.0
 11
159.6910014859297
 21
109.2987358808223
 31
0.0
210
-1.0
220
-0.0000000000000002
230
-0.0000000000000004
  0
ARC
  5
24D
330
211
100
AcDbEntity
  8
MD_可視
100
AcDbCircle
 10
-159.5570268897142
 20
108.7987358808222
 30
-0.0000000000000242
 40
1.000000000000001
210
0.0
220
-0.0000000000000002
230
-1.0
100
AcDbArc
 50
29.99999999999973
 51
89.99999999999674
  0
SPLINE
  5
24E
330
211
100
AcDbEntity
  8
MD_狭い可視
100
AcDbSpline
210
0.0
220
0.0
230
1.0
 70
     8
 71
     3
 72
    26
 73
    22
 74
     0
 42
0.000000001
 43
0.0000000001
 40
0.0002394597771238
 40
0.0002394597771238
 40
0.0002394597771238
 40
0.0002394597771238
 40
0.0002704214584149
 40
0.0002704214584149
 40
0.0002704214584149
 40
0.0003004155871657
 40
0.0003004155871657
 40
0.0003004155871657
 40
0.0006680868095844
 40
0.0006680868095844
 40
0.0006680868095844
 40
0.0010672985896812
 40
0.0010672985896812
 40
0.0010672985896812
 40
0.0012302335784389
 40
0.0012302335784389
 40
0.0012302335784389
 40
0.0018098389444666
 40
0.0018098389444666
 40
0.0018098389444666
 40
0.0022209694899192
 40
0.0022209694899192
 40
0.0022209694899192
 40
0.0022209694899192
 10
216.0697110406744
 20
101.7969366490506
 30
0.0
 10
216.0667667766293
 20
101.7901590018173
 30
0.0
 10
216.06381085796
 20
101.7834005498571
 30
0.0
 10
216.0608437182485
 20
101.7766611003153
 30
0.0
 10
216.057969301653
 20
101.7701322585726
 30
0.0
 10
216.0550843636461
 20
101.7636212234047
 30
0.0
 10
216.0521890119174
 20
101.7571289807529
 30
0.0
 10
216.0166974822827
 20
101.6775463793801
 30
0.0
 10
215.9797546509499
 20
101.6018886593174
 30
0.0
 10
215.9416840304057
 20
101.527098016686
 30
0.0
 10
215.9003475339108
 20
101.4458914828101
 30
0.0
 10
215.8575125232035
 20
101.366100985253
 30
0.0
 10
215.8139868231829
 20
101.2882047495623
 30
0.0
 10
215.796222168438
 20
101.2564120447386
 30
0.0
 10
215.7783330104775
 20
101.2248965359758
 30
0.0
 10
215.7603796337388
 20
101.1937554696451
 30
0.0
 10
215.6965144469219
 20
101.0829779792639
 30
0.0
 10
215.6311706406462
 20
100.9757245246182
 30
0.0
 10
215.5639677403288
 20
100.870459237387
 30
0.0
 10
215.5162988147411
 20
100.7957915798852
 30
0.0
 10
215.4676993576102
 20
100.7222326362116
 30
0.0
 10
215.4182154363432
 20
100.6499889900351
 30
0.0
  0
SPLINE
  5
24F
330
211
100
AcDbEntity
  8
MD_可視
100
AcDbSpline
210
0.0
220
0.0
230
1.0
 70
     8
 71
     3
 72
    14
 73
    10
 74
     0
 42
0.000000001
 43
0.0000000001
 40
0.0
 40
0.0
 40
0.0
 40
0.0
 40
0.0008268278946839
 40
0.0008268278946839
 40
0.0008268278946839
 40
0.0012402418420258
 40
0.0012402418420258
 40
0.0012402418420258
 40
0.0016362842666917
 40
0.0016362842666917
 40
0.0016362842666917
 40
0.0016362842666917
 10
215.4182017549903
 20
100.6499690161217
 30
0.0
 10
215.6577580570377
 20
100.5584084700622
 30
0.0
 10
215.8989148692473
 20
100.4670003800202
 30
0.0
 10
216.1172902414913
 20
100.3741378878549
 30
0.0
 10
216.2264779276133
 20
100.3277066417722
 30
0.0
 10
216.3320626083365
 20
100.2834081393812
 30
0.0
 10
216.4308914407318
 20
100.2355688414318
 30
0.0
 10
216.5255675169997
 20
100.1897397355769
 30
0.0
 10
216.6142014578964
 20
100.1401938275248
 30
0.0
 10
216.6886844170192
 20
100.0869378581792
 30
0.0
  0
SPLINE
  5
250
330
211
100
AcDbEntity
  8
MD_可視
100
AcDbSpline
210
0.0
220
0.0
230
1.0
 70
     8
 71
     3
 72
    17
 73
    13
 74
     0
 42
0.000000001
 43
0.0000000001
 40
0.0016362842666917
 40
0.0016362842666917
 40
0.0016362842666917
 40
0.0016362842666917
 40
0.0016536557893677
 40
0.0016536557893677
 40
0.0016536557893677
 40
0.0024804836840516
 40
0.0024804836840516
 40
0.0024804836840516
 40
0.0028938976313935
 40
0.0028938976313935
 40
0.0028938976313935
 40
0.0029356137330577
 40
0.0029356137330577
 40
0.0029356137330577
 40
0.0029356137330577
 10
216.6886844170192
 20
100.0869378581792
 30
0.0
 10
216.6919514468442
 20
100.0846019031869
 30
0.0
 10
216.6951920244218
 20
100.0822593281263
 30
0.0
 10
216.6984062114772
 20
100.0799103897479
 30
0.0
 10
216.8513910456639
 20
99.96810857421952
 30
0.0
 10
216.950127969889
 20
99.84478898491216
 30
0.0
 10
217.0218229962033
 20
99.72531674753192
 30
0.0
 10
217.0576705093604
 20
99.66558062884178
 30
0.0
 10
217.087890106071
 20
99.60526652161753
 30
0.0
 10
217.1151896694946
 20
99.54536945526161
 30
0.0
 10
217.1179443694037
 20
99.53932545958743
 30
0.0
 10
217.1206701801044
 20
99.53328274161322
 30
0.0
 10
217.1233696138983
 20
99.52724246860817
 30
0.0
  0
SPLINE
  5
251
330
211
100
AcDbEntity
  8
MD_狭い可視
100
AcDbSpline
210
0.0
220
0.0
230
1.0
 70
     8
 71
     3
 72
    44
 73
    40
 74
     0
 42
0.000000001
 43
0.0000000001
 40
-0.0000251364811965
 40
-0.0000251364811965
 40
-0.0000251364811965
 40
-0.0000251364811965
 40
0.0003336263763139
 40
0.0003336263763139
 40
0.0003336263763139
 40
0.000671596538463
 40
0.000671596538463
 40
0.000671596538463
 40
0.0006924254458784
 40
0.0006924254458784
 40
0.0006924254458784
 40
0.0010256764983267
 40
0.0010256764983267
 40
0.0010256764983267
 40
0.0013888439766058
 40
0.0013888439766058
 40
0.0013888439766058
 40
0.0014100235850073
 40
0.0014100235850073
 40
0.0014100235850073
 40
0.0015735073931108
 40
0.0015735073931108
 40
0.0015735073931108
 40
0.0017594832007193
 40
0.0017594832007193
 40
0.0017594832007193
 40
0.0021276217241363
 40
0.0021276217241363
 40
0.0021276217241363
 40
0.0021405949229115
 40
0.0021405949229115
 40
0.0021405949229115
 40
0.0023371932906562
 40
0.0023371932906562
 40
0.0023371932906562
 40
0.0025363874915422
 40
0.0025363874915422
 40
0.0025363874915422
 40
0.0028452198632653
 40
0.0028452198632653
 40
0.0028452198632653
 40
0.0028452198632653
 10
217.1910014777307
 20
99.36831493488718
 30
0.0
 10
217.1909738291209
 20
99.48724032369682
 30
0.0
 10
217.1852796807351
 20
99.5984629975701
 30
0.0
 10
217.1728002511936
 20
99.70828158352924
 30
0.0
 10
217.1610440876516
 20
99.81173545152707
 30
0.0
 10
217.1435632681002
 20
99.91618638011097
 30
0.0
 10
217.1210704383562
 20
100.0201014419926
 30
0.0
 10
217.1196842181488
 20
100.0265056677071
 30
0.0
 10
217.1182784215376
 20
100.0329049363918
 30
0.0
 10
217.1168528717686
 20
100.0392977101546
 30
0.0
 10
217.0940448602213
 20
100.1415785711888
 30
0.0
 10
217.0661614680768
 20
100.2424323736959
 30
0.0
 10
217.0332763257072
 20
100.3418959641767
 30
0.0
 10
216.9974390368541
 20
100.4502885440961
 30
0.0
 10
216.9557120803607
 20
100.5569366277614
 30
0.0
 10
216.9078835441538
 20
100.6622172032294
 30
0.0
 10
216.905094225925
 20
100.6683570739333
 30
0.0
 10
216.9022845575895
 20
100.6744908188266
 30
0.0
 10
216.89945493309
 20
100.6806177181133
 30
0.0
 10
216.8776132738908
 20
100.7279107939994
 30
0.0
 10
216.8544492117262
 20
100.7750783724932
 30
0.0
 10
216.8301535930706
 20
100.8216846196519
 30
0.0
 10
216.8025153984798
 20
100.8747029249843
 30
0.0
 10
216.773325752142
 20
100.9271904675661
 30
0.0
 10
216.7427142289512
 20
100.9788953509014
 30
0.0
 10
216.6821188155374
 20
101.0812450040612
 30
0.0
 10
216.6158042133286
 20
101.1807756209891
 30
0.0
 10
216.5447494958464
 20
101.276350683187
 30
0.0
 10
216.5422455281408
 20
101.2797187476553
 30
0.0
 10
216.5397348494032
 20
101.2830830945386
 30
0.0
 10
216.5372174317341
 20
101.286443766483
 30
0.0
 10
216.4990679966371
 20
101.3373720402323
 30
0.0
 10
216.4592079223105
 20
101.387624983894
 30
0.0
 10
216.4179394516046
 20
101.4368090445732
 30
0.0
 10
216.3761260828653
 20
101.4866425186537
 30
0.0
 10
216.332988287764
 20
101.535257204725
 30
0.0
 10
216.2884150244907
 20
101.5827769452335
 30
0.0
 10
216.2193082605843
 20
101.6564519523326
 30
0.0
 10
216.1466355753445
 20
101.7277118909514
 30
0.0
 10
216.0697123149286
 20
101.7969379616206
 30
0.0
  0
LINE
  5
252
330
211
100
AcDbEntity
  8
MD_狭い可視
100
AcDbLine
 10
214.0626502417561
 20
101.2900132830091
 30
0.0
 11
214.6192300734664
 21
102.7793615577011
 31
0.0
210
-1.0
220
-0.0000000000000002
230
-0.0000000000000004
  0
ARC
  5
253
330
211
100
AcDbEntity
  8
MD_狭い可視
100
AcDbCircle
 10
-213.3444847160753
 20
99.36827892312614
 30
-0.0000000000000221
 40
2.05154202302383
210
0.0
220
-0.0000000000000002
230
-1.0
100
AcDbArc
 50
110.4910662734314
 51
122.5654083762996
  0
SPLINE
  5
254
330
211
100
AcDbEntity
  8
MD_狭い可視
100
AcDbSpline
210
0.0
220
0.0
230
1.0
 70
     8
 71
     3
 72
    20
 73
    16
 74
     0
 42
0.000000001
 43
0.0000000001
 40
0.0002967369497231
 40
0.0002967369497231
 40
0.0002967369497231
 40
0.0002967369497231
 40
0.0014633833002429
 40
0.0014633833002429
 40
0.0014633833002429
 40
0.0015535835936155
 40
0.0015535835936155
 40
0.0015535835936155
 40
0.0021918563833183
 40
0.0021918563833183
 40
0.0021918563833183
 40
0.0025039967503663
 40
0.0025039967503663
 40
0.0025039967503663
 40
0.0026300296507626
 40
0.0026300296507626
 40
0.0026300296507626
 40
0.0026300296507626
 10
214.4487519733757
 20
101.097272433959
 30
0.0
 10
214.6639765549739
 20
101.2783034241092
 30
0.0
 10
214.894101680059
 20
101.4428121315686
 30
0.0
 10
215.1382819156569
 20
101.5871235021022
 30
0.0
 10
215.1571609263158
 20
101.5982810632195
 30
0.0
 10
215.1761118835172
 20
101.6093073385127
 30
0.0
 10
215.1951396742217
 20
101.620202868311
 30
0.0
 10
215.3297835938893
 20
101.6973015111143
 30
0.0
 10
215.4681928905967
 20
101.7679553521211
 30
0.0
 10
215.612479062173
 20
101.8303697872998
 30
0.0
 10
215.6830406453744
 20
101.8608928881112
 30
0.0
 10
215.7550705599716
 20
101.8894290416774
 30
0.0
 10
215.8284337290075
 20
101.9150654953937
 30
0.0
 10
215.858055572101
 20
101.9254167250292
 30
0.0
 10
215.8879020657882
 20
101.9353221295096
 30
0.0
 10
215.9179805154756
 20
101.9446307195703
 30
0.0
  0
ARC
  5
255
330
211
100
AcDbEntity
  8
MD_狭い可視
100
AcDbCircle
 10
213.3444847160753
 20
99.36827892312614
 30
0.0
 40
3.641491516685009
100
AcDbArc
 50
45.03177503004076
 51
69.50893372656551
  0
LINE
  5
256
330
211
100
AcDbEntity
  8
MD_狭い可視
100
AcDbLine
 10
179.6848686540847
 20
107.5037611339921
 30
0.0
 11
179.6848686540847
 21
109.0937106276542
 31
0.0
210
-1.0
220
-0.0000000000000002
230
-0.0000000000000004
  0
ARC
  5
257
330
211
100
AcDbEntity
  8
MD_狭い可視
100
AcDbCircle
 10
-179.6848686540847
 20
9.298735880822277
 30
-0.0000000000000021
 40
98.20502525316946
210
0.0
220
-0.0000000000000002
230
-1.0
100
AcDbArc
 50
90.0
 51
110.4910662734284
  0
ARC
  5
258
330
211
100
AcDbEntity
  8
MD_狭い可視
100
AcDbCircle
 10
179.6848686540847
 20
9.298735880822277
 30
0.0
 40
99.79497474683062
100
AcDbArc
 50
69.50893372657161
 51
90.0
  0
LINE
  5
259
330
211
100
AcDbEntity
  8
MD_狭い可視
100
AcDbLine
 10
157.6910014859297
 20
107.5037611339921
 30
0.0
 11
157.6910014859297
 21
109.0937106276542
 31
0.0
210
-1.0
220
-0.0000000000000002
230
-0.0000000000000004
  0
LINE
  5
25A
330
211
100
AcDbEntity
  8
MD_狭い可視
100
AcDbLine
 10
157.6910014859297
 20
107.5037611339921
 30
0.0
 11
179.6848686540847
 21
107.5037611339921
 31
0.0
210
-1.0
220
-0.0000000000000002
230
-0.0000000000000004
  0
LINE
  5
25B
330
211
100
AcDbEntity
  8
MD_狭い可視
100
AcDbLine
 10
179.6848686540847
 20
109.0937106276542
 30
0.0
 11
157.6910014859297
 21
109.0937106276542
 31
0.0
210
-1.0
220
-0.0000000000000002
230
-0.0000000000000004
  0
LINE
  5
25C
330
211
100
AcDbEntity
  8
MD_可視
100
AcDbLine
 10
155.3960267390991
 20
107.5037611339921
 30
0.0
 11
156.9859762327603
 21
109.0937106276542
 31
0.0
210
-1.0
220
-0.0000000000000002
230
-0.0000000000000004
  0
LINE
  5
25D
330
211
100
AcDbEntity
  8
MD_狭い可視
100
AcDbLine
 10
157.6910014859297
 20
107.5037611339921
 30
0.0
 11
155.3960267390991
 21
107.5037611339921
 31
0.0
210
-1.0
220
-0.0000000000000002
230
-0.0000000000000004
  0
LINE
  5
25E
330
211
100
AcDbEntity
  8
MD_狭い可視
100
AcDbLine
 10
156.9859762327603
 20
109.0937106276542
 30
0.0
 11
157.6910014859297
 21
109.0937106276542
 31
0.0
210
-1.0
220
-0.0000000000000002
230
-0.0000000000000004
  0
SPLINE
  5
25F
330
211
100
AcDbEntity
  8
MD_狭い可視
100
AcDbSpline
210
0.0
220
0.0
230
1.0
 70
     8
 71
     3
 72
     8
 73
     4
 74
     0
 42
0.000000001
 43
0.0000000001
 40
0.0
 40
0.0
 40
0.0
 40
0.0
 40
0.0005700046782617
 40
0.0005700046782617
 40
0.0005700046782617
 40
0.0005700046782617
 10
214.4487519650043
 20
101.0972724208514
 30
0.0
 10
214.6132078454833
 20
101.0023855774252
 30
0.0
 10
214.7800031175938
 20
100.911812018383
 30
0.0
 10
214.9487797891558
 20
100.8249097024054
 30
0.0
  0
SPLINE
  5
260
330
211
100
AcDbEntity
  8
MD_狭い可視
100
AcDbSpline
210
0.0
220
0.0
230
1.0
 70
     8
 71
     3
 72
     8
 73
     4
 74
     0
 42
0.000000001
 43
0.0000000001
 40
0.0
 40
0.0
 40
0.0
 40
0.0
 40
0.0005082853397476
 40
0.0005082853397476
 40
0.0005082853397476
 40
0.0005082853397476
 10
214.9487797891558
 20
100.8249097024054
 30
0.0
 10
215.1014395339629
 20
100.7463059163637
 30
0.0
 10
215.2584364497833
 20
100.6888790338907
 30
0.0
 10
215.4182017549903
 20
100.6499690161217
 30
0.0
  0
SPLINE
  5
261
330
211
100
AcDbEntity
  8
MD_狭い可視
100
AcDbSpline
210
0.0
220
0.0
230
1.0
 70
     8
 71
     3
 72
     8
 73
     4
 74
     0
 42
0.000000001
 43
0.0000000001
 40
0.0
 40
0.0
 40
0.0
 40
0.0
 40
0.0002117474412517
 40
0.0002117474412517
 40
0.0002117474412517
 40
0.0002117474412517
 10
216.0697110406744
 20
101.7969366490506
 30
0.0
 10
216.0206683400279
 20
101.8477654961734
 30
0.0
 10
215.9701600361533
 20
101.8970677816178
 30
0.0
 10
215.9179805154756
 20
101.9446307195703
 30
0.0
  0
ARC
  5
262
330
211
100
AcDbEntity
  8
MD_可視
100
AcDbCircle
 10
155.8910014859297
 20
107.0087863871613
 30
0.0
 40
0.6999999999999997
100
AcDbArc
 50
134.9999999999862
 51
180.0
  0
LINE
  5
263
330
211
100
AcDbEntity
  8
MD_狭い可視
100
AcDbLine
 10
157.6910014859297
 20
107.0087863871613
 30
0.0
 11
157.6910014859297
 21
107.5037611339921
 31
0.0
210
-1.0
220
-0.0000000000000002
230
-0.0000000000000004
  0
LINE
  5
264
330
211
100
AcDbEntity
  8
MD_狭い可視
100
AcDbLine
 10
179.6848686540847
 20
107.0087863871613
 30
0.0
 11
179.6848686540847
 21
107.5037611339921
 31
0.0
210
-1.0
220
-0.0000000000000002
230
-0.0000000000000004
  0
LINE
  5
265
330
211
100
AcDbEntity
  8
MD_狭い可視
100
AcDbLine
 10
213.8893787243962
 20
100.8263571806274
 30
0.0
 11
214.0626502417557
 21
101.2900132830054
 31
0.0
210
-1.0
220
-0.0000000000000002
230
-0.0000000000000004
  0
LINE
  5
266
330
211
100
AcDbEntity
  8
MD_狭い可視
100
AcDbLine
 10
214.1823258348852
 20
100.6801188314039
 30
0.0
 11
214.4487519650046
 21
101.0972724208514
 31
0.0
210
-1.0
220
-0.0000000000000002
230
-0.0000000000000004
  0
LINE
  5
267
330
211
100
AcDbEntity
  8
MD_狭い可視
100
AcDbLine
 10
214.6910014859306
 20
100.3732770680635
 30
0.0
 11
214.9487797891441
 21
100.8249097023836
 31
0.0
210
-1.0
220
-0.0000000000000002
230
-0.0000000000000004
  0
ELLIPSE
  5
268
330
211
100
AcDbEntity
  8
MD_可視
100
AcDbEllipse
 10
215.1623462586642
 20
100.1743496745839
 30
0.0
 11
-0.1911697954828859
 21
-0.6733900127675119
 31
0.0000000000000001
210
0.0
220
-0.0000000000000002
230
-0.9999999999999998
 40
0.2525504795238622
 41
3.859099618953993
 42
4.640814484592594
  0
ARC
  5
269
330
211
100
AcDbEntity
  8
MD_可視
100
AcDbCircle
 10
157.4809509795909
 20
108.5987358808234
 30
0.0
 40
0.6999999999999997
100
AcDbArc
 50
90.0
 51
134.9999999999931
  0
LINE
  5
26A
330
211
100
AcDbEntity
  8
MD_狭い可視
100
AcDbLine
 10
157.6910014859297
 20
109.0937106276542
 30
0.0
 11
157.6910014859297
 21
109.2987358808241
 31
0.0
210
-1.0
220
-0.0000000000000002
230
-0.0000000000000004
  0
LINE
  5
26B
330
211
100
AcDbEntity
  8
MD_狭い可視
100
AcDbLine
 10
179.6848686540847
 20
109.0937106276542
 30
0.0
 11
179.6848686540847
 21
109.2987358808241
 31
0.0
210
-1.0
220
-0.0000000000000002
230
-0.0000000000000004
  0
LINE
  5
26C
330
211
100
AcDbEntity
  8
MD_狭い可視
100
AcDbLine
 10
214.6192300734664
 20
102.7793615576993
 30
0.0
 11
214.6910014859298
 21
102.9714142035809
 31
0.0
210
-1.0
220
-0.0000000000000002
230
-0.0000000000000004
  0
LINE
  5
26D
330
211
100
AcDbEntity
  8
MD_狭い可視
100
AcDbLine
 10
215.9179796670758
 20
101.9446298703242
 30
0.0
 11
216.0628739916914
 21
102.0896849948039
 31
0.0
210
-1.0
220
-0.0000000000000002
230
-0.0000000000000004
  0
ELLIPSE
  5
26E
330
211
100
AcDbEntity
  8
MD_狭い可視
100
AcDbEllipse
 10
215.717630319745
 20
101.4343737241343
 30
0.0
 11
-0.5279494895703535
 21
-0.4596404425879028
 31
0.0000000000000001
210
0.0
220
-0.0000000000000002
230
-0.9999999999999998
 40
0.0869297061836418
 41
2.373807011508827
 42
3.141592653584226
  0
LINE
  5
26F
330
211
100
AcDbEntity
  8
MD_可視
100
AcDbLine
 10
217.1910014859297
 20
99.36831493491808
 30
0.0
 11
217.1910014859297
 21
99.36829241977831
 31
0.0
210
-1.0
220
-0.0000000000000002
230
-0.0000000000000004
  0
ENDBLK
  5
270
330
211
100
AcDbEntity
  8
0
100
AcDbBlockEnd
  0
ENDSEC
  0
SECTION
  2
ENTITIES
  0
INSERT
  5
7F
330
70
100
AcDbEntity
  8
MD_可視
100
AcDbBlockReference
  2
CustomObjectsInViewport4_0
 10
0.0
 20
0.0
 30
0.0
  0
INSERT
  5
12C
330
70
100
AcDbEntity
  8
MD_可視
100
AcDbBlockReference
  2
CustomObjectsInViewport6_0
 10
0.0
 20
0.0
 30
0.0
  0
INSERT
  5
20F
330
70
100
AcDbEntity
  8
MD_可視
100
AcDbBlockReference
  2
CustomObjectsInViewport8_0
 10
0.0
 20
0.0
 30
0.0
  0
ENDSEC
  0
SECTION
  2
OBJECTS
  0
DICTIONARY
  5
C
330
0
100
AcDbDictionary
281
     1
  3
ACAD_CIP_PREVIOUS_PRODUCT_INFO
350
280
  3
ACAD_COLOR
350
63
  3
ACAD_DETAILVIEWSTYLE
350
6A
  3
ACAD_GROUP
350
D
  3
ACAD_LAST_SAVED_VERSION_INFO
350
282
  3
ACAD_LAYOUT
350
62
  3
ACAD_MATERIAL
350
10
  3
ACAD_MLEADERSTYLE
350
66
  3
ACAD_MLINESTYLE
350
5F
  3
ACAD_PLOTSETTINGS
350
61
  3
ACAD_PLOTSTYLENAME
350
E
  3
ACAD_SCALELIST
350
42
  3
ACAD_SECTIONVIEWSTYLE
350
68
  3
ACAD_TABLESTYLE
350
64
  3
ACAD_VISUALSTYLE
350
29
  3
ACDB_RECOMPOSE_DATA
350
286
  3
AcDbVariableDictionary
350
272
  0
DICTIONARY
  5
7D
330
70
100
AcDbDictionary
280
     1
281
     1
  3
ACAD_SORTENTS
360
7E
  0
XRECORD
  5
280
102
{ACAD_REACTORS
330
C
102
}
330
C
100
AcDbXrecord
280
     1
300
ACD
300
2024
300

  0
DICTIONARY
  5
63
102
{ACAD_REACTORS
330
C
102
}
330
C
100
AcDbDictionary
281
     1
  0
DICTIONARY
  5
6A
102
{ACAD_REACTORS
330
C
102
}
330
C
100
AcDbDictionary
281
     1
  3
Imperial24
350
6B
  3
Metric50
350
27B
  0
DICTIONARY
  5
D
102
{ACAD_REACTORS
330
C
102
}
330
C
100
AcDbDictionary
281
     1
  0
XRECORD
  5
282
102
{ACAD_REACTORS
330
C
102
}
330
C
100
AcDbXrecord
280
     1
300
{D9ABA1C2-9BF9-4647-82FF-D25391335E68}
301
{D72EA1C6-2516-914E-A575-26C11F06C466}
302
{D9ABA1C2-9BF9-4647-82FF-D25391335E68}
303
C:\Users\dsp199\Desktop\CAD HP UP\ローゼットボックス\NSBOX1L.dxf
  0
DICTIONARY
  5
62
102
{ACAD_REACTORS
330
C
102
}
330
C
100
AcDbDictionary
281
     1
  3
Model
350
73
  3
レイアウト1
350
6F
  3
レイアウト2
350
77
  0
DICTIONARY
  5
10
102
{ACAD_REACTORS
330
C
102
}
330
C
100
AcDbDictionary
281
     1
  3
ByBlock
350
19
  3
ByLayer
350
11
  3
Global
350
21
  0
DICTIONARY
  5
66
102
{ACAD_REACTORS
330
C
102
}
330
C
100
AcDbDictionary
281
     1
  3
Standard
350
67
  0
DICTIONARY
  5
5F
102
{ACAD_REACTORS
330
C
102
}
330
C
100
AcDbDictionary
281
     1
  3
Standard
350
60
  0
DICTIONARY
  5
61
102
{ACAD_REACTORS
330
C
102
}
330
C
100
AcDbDictionary
281
     1
  0
ACDBDICTIONARYWDFLT
  5
E
102
{ACAD_REACTORS
330
C
102
}
330
C
100
AcDbDictionary
281
     1
  3
Normal
350
F
100
AcDbDictionaryWithDefault
340
F
  0
DICTIONARY
  5
42
102
{ACAD_REACTORS
330
C
102
}
330
C
100
AcDbDictionary
281
     1
  3
A0
350
43
  3
A1
350
44
  3
A2
350
45
  3
A3
350
46
  3
A4
350
47
  3
A5
350
48
  3
A6
350
49
  3
A7
350
4A
  3
A8
350
4B
  3
A9
350
4C
  3
B0
350
4D
  3
B1
350
4E
  3
B2
350
4F
  3
B3
350
50
  3
B4
350
51
  3
B5
350
52
  3
B6
350
53
  0
DICTIONARY
  5
68
102
{ACAD_REACTORS
330
C
102
}
330
C
100
AcDbDictionary
281
     1
  3
Imperial24
350
69
  3
Metric50
350
27A
  0
DICTIONARY
  5
64
102
{ACAD_REACTORS
330
C
102
}
330
C
100
AcDbDictionary
281
     1
  3
Standard
350
65
  0
DICTIONARY
  5
29
102
{ACAD_REACTORS
330
C
102
}
330
C
100
AcDbDictionary
281
     1
  3
2dWireframe
350
2F
  3
Basic
350
2E
  3
Brighten
350
35
  3
ColorChange
350
39
  3
Conceptual
350
32
  3
Dim
350
34
  3
EdgeColorOff
350
41
  3
Facepattern
350
38
  3
Flat
350
2A
  3
FlatWithEdges
350
2B
  3
Gouraud
350
2C
  3
GouraudWithEdges
350
2D
  3
Hidden
350
31
  3
JitterOff
350
3F
  3
Linepattern
350
37
  3
OverhangOff
350
40
  3
Realistic
350
33
  3
Shaded
350
3E
  3
Shaded with edges
350
3D
  3
Shades of Gray
350
3A
  3
Sketchy
350
3B
  3
Thicken
350
36
  3
Wireframe
350
30
  3
X-Ray
350
3C
  0
XRECORD
  5
286
102
{ACAD_REACTORS
330
C
102
}
330
C
100
AcDbXrecord
280
     1
 90
        1
330
65
  0
DICTIONARY
  5
272
102
{ACAD_REACTORS
330
C
102
}
330
C
100
AcDbDictionary
281
     1
  3
ANNOALLVISIBLE
350
277
  3
CANNOSCALE
350
278
  3
CMLEADERSTYLE
350
274
  3
CTABLESTYLE
350
273
  3
CVIEWDETAILSTYLE
350
275
  3
CVIEWSECTIONSTYLE
350
276
  0
SORTENTSTABLE
  5
7E
102
{ACAD_REACTORS
330
7D
102
}
330
7D
100
AcDbSortentsTable
330
70
  0
ACDBDETAILVIEWSTYLE
  5
6B
102
{ACAD_REACTORS
330
6A
102
}
330
6A
100
AcDbModelDocViewStyle
 70
     0
  3
Imperial24
290
     1
300
Imperial24
 90
        0
100
AcDbDetailViewStyle
 70
     0
 71
     0
 90
        3
 71
     1
340
55
 62
   256
 40
0.24
340
0
 62
   256
 40
0.24
300

 40
0.36
280
     3
 71
     2
340
5D
 90
       25
 62
   256
 71
     3
340
55
 62
   256
 40
0.24
 90
        1
 40
0.75
 90
        1
300
%<\AcVar ViewType \f "%tc1">% %<\AcVar ViewDetailId>%\PSCALE %<\AcVar ViewScale \f "%sn">%
 71
     4
340
5D
 90
       25
 62
   256
340
5D
 90
       25
 62
   256
280
     0
  0
ACDBDETAILVIEWSTYLE
  5
27B
102
{ACAD_REACTORS
330
6A
102
}
330
6A
100
AcDbModelDocViewStyle
 70
     0
  3
Metric50
290
     1
300
Metric50
 90
        0
100
AcDbDetailViewStyle
 70
     0
 71
     0
 90
        3
 71
     1
340
55
 62
   256
 40
5.0
340
0
 62
   256
 40
5.0
300

 40
0.0
280
     1
 71
     2
340
5D
 90
       25
 62
   256
 71
     3
340
55
 62
   256
 40
5.0
 90
        0
 40
15.0
 90
        1
300
%<\AcVar ViewDetailId>% (%<\AcVar ViewScale \f "%sn">%)
 71
     4
340
5D
 90
       25
 62
   256
340
5D
 90
       25
 62
   256
280
     0
  0
LAYOUT
  5
73
102
{ACAD_REACTORS
330
62
102
}
330
62
100
AcDbPlotSettings
  1

  2
none_device
  4
ISO_A4_(210.00_x_297.00_MM)
  6

 40
7.5
 41
20.0
 42
7.5
 43
20.0
 44
210.0
 45
297.0
 46
0.0
 47
0.0
 48
0.0
 49
0.0
140
0.0
141
0.0
142
1.0
143
1.756217010711949
 70
 11952
 72
     1
 73
     1
 74
     0
  7

 75
     0
147
0.5694057134742203
 76
     0
 77
     2
 78
   300
148
85.55011995641246
149
10.06760434312105
100
AcDbLayout
  1
Model
 70
     1
 71
     0
 10
0.0
 20
0.0
 11
12.0
 21
9.0
 12
0.0
 22
0.0
 32
0.0
 14
0.0
 24
0.0
 34
0.0
 15
0.0
 25
0.0
 35
0.0
146
0.0
 13
0.0
 23
0.0
 33
0.0
 16
1.0
 26
0.0
 36
0.0
 17
0.0
 27
1.0
 37
0.0
 76
     0
330
70
331
57
1001
ACAD_PSEXT
1000
なし
1000
なし
1000
適切ではありません
1000
新しいプロッタ環境設定名を選択しない限り、レイアウトは印刷されません。
1070
     0
  0
LAYOUT
  5
6F
102
{ACAD_REACTORS
330
62
102
}
330
62
100
AcDbPlotSettings
  1

  2
Microsoft Print to PDF
  4

  6

 40
0.0
 41
0.0
 42
0.0
 43
0.0
 44
0.0
 45
0.0
 46
0.0
 47
0.0
 48
0.0
 49
0.0
140
0.0
141
0.0
142
1.0
143
1.0
 70
   688
 72
     0
 73
     0
 74
     5
  7

 75
    16
147
1.0
 76
     0
 77
     2
 78
   300
148
0.0
149
0.0
100
AcDbLayout
  1
レイアウト1
 70
     1
 71
     1
 10
0.0
 20
0.0
 11
12.0
 21
9.0
 12
0.0
 22
0.0
 32
0.0
 14
1.000000000000000E+20
 24
1.000000000000000E+20
 34
1.000000000000000E+20
 15
-1.000000000000000E+20
 25
-1.000000000000000E+20
 35
-1.000000000000000E+20
146
0.0
 13
0.0
 23
0.0
 33
0.0
 16
1.0
 26
0.0
 36
0.0
 17
0.0
 27
1.0
 37
0.0
 76
     0
330
6C
  0
LAYOUT
  5
77
102
{ACAD_REACTORS
330
62
102
}
330
62
100
AcDbPlotSettings
  1

  2
Microsoft Print to PDF
  4

  6

 40
0.0
 41
0.0
 42
0.0
 43
0.0
 44
0.0
 45
0.0
 46
0.0
 47
0.0
 48
0.0
 49
0.0
140
0.0
141
0.0
142
1.0
143
1.0
 70
   688
 72
     0
 73
     0
 74
     5
  7

 75
    16
147
1.0
 76
     0
 77
     2
 78
   300
148
0.0
149
0.0
100
AcDbLayout
  1
レイアウト2
 70
     1
 71
     2
 10
0.0
 20
0.0
 11
12.0
 21
9.0
 12
0.0
 22
0.0
 32
0.0
 14
0.0
 24
0.0
 34
0.0
 15
0.0
 25
0.0
 35
0.0
146
0.0
 13
0.0
 23
0.0
 33
0.0
 16
1.0
 26
0.0
 36
0.0
 17
0.0
 27
1.0
 37
0.0
 76
     0
330
74
  0
MATERIAL
  5
19
102
{ACAD_XDICTIONARY
360
1A
102
}
102
{ACAD_REACTORS
330
10
102
}
330
10
100
AcDbMaterial
  1
ByBlock
 72
     0
 43
0.0208333333333333
 43
0.0
 43
0.0
 43
0.0
 43
0.0
 43
0.0208333333333333
 43
0.0
 43
0.0
 43
0.0
 43
0.0
 43
1.0
 43
0.0
 43
0.0
 43
0.0
 43
0.0
 43
1.0
 77
     0
 47
0.0208333333333333
 47
0.0
 47
0.0
 47
0.0
 47
0.0
 47
0.0208333333333333
 47
0.0
 47
0.0
 47
0.0
 47
0.0
 47
1.0
 47
0.0
 47
0.0
 47
0.0
 47
0.0
 47
1.0
171
     0
 49
0.0208333333333333
 49
0.0
 49
0.0
 49
0.0
 49
0.0
 49
0.0208333333333333
 49
0.0
 49
0.0
 49
0.0
 49
0.0
 49
1.0
 49
0.0
 49
0.0
 49
0.0
 49
0.0
 49
1.0
175
     0
142
0.0208333333333333
142
0.0
142
0.0
142
0.0
142
0.0
142
0.0208333333333333
142
0.0
142
0.0
142
0.0
142
0.0
142
1.0
142
0.0
142
0.0
142
0.0
142
0.0
142
1.0
179
     0
144
0.0208333333333333
144
0.0
144
0.0
144
0.0
144
0.0
144
0.0208333333333333
144
0.0
144
0.0
144
0.0
144
0.0
144
1.0
144
0.0
144
0.0
144
0.0
144
0.0
144
1.0
147
0.0208333333333333
147
0.0
147
0.0
147
0.0
147
0.0
147
0.0208333333333333
147
0.0
147
0.0
147
0.0
147
0.0
147
1.0
147
0.0
147
0.0
147
0.0
147
0.0
147
1.0
  0
MATERIAL
  5
11
102
{ACAD_XDICTIONARY
360
12
102
}
102
{ACAD_REACTORS
330
10
102
}
330
10
100
AcDbMaterial
  1
ByLayer
 72
     0
 43
0.0208333333333333
 43
0.0
 43
0.0
 43
0.0
 43
0.0
 43
0.0208333333333333
 43
0.0
 43
0.0
 43
0.0
 43
0.0
 43
1.0
 43
0.0
 43
0.0
 43
0.0
 43
0.0
 43
1.0
 77
     0
 47
0.0208333333333333
 47
0.0
 47
0.0
 47
0.0
 47
0.0
 47
0.0208333333333333
 47
0.0
 47
0.0
 47
0.0
 47
0.0
 47
1.0
 47
0.0
 47
0.0
 47
0.0
 47
0.0
 47
1.0
171
     0
 49
0.0208333333333333
 49
0.0
 49
0.0
 49
0.0
 49
0.0
 49
0.0208333333333333
 49
0.0
 49
0.0
 49
0.0
 49
0.0
 49
1.0
 49
0.0
 49
0.0
 49
0.0
 49
0.0
 49
1.0
175
     0
142
0.0208333333333333
142
0.0
142
0.0
142
0.0
142
0.0
142
0.0208333333333333
142
0.0
142
0.0
142
0.0
142
0.0
142
1.0
142
0.0
142
0.0
142
0.0
142
0.0
142
1.0
179
     0
144
0.0208333333333333
144
0.0
144
0.0
144
0.0
144
0.0
144
0.0208333333333333
144
0.0
144
0.0
144
0.0
144
0.0
144
1.0
144
0.0
144
0.0
144
0.0
144
0.0
144
1.0
147
0.0208333333333333
147
0.0
147
0.0
147
0.0
147
0.0
147
0.0208333333333333
147
0.0
147
0.0
147
0.0
147
0.0
147
1.0
147
0.0
147
0.0
147
0.0
147
0.0
147
1.0
  0
MATERIAL
  5
21
102
{ACAD_XDICTIONARY
360
22
102
}
102
{ACAD_REACTORS
330
10
102
}
330
10
100
AcDbMaterial
  1
Global
 72
     0
 43
0.0208333333333333
 43
0.0
 43
0.0
 43
0.0
 43
0.0
 43
0.0208333333333333
 43
0.0
 43
0.0
 43
0.0
 43
0.0
 43
1.0
 43
0.0
 43
0.0
 43
0.0
 43
0.0
 43
1.0
 77
     0
 47
0.0208333333333333
 47
0.0
 47
0.0
 47
0.0
 47
0.0
 47
0.0208333333333333
 47
0.0
 47
0.0
 47
0.0
 47
0.0
 47
1.0
 47
0.0
 47
0.0
 47
0.0
 47
0.0
 47
1.0
171
     0
 49
0.0208333333333333
 49
0.0
 49
0.0
 49
0.0
 49
0.0
 49
0.0208333333333333
 49
0.0
 49
0.0
 49
0.0
 49
0.0
 49
1.0
 49
0.0
 49
0.0
 49
0.0
 49
0.0
 49
1.0
175
     0
142
0.0208333333333333
142
0.0
142
0.0
142
0.0
142
0.0
142
0.0208333333333333
142
0.0
142
0.0
142
0.0
142
0.0
142
1.0
142
0.0
142
0.0
142
0.0
142
0.0
142
1.0
179
     0
144
0.0208333333333333
144
0.0
144
0.0
144
0.0
144
0.0
144
0.0208333333333333
144
0.0
144
0.0
144
0.0
144
0.0
144
1.0
144
0.0
144
0.0
144
0.0
144
0.0
144
1.0
147
0.0208333333333333
147
0.0
147
0.0
147
0.0
147
0.0
147
0.0208333333333333
147
0.0
147
0.0
147
0.0
147
0.0
147
1.0
147
0.0
147
0.0
147
0.0
147
0.0
147
1.0
  0
MLEADERSTYLE
  5
67
102
{ACAD_REACTORS
330
66
102
}
330
66
100
AcDbMLeaderStyle
179
     2
170
     2
171
     1
172
     0
 90
        2
 40
0.0
 41
0.0
173
     1
 91
-1056964608
340
5B
 92
       -2
290
     1
 42
0.09
291
     1
 43
0.36
  3
Standard
 44
0.18
300

342
55
174
     1
178
     6
175
     1
176
     0
 93
-1056964608
 45
0.18
292
     0
297
     0
 46
0.18
 94
-1056964608
 47
1.0
 49
1.0
140
1.0
293
     1
141
0.0
294
     1
177
     0
142
1.0
295
     1
296
     0
143
0.125
271
     0
272
     9
273
     9
298
     1
  0
MLINESTYLE
  5
60
102
{ACAD_REACTORS
330
5F
102
}
330
5F
100
AcDbMlineStyle
  2
STANDARD
 70
     0
  3

 62
   256
 51
90.0
 52
90.0
 71
     2
 49
0.5
 62
   256
  6
BYLAYER
 49
-0.5
 62
   256
  6
BYLAYER
  0
ACDBPLACEHOLDER
  5
F
102
{ACAD_REACTORS
330
E
102
}
330
E
  0
SCALE
  5
43
102
{ACAD_REACTORS
330
42
102
}
330
42
100
AcDbScale
 70
     0
300
1:1
140
1.0
141
1.0
290
     1
  0
SCALE
  5
44
102
{ACAD_REACTORS
330
42
102
}
330
42
100
AcDbScale
 70
     0
300
1:2
140
1.0
141
2.0
290
     0
  0
SCALE
  5
45
102
{ACAD_REACTORS
330
42
102
}
330
42
100
AcDbScale
 70
     0
300
1:4
140
1.0
141
4.0
290
     0
  0
SCALE
  5
46
102
{ACAD_REACTORS
330
42
102
}
330
42
100
AcDbScale
 70
     0
300
1:5
140
1.0
141
5.0
290
     0
  0
SCALE
  5
47
102
{ACAD_REACTORS
330
42
102
}
330
42
100
AcDbScale
 70
     0
300
1:8
140
1.0
141
8.0
290
     0
  0
SCALE
  5
48
102
{ACAD_REACTORS
330
42
102
}
330
42
100
AcDbScale
 70
     0
300
1:10
140
1.0
141
10.0
290
     0
  0
SCALE
  5
49
102
{ACAD_REACTORS
330
42
102
}
330
42
100
AcDbScale
 70
     0
300
1:16
140
1.0
141
16.0
290
     0
  0
SCALE
  5
4A
102
{ACAD_REACTORS
330
42
102
}
330
42
100
AcDbScale
 70
     0
300
1:20
140
1.0
141
20.0
290
     0
  0
SCALE
  5
4B
102
{ACAD_REACTORS
330
42
102
}
330
42
100
AcDbScale
 70
     0
300
1:30
140
1.0
141
30.0
290
     0
  0
SCALE
  5
4C
102
{ACAD_REACTORS
330
42
102
}
330
42
100
AcDbScale
 70
     0
300
1:40
140
1.0
141
40.0
290
     0
  0
SCALE
  5
4D
102
{ACAD_REACTORS
330
42
102
}
330
42
100
AcDbScale
 70
     0
300
1:50
140
1.0
141
50.0
290
     0
  0
SCALE
  5
4E
102
{ACAD_REACTORS
330
42
102
}
330
42
100
AcDbScale
 70
     0
300
1:100
140
1.0
141
100.0
290
     0
  0
SCALE
  5
4F
102
{ACAD_REACTORS
330
42
102
}
330
42
100
AcDbScale
 70
     0
300
2:1
140
2.0
141
1.0
290
     0
  0
SCALE
  5
50
102
{ACAD_REACTORS
330
42
102
}
330
42
100
AcDbScale
 70
     0
300
4:1
140
4.0
141
1.0
290
     0
  0
SCALE
  5
51
102
{ACAD_REACTORS
330
42
102
}
330
42
100
AcDbScale
 70
     0
300
8:1
140
8.0
141
1.0
290
     0
  0
SCALE
  5
52
102
{ACAD_REACTORS
330
42
102
}
330
42
100
AcDbScale
 70
     0
300
10:1
140
10.0
141
1.0
290
     0
  0
SCALE
  5
53
102
{ACAD_REACTORS
330
42
102
}
330
42
100
AcDbScale
 70
     0
300
100:1
140
100.0
141
1.0
290
     0
  0
ACDBSECTIONVIEWSTYLE
  5
69
102
{ACAD_REACTORS
330
68
102
}
330
68
100
AcDbModelDocViewStyle
 70
     0
  3
Imperial24
290
     1
300
Imperial24
 90
        0
100
AcDbSectionViewStyle
 70
     0
 71
     0
 90
       78
 71
     1
340
55
 62
   256
 40
0.24
340
0
340
0
 62
   256
 40
0.24
300
I, O, Q, S, X, Z
 40
0.48
 90
        3
 40
0.18
 90
        1
 71
     2
340
5D
 90
       25
 62
   256
340
5D
 90
       50
 62
   256
 40
0.24
 40
0.0
 40
0.24
 71
     3
340
55
 62
   256
 40
0.24
 90
        1
 40
0.75
 90
        1
300
%<\AcVar ViewType \f "%tc1">% %<\AcVar ViewSectionStartId>%-%<\AcVar ViewSectionEndId>%\PSCALE %<\AcVar ViewScale \f "%sn">%
 71
     4
 62
   256
 62
   257
300
ANSI31
 40
1.0
 90
        0
290
     0
290
     0
 90
        6
 40
0.0
 40
1.570796326794896
 40
0.2617993877991494
 40
1.308996938995747
 40
-0.2617993877991494
 40
1.832595714594046
  0
ACDBSECTIONVIEWSTYLE
  5
27A
102
{ACAD_REACTORS
330
68
102
}
330
68
100
AcDbModelDocViewStyle
 70
     0
  3
Metric50
290
     1
300
Metric50
 90
        0
100
AcDbSectionViewStyle
 70
     0
 71
     0
 90
      102
 71
     1
340
55
 62
   256
 40
5.0
340
0
340
0
 62
   256
 40
5.0
300
I, O, Q, S, X, Z
 40
10.0
 90
        0
 40
2.5
 90
        0
 71
     2
340
5D
 90
       25
 62
   256
340
5D
 90
       50
 62
   256
 40
5.0
 40
2.5
 40
5.0
 71
     3
340
55
 62
   256
 40
5.0
 90
        0
 40
15.0
 90
        1
300
%<\AcVar ViewSectionStartId>%-%<\AcVar ViewSectionEndId>% (%<\AcVar ViewScale \f "%sn">%)
 71
     4
 62
   256
 62
   257
300
ANSI31
 40
1.0
 90
        0
290
     0
290
     0
 90
        6
 40
0.0
 40
1.570796326794896
 40
0.2617993877991494
 40
1.308996938995747
 40
-0.2617993877991494
 40
1.832595714594046
  0
TABLESTYLE
  5
65
102
{ACAD_XDICTIONARY
360
284
102
}
102
{ACAD_REACTORS
330
64
102
}
330
64
100
AcDbTableStyle
280
     0
  3
Standard
 70
     0
 71
     3
 40
1.5
 41
1.5
280
     0
281
     0
  7
Standard
140
4.5
170
     2
 62
     0
 63
     7
283
     0
 90
      512
 91
        0
  1

274
    -2
284
     1
 64
     0
275
    -2
285
     1
 65
     0
276
    -2
286
     1
 66
     0
277
    -2
287
     1
 67
     0
278
    -2
288
     1
 68
     0
279
    -2
289
     1
 69
     0
  7
Standard
140
6.0
170
     5
 62
     0
 63
     7
283
     0
 90
      512
 91
        0
  1

274
    -2
284
     1
 64
     0
275
    -2
285
     1
 65
     0
276
    -2
286
     1
 66
     0
277
    -2
287
     1
 67
     0
278
    -2
288
     1
 68
     0
279
    -2
289
     1
 69
     0
  7
Standard
140
4.5
170
     5
 62
     0
 63
     7
283
     0
 90
      512
 91
        0
  1

274
    -2
284
     1
 64
     0
275
    -2
285
     1
 65
     0
276
    -2
286
     1
 66
     0
277
    -2
287
     1
 67
     0
278
    -2
288
     1
 68
     0
279
    -2
289
     1
 69
     0
  0
VISUALSTYLE
  5
2F
102
{ACAD_REACTORS
330
29
102
}
330
29
100
AcDbVisualStyle
  2
2dWireframe
 70
     4
177
     3
291
     0
 70
    58
 90
        0
176
     1
 90
        2
176
     1
 90
        0
176
     1
 90
        0
176
     1
 40
0.6
176
     1
 40
30.0
176
     1
 62
     7
420
 16777215
176
     1
 90
        1
176
     1
 90
        4
176
     1
 62
     7
176
     1
 62
   257
176
     1
 90
        1
176
     1
 90
        1
176
     1
 40
1.0
176
     1
 90
        0
176
     1
 62
   257
176
     1
 40
1.0
176
     1
 90
        1
176
     1
 90
        6
176
     1
 90
        2
176
     1
 62
     7
176
     1
 90
        5
176
     1
 90
        0
176
     1
 90
        0
176
     1
290
     0
176
     1
 90
        1
176
     1
 40
0.0
176
     1
 90
        0
176
     1
290
     1
176
     1
290
     1
176
     1
290
     0
176
     1
290
     0
176
     1
290
     0
176
     1
290
     0
176
     1
290
     0
176
     1
290
     0
176
     1
290
     0
176
     1
 90
       50
176
     1
 40
0.0
176
     1
 40
1.0
176
     1
 90
        0
176
     1
 62
    18
420
        0
176
     1
 90
       50
176
     1
 90
        3
176
     1
 62
     5
420
      255
176
     1
290
     0
176
     1
 90
       50
176
     1
 90
       50
176
     1
 90
       50
176
     1
290
     0
176
     1
 90
       50
176
     1
 62
   256
176
     0
 40
1.0
176
     0
 90
        2
176
     1
  1
strokes_ogs.tif
176
     1
290
     0
176
     1
 40
1.0
176
     1
 40
1.0
176
     1
  0
VISUALSTYLE
  5
2E
102
{ACAD_REACTORS
330
29
102
}
330
29
100
AcDbVisualStyle
  2
Basic
 70
     7
177
     3
291
     1
 70
    58
 90
        1
176
     1
 90
        0
176
     1
 90
        1
176
     1
 90
        0
176
     1
 40
0.6
176
     1
 40
30.0
176
     1
 62
     7
420
 16777215
176
     1
 90
        0
176
     1
 90
        4
176
     1
 62
     7
176
     1
 62
   257
176
     1
 90
        1
176
     1
 90
        1
176
     1
 40
1.0
176
     1
 90
        8
176
     1
 62
     7
176
     1
 40
1.0
176
     1
 90
        1
176
     1
 90
        6
176
     1
 90
        2
176
     1
 62
     7
176
     1
 90
        5
176
     1
 90
        0
176
     1
 90
        0
176
     1
290
     0
176
     1
 90
        1
176
     1
 40
0.0
176
     1
 90
        0
176
     1
290
     0
176
     1
290
     1
176
     1
290
     1
176
     1
290
     0
176
     1
290
     0
176
     1
290
     0
176
     1
290
     0
176
     1
290
     0
176
     1
290
     0
176
     1
 90
       50
176
     1
 40
0.0
176
     1
 40
1.0
176
     1
 90
        0
176
     1
 62
    18
420
        0
176
     1
 90
       50
176
     1
 90
        3
176
     1
 62
     5
420
      255
176
     1
290
     0
176
     1
 90
       50
176
     1
 90
       50
176
     1
 90
       50
176
     1
290
     0
176
     1
 90
       50
176
     1
 62
   256
176
     0
 40
1.0
176
     0
 90
        2
176
     1
  1
strokes_ogs.tif
176
     1
290
     0
176
     1
 40
1.0
176
     1
 40
1.0
176
     1
  0
VISUALSTYLE
  5
35
102
{ACAD_REACTORS
330
29
102
}
330
29
100
AcDbVisualStyle
  2
Brighten
 70
    12
177
     3
291
     1
 70
    58
 90
        2
176
     1
 90
        2
176
     1
 90
        0
176
     1
 90
        0
176
     1
 40
0.6
176
     1
 40
30.0
176
     1
 62
     7
420
 16777215
176
     1
 90
        1
176
     1
 90
        4
176
     1
 62
     7
176
     1
 62
   257
176
     1
 90
        1
176
     1
 90
        1
176
     1
 40
1.0
176
     1
 90
        8
176
     1
 62
     7
176
     1
 40
1.0
176
     1
 90
        1
176
     1
 90
        6
176
     1
 90
        2
176
     1
 62
     7
176
     1
 90
        5
176
     1
 90
        0
176
     1
 90
        0
176
     1
290
     0
176
     1
 90
        1
176
     1
 40
50.0
176
     1
 90
        0
176
     1
290
     0
176
     1
290
     1
176
     1
290
     1
176
     1
290
     0
176
     1
290
     0
176
     1
290
     0
176
     1
290
     0
176
     1
290
     0
176
     1
290
     0
176
     1
 90
       50
176
     1
 40
0.0
176
     1
 40
1.0
176
     1
 90
        0
176
     1
 62
    18
420
        0
176
     1
 90
       50
176
     1
 90
        3
176
     1
 62
     5
420
      255
176
     1
290
     0
176
     1
 90
       50
176
     1
 90
       50
176
     1
 90
       50
176
     1
290
     0
176
     1
 90
       50
176
     1
 62
   256
176
     0
 40
1.0
176
     0
 90
        2
176
     1
  1
strokes_ogs.tif
176
     1
290
     0
176
     1
 40
1.0
176
     1
 40
1.0
176
     1
  0
VISUALSTYLE
  5
39
102
{ACAD_REACTORS
330
29
102
}
330
29
100
AcDbVisualStyle
  2
ColorChange
 70
    16
177
     3
291
     1
 70
    58
 90
        2
176
     1
 90
        2
176
     1
 90
        3
176
     1
 90
        0
176
     1
 40
0.6
176
     1
 40
30.0
176
     1
 62
     8
420
  8421504
176
     1
 90
        1
176
     1
 90
        4
176
     1
 62
     7
176
     1
 62
   257
176
     1
 90
        1
176
     1
 90
        1
176
     1
 40
1.0
176
     1
 90
        8
176
     1
 62
     8
420
  8421504
176
     1
 40
1.0
176
     1
 90
        1
176
     1
 90
        6
176
     1
 90
        2
176
     1
 62
     7
176
     1
 90
        5
176
     1
 90
        0
176
     1
 90
        0
176
     1
290
     0
176
     1
 90
        1
176
     1
 40
0.0
176
     1
 90
        0
176
     1
290
     0
176
     1
290
     1
176
     1
290
     1
176
     1
290
     0
176
     1
290
     0
176
     1
290
     0
176
     1
290
     0
176
     1
290
     0
176
     1
290
     0
176
     1
 90
       50
176
     1
 40
0.0
176
     1
 40
1.0
176
     1
 90
        0
176
     1
 62
    18
420
        0
176
     1
 90
       50
176
     1
 90
        3
176
     1
 62
     5
420
      255
176
     1
290
     0
176
     1
 90
       50
176
     1
 90
       50
176
     1
 90
       50
176
     1
290
     0
176
     1
 90
       50
176
     1
 62
   256
176
     0
 40
1.0
176
     0
 90
        2
176
     1
  1
strokes_ogs.tif
176
     1
290
     0
176
     1
 40
1.0
176
     1
 40
1.0
176
     1
  0
VISUALSTYLE
  5
32
102
{ACAD_REACTORS
330
29
102
}
330
29
100
AcDbVisualStyle
  2
Conceptual
 70
     9
177
     3
291
     0
 70
    58
 90
        3
176
     1
 90
        2
176
     1
 90
        0
176
     1
 90
        0
176
     1
 40
0.6
176
     1
 40
30.0
176
     1
 62
     7
420
 16777215
176
     1
 90
        2
176
     1
 90
        2
176
     1
 62
     7
176
     1
 62
   257
176
     1
 90
        1
176
     1
 90
        1
176
     1
 40
179.0
176
     1
 90
        8
176
     1
 62
     7
176
     1
 40
1.0
176
     1
 90
        1
176
     1
 90
        6
176
     1
 90
        2
176
     1
 62
     7
176
     1
 90
        3
176
     1
 90
        0
176
     1
 90
        0
176
     1
290
     0
176
     1
 90
        1
176
     1
 40
0.0
176
     1
 90
        0
176
     1
290
     0
176
     1
290
     1
176
     1
290
     1
176
     1
290
     0
176
     1
290
     0
176
     1
290
     0
176
     1
290
     0
176
     1
290
     0
176
     1
290
     0
176
     1
 90
       50
176
     1
 40
0.0
176
     1
 40
1.0
176
     1
 90
        0
176
     1
 62
    18
420
        0
176
     1
 90
       50
176
     1
 90
        3
176
     1
 62
     5
420
      255
176
     1
290
     0
176
     1
 90
       50
176
     1
 90
       50
176
     1
 90
       50
176
     1
290
     0
176
     1
 90
       50
176
     1
 62
   256
176
     0
 40
1.0
176
     0
 90
        2
176
     1
  1
strokes_ogs.tif
176
     1
290
     0
176
     1
 40
1.0
176
     1
 40
1.0
176
     1
  0
VISUALSTYLE
  5
34
102
{ACAD_REACTORS
330
29
102
}
330
29
100
AcDbVisualStyle
  2
Dim
 70
    11
177
     3
291
     1
 70
    58
 90
        2
176
     1
 90
        2
176
     1
 90
        0
176
     1
 90
        0
176
     1
 40
0.6
176
     1
 40
30.0
176
     1
 62
     7
420
 16777215
176
     1
 90
        1
176
     1
 90
        4
176
     1
 62
     7
176
     1
 62
   257
176
     1
 90
        1
176
     1
 90
        1
176
     1
 40
1.0
176
     1
 90
        8
176
     1
 62
     7
176
     1
 40
1.0
176
     1
 90
        1
176
     1
 90
        6
176
     1
 90
        2
176
     1
 62
     7
176
     1
 90
        5
176
     1
 90
        0
176
     1
 90
        0
176
     1
290
     0
176
     1
 90
        1
176
     1
 40
-50.0
176
     1
 90
        0
176
     1
290
     0
176
     1
290
     1
176
     1
290
     1
176
     1
290
     0
176
     1
290
     0
176
     1
290
     0
176
     1
290
     0
176
     1
290
     0
176
     1
290
     0
176
     1
 90
       50
176
     1
 40
0.0
176
     1
 40
1.0
176
     1
 90
        0
176
     1
 62
    18
420
        0
176
     1
 90
       50
176
     1
 90
        3
176
     1
 62
     5
420
      255
176
     1
290
     0
176
     1
 90
       50
176
     1
 90
       50
176
     1
 90
       50
176
     1
290
     0
176
     1
 90
       50
176
     1
 62
   256
176
     0
 40
1.0
176
     0
 90
        2
176
     1
  1
strokes_ogs.tif
176
     1
290
     0
176
     1
 40
1.0
176
     1
 40
1.0
176
     1
  0
VISUALSTYLE
  5
41
102
{ACAD_REACTORS
330
29
102
}
330
29
100
AcDbVisualStyle
  2
EdgeColorOff
 70
    22
177
     3
291
     1
 70
    58
 90
        2
176
     0
 90
        2
176
     0
 90
        0
176
     0
 90
        0
176
     0
 40
0.6
176
     0
 40
30.0
176
     0
 62
     7
420
 16777215
176
     0
 90
        1
176
     0
 90
        4
176
     0
 62
     7
176
     0
 62
   257
176
     0
 90
        1
176
     0
 90
        1
176
     0
 40
1.0
176
     0
 90
        8
176
     2
 62
     7
176
     0
 40
1.0
176
     0
 90
        1
176
     0
 90
        6
176
     0
 90
        2
176
     0
 62
     7
176
     0
 90
        5
176
     0
 90
        0
176
     0
 90
        0
176
     0
290
     0
176
     0
 90
        1
176
     0
 40
0.0
176
     0
 90
        0
176
     0
290
     0
176
     0
290
     1
176
     0
290
     1
176
     0
290
     0
176
     0
290
     0
176
     0
290
     0
176
     0
290
     0
176
     0
290
     0
176
     0
290
     0
176
     0
 90
       50
176
     0
 40
0.0
176
     0
 40
1.0
176
     0
 90
        0
176
     0
 62
    18
420
        0
176
     0
 90
       50
176
     0
 90
        3
176
     0
 62
     5
420
      255
176
     0
290
     0
176
     0
 90
       50
176
     0
 90
       50
176
     0
 90
       50
176
     0
290
     0
176
     0
 90
       50
176
     0
 62
   256
176
     0
 40
1.0
176
     0
 90
        2
176
     0
  1
strokes_ogs.tif
176
     0
290
     0
176
     0
 40
1.0
176
     0
 40
1.0
176
     0
  0
VISUALSTYLE
  5
38
102
{ACAD_REACTORS
330
29
102
}
330
29
100
AcDbVisualStyle
  2
Facepattern
 70
    15
177
     3
291
     1
 70
    58
 90
        2
176
     1
 90
        2
176
     1
 90
        0
176
     1
 90
        0
176
     1
 40
0.6
176
     1
 40
30.0
176
     1
 62
     7
420
 16777215
176
     1
 90
        1
176
     1
 90
        4
176
     1
 62
     7
176
     1
 62
   257
176
     1
 90
        1
176
     1
 90
        1
176
     1
 40
1.0
176
     1
 90
        8
176
     1
 62
     7
176
     1
 40
1.0
176
     1
 90
        1
176
     1
 90
        6
176
     1
 90
        2
176
     1
 62
     7
176
     1
 90
        5
176
     1
 90
        0
176
     1
 90
        0
176
     1
290
     0
176
     1
 90
        1
176
     1
 40
0.0
176
     1
 90
        0
176
     1
290
     0
176
     1
290
     1
176
     1
290
     1
176
     1
290
     0
176
     1
290
     0
176
     1
290
     0
176
     1
290
     0
176
     1
290
     0
176
     1
290
     0
176
     1
 90
       50
176
     1
 40
0.0
176
     1
 40
1.0
176
     1
 90
        0
176
     1
 62
    18
420
        0
176
     1
 90
       50
176
     1
 90
        3
176
     1
 62
     5
420
      255
176
     1
290
     0
176
     1
 90
       50
176
     1
 90
       50
176
     1
 90
       50
176
     1
290
     0
176
     1
 90
       50
176
     1
 62
   256
176
     0
 40
1.0
176
     0
 90
        2
176
     1
  1
strokes_ogs.tif
176
     1
290
     0
176
     1
 40
1.0
176
     1
 40
1.0
176
     1
  0
VISUALSTYLE
  5
2A
102
{ACAD_REACTORS
330
29
102
}
330
29
100
AcDbVisualStyle
  2
Flat
 70
     0
177
     3
291
     1
 70
    58
 90
        2
176
     1
 90
        1
176
     1
 90
        1
176
     1
 90
        2
176
     1
 40
0.6
176
     1
 40
30.0
176
     1
 62
     7
420
 16777215
176
     1
 90
        0
176
     1
 90
        0
176
     1
 62
     7
176
     1
 62
   257
176
     1
 90
        1
176
     1
 90
        1
176
     1
 40
1.0
176
     1
 90
        8
176
     1
 62
     7
176
     1
 40
1.0
176
     1
 90
        1
176
     1
 90
        6
176
     1
 90
        2
176
     1
 62
     7
176
     1
 90
        5
176
     1
 90
        0
176
     1
 90
        0
176
     1
290
     0
176
     1
 90
       13
176
     1
 40
0.0
176
     1
 90
        0
176
     1
290
     0
176
     1
290
     1
176
     1
290
     1
176
     1
290
     0
176
     1
290
     0
176
     1
290
     0
176
     1
290
     0
176
     1
290
     0
176
     1
290
     0
176
     1
 90
       50
176
     1
 40
0.0
176
     1
 40
1.0
176
     1
 90
        0
176
     1
 62
    18
420
        0
176
     1
 90
       50
176
     1
 90
        3
176
     1
 62
     5
420
      255
176
     1
290
     0
176
     1
 90
       50
176
     1
 90
       50
176
     1
 90
       50
176
     1
290
     0
176
     1
 90
       50
176
     1
 62
   256
176
     0
 40
1.0
176
     0
 90
        2
176
     1
  1
strokes_ogs.tif
176
     1
290
     0
176
     1
 40
1.0
176
     1
 40
1.0
176
     1
  0
VISUALSTYLE
  5
2B
102
{ACAD_REACTORS
330
29
102
}
330
29
100
AcDbVisualStyle
  2
FlatWithEdges
 70
     1
177
     3
291
     1
 70
    58
 90
        2
176
     1
 90
        1
176
     1
 90
        1
176
     1
 90
        2
176
     1
 40
0.6
176
     1
 40
30.0
176
     1
 62
     7
420
 16777215
176
     1
 90
        1
176
     1
 90
        0
176
     1
 62
     7
176
     1
 62
   257
176
     1
 90
        1
176
     1
 90
        1
176
     1
 40
1.0
176
     1
 90
        0
176
     1
 62
   257
176
     1
 40
1.0
176
     1
 90
        1
176
     1
 90
        6
176
     1
 90
        2
176
     1
 62
     7
176
     1
 90
        5
176
     1
 90
        0
176
     1
 90
        0
176
     1
290
     0
176
     1
 90
       13
176
     1
 40
0.0
176
     1
 90
        0
176
     1
290
     0
176
     1
290
     1
176
     1
290
     1
176
     1
290
     0
176
     1
290
     0
176
     1
290
     0
176
     1
290
     0
176
     1
290
     0
176
     1
290
     0
176
     1
 90
       50
176
     1
 40
0.0
176
     1
 40
1.0
176
     1
 90
        0
176
     1
 62
    18
420
        0
176
     1
 90
       50
176
     1
 90
        3
176
     1
 62
     5
420
      255
176
     1
290
     0
176
     1
 90
       50
176
     1
 90
       50
176
     1
 90
       50
176
     1
290
     0
176
     1
 90
       50
176
     1
 62
   256
176
     0
 40
1.0
176
     0
 90
        2
176
     1
  1
strokes_ogs.tif
176
     1
290
     0
176
     1
 40
1.0
176
     1
 40
1.0
176
     1
  0
VISUALSTYLE
  5
2C
102
{ACAD_REACTORS
330
29
102
}
330
29
100
AcDbVisualStyle
  2
Gouraud
 70
     2
177
     3
291
     1
 70
    58
 90
        2
176
     1
 90
        2
176
     1
 90
        1
176
     1
 90
        2
176
     1
 40
0.6
176
     1
 40
30.0
176
     1
 62
     7
420
 16777215
176
     1
 90
        0
176
     1
 90
        0
176
     1
 62
     7
176
     1
 62
   257
176
     1
 90
        1
176
     1
 90
        1
176
     1
 40
1.0
176
     1
 90
        0
176
     1
 62
     7
176
     1
 40
1.0
176
     1
 90
        1
176
     1
 90
        6
176
     1
 90
        2
176
     1
 62
     7
176
     1
 90
        5
176
     1
 90
        0
176
     1
 90
        0
176
     1
290
     0
176
     1
 90
       13
176
     1
 40
0.0
176
     1
 90
        0
176
     1
290
     0
176
     1
290
     1
176
     1
290
     1
176
     1
290
     0
176
     1
290
     0
176
     1
290
     0
176
     1
290
     0
176
     1
290
     0
176
     1
290
     0
176
     1
 90
       50
176
     1
 40
0.0
176
     1
 40
1.0
176
     1
 90
        0
176
     1
 62
    18
420
        0
176
     1
 90
       50
176
     1
 90
        3
176
     1
 62
     5
420
      255
176
     1
290
     0
176
     1
 90
       50
176
     1
 90
       50
176
     1
 90
       50
176
     1
290
     0
176
     1
 90
       50
176
     1
 62
   256
176
     0
 40
1.0
176
     0
 90
        2
176
     1
  1
strokes_ogs.tif
176
     1
290
     0
176
     1
 40
1.0
176
     1
 40
1.0
176
     1
  0
VISUALSTYLE
  5
2D
102
{ACAD_REACTORS
330
29
102
}
330
29
100
AcDbVisualStyle
  2
GouraudWithEdges
 70
     3
177
     3
291
     1
 70
    58
 90
        2
176
     1
 90
        2
176
     1
 90
        1
176
     1
 90
        2
176
     1
 40
0.6
176
     1
 40
30.0
176
     1
 62
     7
420
 16777215
176
     1
 90
        1
176
     1
 90
        0
176
     1
 62
     7
176
     1
 62
   257
176
     1
 90
        1
176
     1
 90
        1
176
     1
 40
1.0
176
     1
 90
        0
176
     1
 62
   257
176
     1
 40
1.0
176
     1
 90
        1
176
     1
 90
        6
176
     1
 90
        2
176
     1
 62
     7
176
     1
 90
        5
176
     1
 90
        0
176
     1
 90
        0
176
     1
290
     0
176
     1
 90
       13
176
     1
 40
0.0
176
     1
 90
        0
176
     1
290
     0
176
     1
290
     1
176
     1
290
     1
176
     1
290
     0
176
     1
290
     0
176
     1
290
     0
176
     1
290
     0
176
     1
290
     0
176
     1
290
     0
176
     1
 90
       50
176
     1
 40
0.0
176
     1
 40
1.0
176
     1
 90
        0
176
     1
 62
    18
420
        0
176
     1
 90
       50
176
     1
 90
        3
176
     1
 62
     5
420
      255
176
     1
290
     0
176
     1
 90
       50
176
     1
 90
       50
176
     1
 90
       50
176
     1
290
     0
176
     1
 90
       50
176
     1
 62
   256
176
     0
 40
1.0
176
     0
 90
        2
176
     1
  1
strokes_ogs.tif
176
     1
290
     0
176
     1
 40
1.0
176
     1
 40
1.0
176
     1
  0
VISUALSTYLE
  5
31
102
{ACAD_REACTORS
330
29
102
}
330
29
100
AcDbVisualStyle
  2
Hidden
 70
     6
177
     3
291
     0
 70
    58
 90
        1
176
     1
 90
        2
176
     1
 90
        2
176
     1
 90
        0
176
     1
 40
0.6
176
     1
 40
30.0
176
     1
 62
     7
420
 16777215
176
     1
 90
        2
176
     1
 90
        2
176
     1
 62
     7
176
     1
 62
   257
176
     1
 90
        2
176
     1
 90
        1
176
     1
 40
40.0
176
     1
 90
        0
176
     1
 62
   257
176
     1
 40
1.0
176
     1
 90
        1
176
     1
 90
        6
176
     1
 90
        2
176
     1
 62
     7
176
     1
 90
        3
176
     1
 90
        0
176
     1
 90
        0
176
     1
290
     0
176
     1
 90
        1
176
     1
 40
0.0
176
     1
 90
        0
176
     1
290
     0
176
     1
290
     1
176
     1
290
     1
176
     1
290
     0
176
     1
290
     0
176
     1
290
     0
176
     1
290
     0
176
     1
290
     0
176
     1
290
     0
176
     1
 90
       50
176
     1
 40
0.0
176
     1
 40
1.0
176
     1
 90
        0
176
     1
 62
    18
420
        0
176
     1
 90
       50
176
     1
 90
        3
176
     1
 62
     5
420
      255
176
     1
290
     0
176
     1
 90
       50
176
     1
 90
       50
176
     1
 90
       50
176
     1
290
     0
176
     1
 90
       50
176
     1
 62
   256
176
     0
 40
1.0
176
     0
 90
        2
176
     1
  1
strokes_ogs.tif
176
     1
290
     0
176
     1
 40
1.0
176
     1
 40
1.0
176
     1
  0
VISUALSTYLE
  5
3F
102
{ACAD_REACTORS
330
29
102
}
330
29
100
AcDbVisualStyle
  2
JitterOff
 70
    20
177
     3
291
     1
 70
    58
 90
        2
176
     0
 90
        2
176
     0
 90
        0
176
     0
 90
        0
176
     0
 40
0.6
176
     0
 40
30.0
176
     0
 62
     7
420
 16777215
176
     0
 90
        1
176
     0
 90
        4
176
     0
 62
     7
176
     0
 62
   257
176
     0
 90
        1
176
     0
 90
        1
176
     0
 40
1.0
176
     0
 90
       10
176
     2
 62
     7
176
     0
 40
1.0
176
     0
 90
        1
176
     0
 90
        6
176
     0
 90
        2
176
     0
 62
     7
176
     0
 90
        5
176
     0
 90
        0
176
     0
 90
        0
176
     0
290
     0
176
     0
 90
        1
176
     0
 40
0.0
176
     0
 90
        0
176
     0
290
     0
176
     0
290
     1
176
     0
290
     1
176
     0
290
     0
176
     0
290
     0
176
     0
290
     0
176
     0
290
     0
176
     0
290
     0
176
     0
290
     0
176
     0
 90
       50
176
     0
 40
0.0
176
     0
 40
1.0
176
     0
 90
        0
176
     0
 62
    18
420
        0
176
     0
 90
       50
176
     0
 90
        3
176
     0
 62
     5
420
      255
176
     0
290
     0
176
     0
 90
       50
176
     0
 90
       50
176
     0
 90
       50
176
     0
290
     0
176
     0
 90
       50
176
     0
 62
   256
176
     0
 40
1.0
176
     0
 90
        2
176
     0
  1
strokes_ogs.tif
176
     0
290
     0
176
     0
 40
1.0
176
     0
 40
1.0
176
     0
  0
VISUALSTYLE
  5
37
102
{ACAD_REACTORS
330
29
102
}
330
29
100
AcDbVisualStyle
  2
Linepattern
 70
    14
177
     3
291
     1
 70
    58
 90
        2
176
     1
 90
        2
176
     1
 90
        0
176
     1
 90
        0
176
     1
 40
0.6
176
     1
 40
30.0
176
     1
 62
     7
420
 16777215
176
     1
 90
        1
176
     1
 90
        4
176
     1
 62
     7
176
     1
 62
   257
176
     1
 90
        7
176
     1
 90
        7
176
     1
 40
1.0
176
     1
 90
        8
176
     1
 62
     7
176
     1
 40
1.0
176
     1
 90
        1
176
     1
 90
        6
176
     1
 90
        2
176
     1
 62
     7
176
     1
 90
        5
176
     1
 90
        0
176
     1
 90
        0
176
     1
290
     0
176
     1
 90
        1
176
     1
 40
0.0
176
     1
 90
        0
176
     1
290
     0
176
     1
290
     1
176
     1
290
     1
176
     1
290
     0
176
     1
290
     0
176
     1
290
     0
176
     1
290
     0
176
     1
290
     0
176
     1
290
     0
176
     1
 90
       50
176
     1
 40
0.0
176
     1
 40
1.0
176
     1
 90
        0
176
     1
 62
    18
420
        0
176
     1
 90
       50
176
     1
 90
        3
176
     1
 62
     5
420
      255
176
     1
290
     0
176
     1
 90
       50
176
     1
 90
       50
176
     1
 90
       50
176
     1
290
     0
176
     1
 90
       50
176
     1
 62
   256
176
     0
 40
1.0
176
     0
 90
        2
176
     1
  1
strokes_ogs.tif
176
     1
290
     0
176
     1
 40
1.0
176
     1
 40
1.0
176
     1
  0
VISUALSTYLE
  5
40
102
{ACAD_REACTORS
330
29
102
}
330
29
100
AcDbVisualStyle
  2
OverhangOff
 70
    21
177
     3
291
     1
 70
    58
 90
        2
176
     0
 90
        2
176
     0
 90
        0
176
     0
 90
        0
176
     0
 40
0.6
176
     0
 40
30.0
176
     0
 62
     7
420
 16777215
176
     0
 90
        1
176
     0
 90
        4
176
     0
 62
     7
176
     0
 62
   257
176
     0
 90
        1
176
     0
 90
        1
176
     0
 40
1.0
176
     0
 90
        9
176
     2
 62
     7
176
     0
 40
1.0
176
     0
 90
        1
176
     0
 90
        6
176
     0
 90
        2
176
     0
 62
     7
176
     0
 90
        5
176
     0
 90
        0
176
     0
 90
        0
176
     0
290
     0
176
     0
 90
        1
176
     0
 40
0.0
176
     0
 90
        0
176
     0
290
     0
176
     0
290
     1
176
     0
290
     1
176
     0
290
     0
176
     0
290
     0
176
     0
290
     0
176
     0
290
     0
176
     0
290
     0
176
     0
290
     0
176
     0
 90
       50
176
     0
 40
0.0
176
     0
 40
1.0
176
     0
 90
        0
176
     0
 62
    18
420
        0
176
     0
 90
       50
176
     0
 90
        3
176
     0
 62
     5
420
      255
176
     0
290
     0
176
     0
 90
       50
176
     0
 90
       50
176
     0
 90
       50
176
     0
290
     0
176
     0
 90
       50
176
     0
 62
   256
176
     0
 40
1.0
176
     0
 90
        2
176
     0
  1
strokes_ogs.tif
176
     0
290
     0
176
     0
 40
1.0
176
     0
 40
1.0
176
     0
  0
VISUALSTYLE
  5
33
102
{ACAD_REACTORS
330
29
102
}
330
29
100
AcDbVisualStyle
  2
Realistic
 70
     8
177
     3
291
     0
 70
    58
 90
        2
176
     1
 90
        3
176
     1
 90
        0
176
     1
 90
        2
176
     1
 40
0.6
176
     1
 40
30.0
176
     1
 62
     7
420
 16777215
176
     1
 90
        0
176
     1
 90
        0
176
     1
 62
     7
176
     1
 62
   257
176
     1
 90
        1
176
     1
 90
        1
176
     1
 40
1.0
176
     1
 90
        8
176
     1
 62
   257
176
     1
 40
1.0
176
     1
 90
        1
176
     1
 90
        6
176
     1
 90
        2
176
     1
 62
     7
176
     1
 90
        3
176
     1
 90
        0
176
     1
 90
        0
176
     1
290
     0
176
     1
 90
       13
176
     1
 40
0.0
176
     1
 90
        0
176
     1
290
     0
176
     1
290
     1
176
     1
290
     1
176
     1
290
     0
176
     1
290
     0
176
     1
290
     0
176
     1
290
     0
176
     1
290
     0
176
     1
290
     0
176
     1
 90
       50
176
     1
 40
0.0
176
     1
 40
1.0
176
     1
 90
        0
176
     1
 62
    18
420
        0
176
     1
 90
       50
176
     1
 90
        3
176
     1
 62
     5
420
      255
176
     1
290
     0
176
     1
 90
       50
176
     1
 90
       50
176
     1
 90
       50
176
     1
290
     0
176
     1
 90
       50
176
     1
 62
   256
176
     0
 40
1.0
176
     0
 90
        2
176
     1
  1
strokes_ogs.tif
176
     1
290
     0
176
     1
 40
1.0
176
     1
 40
1.0
176
     1
  0
VISUALSTYLE
  5
3E
102
{ACAD_REACTORS
330
29
102
}
330
29
100
AcDbVisualStyle
  2
Shaded
 70
    27
177
     3
291
     0
 70
    58
 90
        2
176
     1
 90
        2
176
     1
 90
        1
176
     1
 90
        2
176
     1
 40
0.6
176
     1
 40
30.0
176
     1
 62
     7
420
 16777215
176
     1
 90
        0
176
     1
 90
        4
176
     1
 62
     7
176
     1
 62
   257
176
     1
 90
        1
176
     1
 90
        1
176
     1
 40
1.0
176
     1
 90
        8
176
     1
 62
   257
176
     1
 40
1.0
176
     1
 90
        1
176
     1
 90
        6
176
     1
 90
        2
176
     1
 62
     8
420
  7895160
176
     1
 90
        3
176
     1
 90
        0
176
     1
 90
        0
176
     1
290
     0
176
     1
 90
        5
176
     1
 40
0.0
176
     1
 90
        0
176
     1
290
     0
176
     1
290
     1
176
     1
290
     1
176
     1
290
     0
176
     1
290
     0
176
     1
290
     0
176
     1
290
     0
176
     1
290
     0
176
     1
290
     0
176
     1
 90
       50
176
     1
 40
0.0
176
     1
 40
1.0
176
     1
 90
        0
176
     1
 62
    18
420
        0
176
     1
 90
       50
176
     1
 90
        3
176
     1
 62
     5
420
      255
176
     1
290
     0
176
     1
 90
       50
176
     1
 90
       50
176
     1
 90
       50
176
     1
290
     0
176
     1
 90
       50
176
     1
 62
   256
176
     0
 40
1.0
176
     0
 90
        2
176
     1
  1
strokes_ogs.tif
176
     1
290
     0
176
     1
 40
1.0
176
     1
 40
1.0
176
     1
  0
VISUALSTYLE
  5
3D
102
{ACAD_REACTORS
330
29
102
}
330
29
100
AcDbVisualStyle
  2
Shaded with edges
 70
    26
177
     3
291
     0
 70
    58
 90
        2
176
     1
 90
        2
176
     1
 90
        1
176
     1
 90
        2
176
     1
 40
0.6
176
     1
 40
30.0
176
     1
 62
     7
420
 16777215
176
     1
 90
        1
176
     1
 90
        2
176
     1
 62
     7
176
     1
 62
   257
176
     1
 90
        2
176
     1
 90
        1
176
     1
 40
1.0
176
     1
 90
        8
176
     1
 62
   257
176
     1
 40
1.0
176
     1
 90
        1
176
     1
 90
        6
176
     1
 90
        2
176
     1
 62
     7
176
     1
 90
        3
176
     1
 90
        0
176
     1
 90
        0
176
     1
290
     0
176
     1
 90
        5
176
     1
 40
0.0
176
     1
 90
        0
176
     1
290
     0
176
     1
290
     1
176
     1
290
     1
176
     1
290
     0
176
     1
290
     0
176
     1
290
     0
176
     1
290
     0
176
     1
290
     0
176
     1
290
     0
176
     1
 90
       50
176
     1
 40
0.0
176
     1
 40
1.0
176
     1
 90
        0
176
     1
 62
    18
420
        0
176
     1
 90
       50
176
     1
 90
        3
176
     1
 62
     5
420
      255
176
     1
290
     0
176
     1
 90
       50
176
     1
 90
       50
176
     1
 90
       50
176
     1
290
     0
176
     1
 90
       50
176
     1
 62
   256
176
     0
 40
1.0
176
     0
 90
        2
176
     1
  1
strokes_ogs.tif
176
     1
290
     0
176
     1
 40
1.0
176
     1
 40
1.0
176
     1
  0
VISUALSTYLE
  5
3A
102
{ACAD_REACTORS
330
29
102
}
330
29
100
AcDbVisualStyle
  2
Shades of Gray
 70
    23
177
     3
291
     0
 70
    58
 90
        2
176
     1
 90
        2
176
     1
 90
        3
176
     1
 90
        0
176
     1
 40
0.6
176
     1
 40
30.0
176
     1
 62
     7
420
 16777215
176
     1
 90
        2
176
     1
 90
        2
176
     1
 62
     7
176
     1
 62
     7
176
     1
 90
        1
176
     1
 90
        1
176
     1
 40
40.0
176
     1
 90
        8
176
     1
 62
     7
176
     1
 40
1.0
176
     1
 90
        1
176
     1
 90
        6
176
     1
 90
        2
176
     1
 62
     7
176
     1
 90
        3
176
     1
 90
        0
176
     1
 90
        0
176
     1
290
     0
176
     1
 90
        1
176
     1
 40
0.0
176
     1
 90
        0
176
     1
290
     0
176
     1
290
     1
176
     1
290
     1
176
     1
290
     0
176
     1
290
     0
176
     1
290
     0
176
     1
290
     0
176
     1
290
     0
176
     1
290
     0
176
     1
 90
       50
176
     1
 40
0.0
176
     1
 40
1.0
176
     1
 90
        0
176
     1
 62
    18
420
        0
176
     1
 90
       50
176
     1
 90
        3
176
     1
 62
     5
420
      255
176
     1
290
     0
176
     1
 90
       50
176
     1
 90
       50
176
     1
 90
       50
176
     1
290
     0
176
     1
 90
       50
176
     1
 62
   256
176
     0
 40
1.0
176
     0
 90
        2
176
     1
  1
strokes_ogs.tif
176
     1
290
     0
176
     1
 40
1.0
176
     1
 40
1.0
176
     1
  0
VISUALSTYLE
  5
3B
102
{ACAD_REACTORS
330
29
102
}
330
29
100
AcDbVisualStyle
  2
Sketchy
 70
    24
177
     3
291
     0
 70
    58
 90
        1
176
     1
 90
        2
176
     1
 90
        2
176
     1
 90
        0
176
     1
 40
0.6
176
     1
 40
30.0
176
     1
 62
     7
420
 16777215
176
     1
 90
        2
176
     1
 90
        2
176
     1
 62
     7
176
     1
 62
     7
176
     1
 90
        1
176
     1
 90
        1
176
     1
 40
40.0
176
     1
 90
       11
176
     1
 62
     7
176
     1
 40
1.0
176
     1
 90
        1
176
     1
 90
        6
176
     1
 90
        2
176
     1
 62
     7
176
     1
 90
        6
176
     1
 90
        0
176
     1
 90
        0
176
     1
290
     0
176
     1
 90
        1
176
     1
 40
0.0
176
     1
 90
        0
176
     1
290
     0
176
     1
290
     1
176
     1
290
     1
176
     1
290
     0
176
     1
290
     0
176
     1
290
     0
176
     1
290
     0
176
     1
290
     0
176
     1
290
     0
176
     1
 90
       50
176
     1
 40
0.0
176
     1
 40
1.0
176
     1
 90
        0
176
     1
 62
    18
420
        0
176
     1
 90
       50
176
     1
 90
        3
176
     1
 62
     5
420
      255
176
     1
290
     0
176
     1
 90
       50
176
     1
 90
       50
176
     1
 90
       50
176
     1
290
     0
176
     1
 90
       50
176
     1
 62
   256
176
     0
 40
1.0
176
     0
 90
        2
176
     1
  1
strokes_ogs.tif
176
     1
290
     0
176
     1
 40
1.0
176
     1
 40
1.0
176
     1
  0
VISUALSTYLE
  5
36
102
{ACAD_REACTORS
330
29
102
}
330
29
100
AcDbVisualStyle
  2
Thicken
 70
    13
177
     3
291
     1
 70
    58
 90
        2
176
     1
 90
        2
176
     1
 90
        0
176
     1
 90
        0
176
     1
 40
0.6
176
     1
 40
30.0
176
     1
 62
     7
420
 16777215
176
     1
 90
        1
176
     1
 90
        4
176
     1
 62
     7
176
     1
 62
   257
176
     1
 90
        1
176
     1
 90
        1
176
     1
 40
1.0
176
     1
 90
       12
176
     1
 62
     7
176
     1
 40
1.0
176
     1
 90
        1
176
     1
 90
        6
176
     1
 90
        2
176
     1
 62
     7
176
     1
 90
        5
176
     1
 90
        0
176
     1
 90
        0
176
     1
290
     0
176
     1
 90
        1
176
     1
 40
0.0
176
     1
 90
        0
176
     1
290
     0
176
     1
290
     1
176
     1
290
     1
176
     1
290
     0
176
     1
290
     0
176
     1
290
     0
176
     1
290
     0
176
     1
290
     0
176
     1
290
     0
176
     1
 90
       50
176
     1
 40
0.0
176
     1
 40
1.0
176
     1
 90
        0
176
     1
 62
    18
420
        0
176
     1
 90
       50
176
     1
 90
        3
176
     1
 62
     5
420
      255
176
     1
290
     0
176
     1
 90
       50
176
     1
 90
       50
176
     1
 90
       50
176
     1
290
     0
176
     1
 90
       50
176
     1
 62
   256
176
     0
 40
1.0
176
     0
 90
        2
176
     1
  1
strokes_ogs.tif
176
     1
290
     0
176
     1
 40
1.0
176
     1
 40
1.0
176
     1
  0
VISUALSTYLE
  5
30
102
{ACAD_REACTORS
330
29
102
}
330
29
100
AcDbVisualStyle
  2
Wireframe
 70
     5
177
     3
291
     0
 70
    58
 90
        0
176
     1
 90
        2
176
     1
 90
        0
176
     1
 90
        0
176
     1
 40
0.6
176
     1
 40
30.0
176
     1
 62
     7
420
 16777215
176
     1
 90
        1
176
     1
 90
        4
176
     1
 62
     7
176
     1
 62
   257
176
     1
 90
        1
176
     1
 90
        1
176
     1
 40
1.0
176
     1
 90
        0
176
     1
 62
   257
176
     1
 40
1.0
176
     1
 90
        1
176
     1
 90
        6
176
     1
 90
        2
176
     1
 62
     7
176
     1
 90
        3
176
     1
 90
        0
176
     1
 90
        0
176
     1
290
     0
176
     1
 90
        1
176
     1
 40
0.0
176
     1
 90
        0
176
     1
290
     0
176
     1
290
     1
176
     1
290
     1
176
     1
290
     0
176
     1
290
     0
176
     1
290
     0
176
     1
290
     0
176
     1
290
     0
176
     1
290
     0
176
     1
 90
       50
176
     1
 40
0.0
176
     1
 40
1.0
176
     1
 90
        0
176
     1
 62
    18
420
        0
176
     1
 90
       50
176
     1
 90
        3
176
     1
 62
     5
420
      255
176
     1
290
     0
176
     1
 90
       50
176
     1
 90
       50
176
     1
 90
       50
176
     1
290
     0
176
     1
 90
       50
176
     1
 62
   256
176
     0
 40
1.0
176
     0
 90
        2
176
     1
  1
strokes_ogs.tif
176
     1
290
     0
176
     1
 40
1.0
176
     1
 40
1.0
176
     1
  0
VISUALSTYLE
  5
3C
102
{ACAD_REACTORS
330
29
102
}
330
29
100
AcDbVisualStyle
  2
X-Ray
 70
    25
177
     3
291
     0
 70
    58
 90
        2
176
     1
 90
        2
176
     1
 90
        1
176
     1
 90
        1
176
     1
 40
0.5
176
     1
 40
30.0
176
     1
 62
     7
420
 16777215
176
     1
 90
        1
176
     1
 90
        0
176
     1
 62
     7
176
     1
 62
   257
176
     1
 90
        1
176
     1
 90
        1
176
     1
 40
1.0
176
     1
 90
        8
176
     1
 62
     7
176
     1
 40
1.0
176
     1
 90
        1
176
     1
 90
        6
176
     1
 90
        2
176
     1
 62
     7
176
     1
 90
        3
176
     1
 90
        0
176
     1
 90
        0
176
     1
290
     0
176
     1
 90
       13
176
     1
 40
0.0
176
     1
 90
        0
176
     1
290
     0
176
     1
290
     1
176
     1
290
     1
176
     1
290
     0
176
     1
290
     0
176
     1
290
     0
176
     1
290
     0
176
     1
290
     0
176
     1
290
     0
176
     1
 90
       50
176
     1
 40
0.0
176
     1
 40
1.0
176
     1
 90
        0
176
     1
 62
    18
420
        0
176
     1
 90
       50
176
     1
 90
        3
176
     1
 62
     5
420
      255
176
     1
290
     0
176
     1
 90
       50
176
     1
 90
       50
176
     1
 90
       50
176
     1
290
     0
176
     1
 90
       50
176
     1
 62
   256
176
     0
 40
1.0
176
     0
 90
        2
176
     1
  1
strokes_ogs.tif
176
     1
290
     0
176
     1
 40
1.0
176
     1
 40
1.0
176
     1
  0
DICTIONARYVAR
  5
277
102
{ACAD_REACTORS
330
272
102
}
330
272
100
DictionaryVariables
280
     0
  1
0
  0
DICTIONARYVAR
  5
278
102
{ACAD_REACTORS
330
272
102
}
330
272
100
DictionaryVariables
280
     0
  1
1:1
  0
DICTIONARYVAR
  5
274
102
{ACAD_REACTORS
330
272
102
}
330
272
100
DictionaryVariables
280
     0
  1
STANDARD
  0
DICTIONARYVAR
  5
273
102
{ACAD_REACTORS
330
272
102
}
330
272
100
DictionaryVariables
280
     0
  1
STANDARD
  0
DICTIONARYVAR
  5
275
102
{ACAD_REACTORS
330
272
102
}
330
272
100
DictionaryVariables
280
     0
  1
Imperial24
  0
DICTIONARYVAR
  5
276
102
{ACAD_REACTORS
330
272
102
}
330
272
100
DictionaryVariables
280
     0
  1
Imperial24
  0
DICTIONARY
  5
1A
330
19
100
AcDbDictionary
280
     1
281
     1
  3
BUMPTILE
360
1C
  3
DIFFUSETILE
360
1B
  3
OPACITYTILE
360
1F
  3
REFLECTIONTILE
360
1E
  3
REFRACTIONTILE
360
20
  3
SPECULARTILE
360
1D
  0
DICTIONARY
  5
12
330
11
100
AcDbDictionary
280
     1
281
     1
  3
BUMPTILE
360
14
  3
DIFFUSETILE
360
13
  3
OPACITYTILE
360
17
  3
REFLECTIONTILE
360
16
  3
REFRACTIONTILE
360
18
  3
SPECULARTILE
360
15
  0
DICTIONARY
  5
22
330
21
100
AcDbDictionary
280
     1
281
     1
  3
BUMPTILE
360
24
  3
DIFFUSETILE
360
23
  3
OPACITYTILE
360
27
  3
REFLECTIONTILE
360
26
  3
REFRACTIONTILE
360
28
  3
SPECULARTILE
360
25
  0
DICTIONARY
  5
284
330
65
100
AcDbDictionary
280
     1
281
     1
  3
ACAD_ROUNDTRIP_2008_TABLESTYLE_CELLSTYLEMAP
360
285
  0
XRECORD
  5
1C
102
{ACAD_REACTORS
330
1A
102
}
330
1A
100
AcDbXrecord
280
     1
270
     1
271
     1
  0
XRECORD
  5
1B
102
{ACAD_REACTORS
330
1A
102
}
330
1A
100
AcDbXrecord
280
     1
270
     1
271
     1
  0
XRECORD
  5
1F
102
{ACAD_REACTORS
330
1A
102
}
330
1A
100
AcDbXrecord
280
     1
270
     1
271
     1
  0
XRECORD
  5
1E
102
{ACAD_REACTORS
330
1A
102
}
330
1A
100
AcDbXrecord
280
     1
270
     1
271
     1
  0
XRECORD
  5
20
102
{ACAD_REACTORS
330
1A
102
}
330
1A
100
AcDbXrecord
280
     1
270
     1
271
     1
  0
XRECORD
  5
1D
102
{ACAD_REACTORS
330
1A
102
}
330
1A
100
AcDbXrecord
280
     1
270
     1
271
     1
  0
XRECORD
  5
14
102
{ACAD_REACTORS
330
12
102
}
330
12
100
AcDbXrecord
280
     1
270
     1
271
     1
  0
XRECORD
  5
13
102
{ACAD_REACTORS
330
12
102
}
330
12
100
AcDbXrecord
280
     1
270
     1
271
     1
  0
XRECORD
  5
17
102
{ACAD_REACTORS
330
12
102
}
330
12
100
AcDbXrecord
280
     1
270
     1
271
     1
  0
XRECORD
  5
16
102
{ACAD_REACTORS
330
12
102
}
330
12
100
AcDbXrecord
280
     1
270
     1
271
     1
  0
XRECORD
  5
18
102
{ACAD_REACTORS
330
12
102
}
330
12
100
AcDbXrecord
280
     1
270
     1
271
     1
  0
XRECORD
  5
15
102
{ACAD_REACTORS
330
12
102
}
330
12
100
AcDbXrecord
280
     1
270
     1
271
     1
  0
XRECORD
  5
24
102
{ACAD_REACTORS
330
22
102
}
330
22
100
AcDbXrecord
280
     1
270
     1
271
     1
  0
XRECORD
  5
23
102
{ACAD_REACTORS
330
22
102
}
330
22
100
AcDbXrecord
280
     1
270
     1
271
     1
  0
XRECORD
  5
27
102
{ACAD_REACTORS
330
22
102
}
330
22
100
AcDbXrecord
280
     1
270
     1
271
     1
  0
XRECORD
  5
26
102
{ACAD_REACTORS
330
22
102
}
330
22
100
AcDbXrecord
280
     1
270
     1
271
     1
  0
XRECORD
  5
28
102
{ACAD_REACTORS
330
22
102
}
330
22
100
AcDbXrecord
280
     1
270
     1
271
     1
  0
XRECORD
  5
25
102
{ACAD_REACTORS
330
22
102
}
330
22
100
AcDbXrecord
280
     1
270
     1
271
     1
  0
CELLSTYLEMAP
  5
285
102
{ACAD_REACTORS
330
284
102
}
330
284
100
AcDbCellStyleMap
 90
        3
300
CELLSTYLE
  1
TABLEFORMAT_BEGIN
 90
        5
170
     1
 91
        0
 92
    32768
 62
   257
 93
        1
300
CONTENTFORMAT
  1
CONTENTFORMAT_BEGIN
 90
        0
 91
        0
 92
      512
 93
        0
300

 40
0.0
140
1.0
 94
        5
 62
     0
340
55
144
6.0
309
CONTENTFORMAT_END
171
     1
301
MARGIN
  1
CELLMARGIN_BEGIN
 40
1.5
 40
1.5
 40
1.5
 40
1.5
 40
4.5
 40
4.5
309
CELLMARGIN_END
 94
        6
 95
        1
302
GRIDFORMAT
  1
GRIDFORMAT_BEGIN
 90
        0
 91
        1
 62
     0
 92
       -2
340
5B
 93
        0
 40
1.125
309
GRIDFORMAT_END
 95
        2
302
GRIDFORMAT
  1
GRIDFORMAT_BEGIN
 90
        0
 91
        1
 62
     0
 92
       -2
340
5B
 93
        0
 40
1.125
309
GRIDFORMAT_END
 95
        4
302
GRIDFORMAT
  1
GRIDFORMAT_BEGIN
 90
        0
 91
        1
 62
     0
 92
       -2
340
5B
 93
        0
 40
1.125
309
GRIDFORMAT_END
 95
        8
302
GRIDFORMAT
  1
GRIDFORMAT_BEGIN
 90
        0
 91
        1
 62
     0
 92
       -2
340
5B
 93
        0
 40
1.125
309
GRIDFORMAT_END
 95
       16
302
GRIDFORMAT
  1
GRIDFORMAT_BEGIN
 90
        0
 91
        1
 62
     0
 92
       -2
340
5B
 93
        0
 40
1.125
309
GRIDFORMAT_END
 95
       32
302
GRIDFORMAT
  1
GRIDFORMAT_BEGIN
 90
        0
 91
        1
 62
     0
 92
       -2
340
5B
 93
        0
 40
1.125
309
GRIDFORMAT_END
309
TABLEFORMAT_END
  1
CELLSTYLE_BEGIN
 90
        1
 91
        1
300
_TITLE
309
CELLSTYLE_END
300
CELLSTYLE
  1
TABLEFORMAT_BEGIN
 90
        5
170
     1
 91
        0
 92
        0
 62
   257
 93
        1
300
CONTENTFORMAT
  1
CONTENTFORMAT_BEGIN
 90
        0
 91
        0
 92
      512
 93
        0
300

 40
0.0
140
1.0
 94
        5
 62
     0
340
55
144
4.5
309
CONTENTFORMAT_END
171
     1
301
MARGIN
  1
CELLMARGIN_BEGIN
 40
1.5
 40
1.5
 40
1.5
 40
1.5
 40
4.5
 40
4.5
309
CELLMARGIN_END
 94
        6
 95
        1
302
GRIDFORMAT
  1
GRIDFORMAT_BEGIN
 90
        0
 91
        1
 62
     0
 92
       -2
340
5B
 93
        0
 40
1.125
309
GRIDFORMAT_END
 95
        2
302
GRIDFORMAT
  1
GRIDFORMAT_BEGIN
 90
        0
 91
        1
 62
     0
 92
       -2
340
5B
 93
        0
 40
1.125
309
GRIDFORMAT_END
 95
        4
302
GRIDFORMAT
  1
GRIDFORMAT_BEGIN
 90
        0
 91
        1
 62
     0
 92
       -2
340
5B
 93
        0
 40
1.125
309
GRIDFORMAT_END
 95
        8
302
GRIDFORMAT
  1
GRIDFORMAT_BEGIN
 90
        0
 91
        1
 62
     0
 92
       -2
340
5B
 93
        0
 40
1.125
309
GRIDFORMAT_END
 95
       16
302
GRIDFORMAT
  1
GRIDFORMAT_BEGIN
 90
        0
 91
        1
 62
     0
 92
       -2
340
5B
 93
        0
 40
1.125
309
GRIDFORMAT_END
 95
       32
302
GRIDFORMAT
  1
GRIDFORMAT_BEGIN
 90
        0
 91
        1
 62
     0
 92
       -2
340
5B
 93
        0
 40
1.125
309
GRIDFORMAT_END
309
TABLEFORMAT_END
  1
CELLSTYLE_BEGIN
 90
        2
 91
        1
300
_HEADER
309
CELLSTYLE_END
300
CELLSTYLE
  1
TABLEFORMAT_BEGIN
 90
        5
170
     1
 91
        0
 92
        0
 62
   257
 93
        1
300
CONTENTFORMAT
  1
CONTENTFORMAT_BEGIN
 90
        0
 91
        0
 92
      512
 93
        0
300

 40
0.0
140
1.0
 94
        2
 62
     0
340
55
144
4.5
309
CONTENTFORMAT_END
171
     1
301
MARGIN
  1
CELLMARGIN_BEGIN
 40
1.5
 40
1.5
 40
1.5
 40
1.5
 40
4.5
 40
4.5
309
CELLMARGIN_END
 94
        6
 95
        1
302
GRIDFORMAT
  1
GRIDFORMAT_BEGIN
 90
        0
 91
        1
 62
     0
 92
       -2
340
5B
 93
        0
 40
1.125
309
GRIDFORMAT_END
 95
        2
302
GRIDFORMAT
  1
GRIDFORMAT_BEGIN
 90
        0
 91
        1
 62
     0
 92
       -2
340
5B
 93
        0
 40
1.125
309
GRIDFORMAT_END
 95
        4
302
GRIDFORMAT
  1
GRIDFORMAT_BEGIN
 90
        0
 91
        1
 62
     0
 92
       -2
340
5B
 93
        0
 40
1.125
309
GRIDFORMAT_END
 95
        8
302
GRIDFORMAT
  1
GRIDFORMAT_BEGIN
 90
        0
 91
        1
 62
     0
 92
       -2
340
5B
 93
        0
 40
1.125
309
GRIDFORMAT_END
 95
       16
302
GRIDFORMAT
  1
GRIDFORMAT_BEGIN
 90
        0
 91
        1
 62
     0
 92
       -2
340
5B
 93
        0
 40
1.125
309
GRIDFORMAT_END
 95
       32
302
GRIDFORMAT
  1
GRIDFORMAT_BEGIN
 90
        0
 91
        1
 62
     0
 92
       -2
340
5B
 93
        0
 40
1.125
309
GRIDFORMAT_END
309
TABLEFORMAT_END
  1
CELLSTYLE_BEGIN
 90
        3
 91
        2
300
_DATA
309
CELLSTYLE_END
  0
ENDSEC
  0
EOF
